  0
SECTION
  2
HEADER
  9
$ACADVER
  1
AC1009
  9
$INSBASE
 10
1412.315326303681104
 20
172.1993187878802019
 30
0.0
  9
$EXTMIN
 10
1406.6895689256359674
 20
148.4542720031190868
 30
-0.0000000000112498
  9
$EXTMAX
 10
1421.7274174801950721
 20
172.2120690413426871
 30
0.0000000000002956
  9
$LIMMIN
 10
0.0
 20
0.0
  9
$LIMMAX
 10
11.6929133858000007
 20
8.2677165353999982
  9
$ORTHOMODE
 70
     0
  9
$REGENMODE
 70
     1
  9
$FILLMODE
 70
     1
  9
$QTEXTMODE
 70
     0
  9
$MIRRTEXT
 70
     0
  9
$DRAGMODE
 70
     2
  9
$LTSCALE
 40
0.6431102362
  9
$OSMODE
 70
  4095
  9
$ATTMODE
 70
     1
  9
$TEXTSIZE
 40
0.2
  9
$TRACEWID
 40
0.05
  9
$TEXTSTYLE
  7
STANDARD
  9
$CLAYER
  8
0
  9
$CELTYPE
  6
BYLAYER
  9
$CECOLOR
 62
   256
  9
$DIMSCALE
 40
1.0
  9
$DIMASZ
 40
0.1875
  9
$DIMEXO
 40
0.0625
  9
$DIMDLI
 40
0.4443307087
  9
$DIMRND
 40
0.0
  9
$DIMDLE
 40
0.0
  9
$DIMEXE
 40
0.125
  9
$DIMTP
 40
0.01
  9
$DIMTM
 40
0.01
  9
$DIMTXT
 40
1.0
  9
$DIMCEN
 40
0.1052362205
  9
$DIMTSZ
 40
0.0
  9
$DIMTOL
 70
     1
  9
$DIMLIM
 70
     0
  9
$DIMTIH
 70
     0
  9
$DIMTOH
 70
     1
  9
$DIMSE1
 70
     0
  9
$DIMSE2
 70
     0
  9
$DIMTAD
 70
     0
  9
$DIMZIN
 70
     0
  9
$DIMBLK
  1

  9
$DIMASO
 70
     1
  9
$DIMSHO
 70
     1
  9
$DIMPOST
  1
\X
  9
$DIMAPOST
  1

  9
$DIMALT
 70
     1
  9
$DIMALTD
 70
     2
  9
$DIMALTF
 40
25.3999999999999986
  9
$DIMLFAC
 40
1.0
  9
$DIMTOFL
 70
     0
  9
$DIMTVP
 40
0.0
  9
$DIMTIX
 70
     0
  9
$DIMSOXD
 70
     0
  9
$DIMSAH
 70
     0
  9
$DIMBLK1
  1

  9
$DIMBLK2
  1

  9
$DIMSTYLE
  2
STANDARD
  9
$DIMCLRD
 70
     0
  9
$DIMCLRE
 70
     0
  9
$DIMCLRT
 70
     0
  9
$DIMTFAC
 40
1.0
  9
$DIMGAP
 40
0.09
  9
$LUNITS
 70
     2
  9
$LUPREC
 70
     4
  9
$SKETCHINC
 40
0.1
  9
$FILLETRAD
 40
0.0
  9
$AUNITS
 70
     0
  9
$AUPREC
 70
     0
  9
$MENU
  1
.
  9
$ELEVATION
 40
0.0
  9
$PELEVATION
 40
0.0
  9
$THICKNESS
 40
0.0
  9
$LIMCHECK
 70
     0
  9
$BLIPMODE
 70
     0
  9
$CHAMFERA
 40
0.0
  9
$CHAMFERB
 40
0.0
  9
$SKPOLY
 70
     0
  9
$TDCREATE
 40
2458172.5207638889551163
  9
$TDUPDATE
 40
2459154.7824537041597068
  9
$TDINDWG
 40
0.4604405324
  9
$TDUSRTIMER
 40
0.4604405324
  9
$USRTIMER
 70
     1
  9
$ANGBASE
 50
0.0
  9
$ANGDIR
 70
     0
  9
$PDMODE
 70
     0
  9
$PDSIZE
 40
0.3125
  9
$PLINEWID
 40
0.0
  9
$COORDS
 70
     1
  9
$SPLFRAME
 70
     0
  9
$SPLINETYPE
 70
     6
  9
$SPLINESEGS
 70
     8
  9
$ATTDIA
 70
     1
  9
$ATTREQ
 70
     1
  9
$HANDLING
 70
     1
  9
$HANDSEED
  5
DB46
  9
$SURFTAB1
 70
     6
  9
$SURFTAB2
 70
     6
  9
$SURFTYPE
 70
     6
  9
$SURFU
 70
     6
  9
$SURFV
 70
     6
  9
$UCSNAME
  2

  9
$UCSORG
 10
0.0
 20
0.0
 30
0.0
  9
$UCSXDIR
 10
1.0
 20
0.0
 30
0.0
  9
$UCSYDIR
 10
0.0
 20
1.0
 30
0.0
  9
$PUCSNAME
  2

  9
$PUCSORG
 10
0.0
 20
0.0
 30
0.0
  9
$PUCSXDIR
 10
1.0
 20
0.0
 30
0.0
  9
$PUCSYDIR
 10
0.0
 20
1.0
 30
0.0
  9
$USERI1
 70
     0
  9
$USERI2
 70
     0
  9
$USERI3
 70
     0
  9
$USERI4
 70
     0
  9
$USERI5
 70
     0
  9
$USERR1
 40
0.0
  9
$USERR2
 40
0.0
  9
$USERR3
 40
0.0
  9
$USERR4
 40
0.0
  9
$USERR5
 40
0.0
  9
$WORLDVIEW
 70
     1
  9
$SHADEDGE
 70
     3
  9
$SHADEDIF
 70
    70
  9
$TILEMODE
 70
     1
  9
$MAXACTVP
 70
    64
  9
$PLIMCHECK
 70
     0
  9
$PEXTMIN
 10
1.0000000000000000E+20
 20
1.0000000000000000E+20
 30
1.0000000000000000E+20
  9
$PEXTMAX
 10
-1.0000000000000000E+20
 20
-1.0000000000000000E+20
 30
-1.0000000000000000E+20
  9
$PLIMMIN
 10
0.0
 20
0.0
  9
$PLIMMAX
 10
12.0
 20
9.0
  9
$UNITMODE
 70
     0
  9
$VISRETAIN
 70
     1
  9
$PLINEGEN
 70
     0
  9
$PSLTSCALE
 70
     1
  0
ENDSEC
  0
SECTION
  2
TABLES
  0
TABLE
  2
VPORT
 70
     1
  0
VPORT
  2
*ACTIVE
 70
     0
 10
0.0
 20
0.0
 11
1.0
 21
1.0
 12
947.4662914950854429
 22
71.2000234023011132
 13
0.0
 23
0.0
 14
1.0
 24
1.0
 15
0.0
 25
0.0
 16
0.0
 26
0.0
 36
24.1179433675886514
 17
466.74220170783002
 27
89.133147119929788
 37
0.0
 40
24.0604441342519202
 41
2.887234042553191
 42
50.0
 43
0.0
 44
0.0
 50
0.0
 51
0.0
 71
     0
 72
   100
 73
     1
 74
     1
 75
     0
 76
     0
 77
     0
 78
     0
  0
ENDTAB
  0
TABLE
  2
LTYPE
 70
     2
  0
LTYPE
  2
CONTINUOUS
 70
     0
  3
Solid line
 72
    65
 73
     0
 40
0.0
  0
LTYPE
  2
PHANTOM2
 70
     0
  3
___ _ _ ___ _ _ ___ _ _ ___ _ _
 72
    65
 73
     6
 40
1.25
 49
0.625
 49
-0.125
 49
0.125
 49
-0.125
 49
0.125
 49
-0.125
  0
ENDTAB
  0
TABLE
  2
LAYER
 70
     2
  0
LAYER
  2
0
 70
     0
 62
   255
  6
CONTINUOUS
  0
LAYER
  2
DEFPOINTS
 70
     0
 62
     7
  6
CONTINUOUS
  0
ENDTAB
  0
TABLE
  2
STYLE
 70
     1
  0
STYLE
  2
STANDARD
 70
     0
 40
0.0
 41
0.8
 50
0.0
 71
     0
 42
0.2
  3
txt
  4

  0
ENDTAB
  0
TABLE
  2
VIEW
 70
     0
  0
ENDTAB
  0
TABLE
  2
UCS
 70
     0
  0
ENDTAB
  0
TABLE
  2
APPID
 70
    11
  0
APPID
  2
ACAD
 70
     0
  0
APPID
  2
ACAD_MLEADERVER
 70
     0
  0
APPID
  2
ACAD_EXEMPT_FROM_CAD_STANDARDS
 70
     0
  0
APPID
  2
ACAD_DSTYLE_DIMJAG
 70
     0
  0
APPID
  2
ACAD_DSTYLE_DIMTALN
 70
     0
  0
APPID
  2
ACAD_NAV_VCDISPLAY
 70
     0
  0
APPID
  2
ACAECLAYERSTANDARD
 70
     0
  0
APPID
  2
ACCMTRANSPARENCY
 70
     0
  0
APPID
  2
DCO15
 70
     0
  0
APPID
  2
ACDBATTR
 70
     0
  0
APPID
  2
ACADANNOTATIVE
 70
     0
  0
ENDTAB
  0
TABLE
  2
DIMSTYLE
 70
     1
  0
DIMSTYLE
  2
STANDARD
 70
     0
  3

  4

  5

  6

  7

 40
1.0
 41
0.1875
 42
0.0625
 43
0.38
 44
0.125
 45
0.0
 46
0.0
 47
0.01
 48
0.01
140
0.15625
141
0.09
142
0.0
143
25.3999999999999986
144
1.0
145
0.0
146
1.0
147
0.09
 71
     1
 72
     0
 73
     1
 74
     1
 75
     0
 76
     0
 77
     0
 78
     4
170
     0
171
     2
172
     0
173
     0
174
     0
175
     0
176
     0
177
     0
178
     0
  0
ENDTAB
  0
ENDSEC
  0
SECTION
  2
BLOCKS
  0
BLOCK
  8
0
  2
$MODEL_SPACE
 70
     0
 10
0.0
 20
0.0
 30
0.0
  3
$MODEL_SPACE
  1

  0
ENDBLK
  5
21
  8
0
  0
BLOCK
 67
     1
  8
0
  2
$PAPER_SPACE
 70
     0
 10
0.0
 20
0.0
 30
0.0
  3
$PAPER_SPACE
  1

  0
ENDBLK
  5
1D
 67
     1
  8
0
  0
ENDSEC
  0
SECTION
  2
ENTITIES
  0
ATTDEF
  5
829
  8
DEFPOINTS
 10
1412.3109683549289457
 20
172.1968403013052864
 30
0.0
 40
0.001
  1
K-23125T-9
  3

  2
MODELNUMBER
 70
     0
1001
ACDBATTR
1070
     0
1070
     1
  0
ATTDEF
  5
82A
  8
DEFPOINTS
 10
1412.3109683549289457
 20
172.1951736346385928
 30
0.0
 40
0.001
  1
JULY
  3

  2
TRADENAME
 70
     0
1001
ACDBATTR
1070
     0
1070
     1
  0
ATTDEF
  5
82B
  8
DEFPOINTS
 10
1412.3109683549289457
 20
172.1935069679720129
 30
0.0
 40
0.001
  1
BATH AND SHOWER FAUCET
  3

  2
PRODUCT
 70
     0
1001
ACDBATTR
1070
     0
1070
     1
  0
LINE
  5
D974
  8
0
 10
1410.6420829966309611
 20
172.1599487090803109
 30
0.0
 11
1408.0830577997301134
 21
172.1599487090803109
 31
0.0
  0
LINE
  5
D975
  8
0
 10
1410.6617829966310182
 20
172.0182406202796983
 30
0.0
 11
1410.6617829966310182
 21
172.1402487090803106
 31
0.0
  0
LINE
  5
D976
  8
0
 10
1408.0633577997309658
 20
172.0182406202796983
 30
0.0
 11
1408.0633577997309658
 21
172.1402487090803106
 31
0.0
  0
LINE
  5
D977
  8
0
 10
1408.7455351847879683
 20
171.3892306879689045
 30
0.0
 11
1408.1390340552470661
 21
171.8630813028881903
 31
0.0
  0
LINE
  5
D978
  8
0
 10
1409.9796056115731062
 20
171.3892306879689045
 30
0.0
 11
1410.5861067411140084
 21
171.8630813028881903
 31
0.0
  0
LINE
  5
D979
  8
0
 10
1409.9311530534680514
 20
171.3725471342802962
 30
0.0
 11
1408.7939877428930231
 21
171.3725471342802962
 31
0.0
  0
ARC
  5
D97A
  8
0
 10
1409.9311530534680514
 20
171.4512471342802939
 30
0.0
 40
0.0787
 50
270.0
 51
307.9999999969750206
  0
ARC
  5
D97B
  8
0
 10
1408.7939877428930231
 20
171.4512471342802939
 30
0.0
 40
0.0787
 50
232.0000000030115928
 51
270.0
  0
ARC
  5
D97C
  8
0
 10
1408.2602577997311073
 20
172.0182406202796983
 30
0.0
 40
0.1969
 50
180.0000000000032117
 51
232.0000000030115928
  0
ARC
  5
D97D
  8
0
 10
1410.4648829966311041
 20
172.0182406202796983
 30
0.0
 40
0.1969
 50
307.999999996988322
 51
359.9999999999902229
  0
ARC
  5
D97E
  8
0
 10
1410.6420829966309611
 20
172.1402487090803106
 30
0.0
 40
0.0197
 50
359.9999999999575948
 51
90.0
  0
ARC
  5
D97F
  8
0
 10
1408.0830577997301134
 20
172.1402487090803106
 30
0.0
 40
0.0197
 50
90.0
 51
180.0000000000194973
  0
LINE
  5
D980
  8
0
 10
1408.7917042564311032
 20
170.5300274492803112
 30
0.0
 11
1409.9334365399299713
 21
170.5300274492803112
 31
0.0
  0
LINE
  5
D981
  8
0
 10
1408.7523341777309724
 20
170.5693975279802999
 30
0.0
 11
1408.7917042564311032
 21
170.5300274492803112
 31
0.0
  0
LINE
  5
D982
  8
0
 10
1408.7523341777309724
 20
170.5693975279802999
 30
0.0
 11
1408.7523341777309724
 21
171.2780589452802928
 31
0.0
  0
LINE
  5
D983
  8
0
 10
1409.9728066186310116
 20
170.5693975279802999
 30
0.0
 11
1409.9728066186310116
 21
171.2780589452802928
 31
0.0
  0
LINE
  5
D984
  8
0
 10
1409.9728066186310116
 20
170.5693975279802999
 30
0.0
 11
1409.9334365399299713
 21
170.5300274492803112
 31
0.0
  0
LINE
  5
D985
  8
0
 10
1409.8771373273309564
 20
171.3174290240802975
 30
0.0
 11
1409.8771373273309564
 21
171.3725471342802962
 31
0.0
  0
LINE
  5
D986
  8
0
 10
1408.7917042564311032
 20
171.3174290240802975
 30
0.0
 11
1409.9334365399299713
 21
171.3174290240802975
 31
0.0
  0
LINE
  5
D987
  8
0
 10
1409.9334365399299713
 20
171.3174290240802975
 30
0.0
 11
1409.9728066186310116
 21
171.2780589452802928
 31
0.0
  0
LINE
  5
D988
  8
0
 10
1408.7523341777309724
 20
171.2780589452802928
 30
0.0
 11
1408.7917042564311032
 21
171.3174290240802975
 31
0.0
  0
LINE
  5
D989
  8
0
 10
1408.8480034690310276
 20
171.3725471342802962
 30
0.0
 11
1408.8480034690310276
 21
171.3174290240802975
 31
0.0
  0
LINE
  5
D98A
  8
0
 10
1408.7720192170809241
 20
170.4512872917802895
 30
0.0
 11
1410.0167255698809186
 21
170.4512872917802895
 31
0.0
  0
LINE
  5
D98B
  8
0
 10
1408.9413105556300252
 20
170.5300274492803112
 30
0.0
 11
1408.9413105556300252
 21
170.4512872917302957
 31
0.0
  0
LINE
  5
D98C
  8
0
 10
1409.7838302406310049
 20
170.5300274492803112
 30
0.0
 11
1409.7838302406310049
 21
170.4512872917302957
 31
0.0
  0
LINE
  5
D98D
  8
0
 10
1408.7720051377800701
 20
168.4197912330658937
 30
0.0
 11
1411.921625516280983
 21
168.4188325218979969
 31
0.0
  0
LINE
  5
D98E
  8
0
 10
1408.7247751225809225
 20
168.4197912294301887
 30
0.0
 11
1408.2547856569269698
 21
168.4156896935880923
 31
0.0
  0
LINE
  5
D98F
  8
0
 10
1408.7247751225809225
 20
168.5182164256802935
 30
0.0
 11
1408.7720051377800701
 21
168.5182164256802935
 31
0.0
  0
LINE
  5
D990
  8
0
 10
1408.7247751225809225
 20
169.9945943777302944
 30
0.0
 11
1406.8716621592250249
 21
170.0107662496085084
 31
0.0
  0
LINE
  5
D991
  8
0
 10
1408.7720051377800701
 20
169.8961691815802908
 30
0.0
 11
1408.7247751225809225
 21
169.8961691815802908
 31
0.0
  0
LINE
  5
D992
  8
0
 10
1406.7684967738939577
 20
168.9000762324554898
 30
0.0
 11
1406.7684967738939577
 21
169.5172170815457093
 31
0.0
  0
LINE
  5
D993
  8
0
 10
1408.7247751225809225
 20
168.4197912294301887
 30
0.0
 11
1408.7247751225809225
 21
169.9945943777302944
 31
0.0
  0
ARC
  5
D994
  8
0
 10
1410.6932811584379124
 20
169.2071924642341969
 30
0.0
 40
3.937009998526193
 50
168.6931995566718001
 51
175.483498491260093
  0
ARC
  5
D995
  8
0
 10
1410.5786668962789463
 20
169.1908454890499911
 30
0.0
 40
3.8212488955962129
 50
184.3640104972513996
 51
193.6982444818775946
  0
ARC
  5
D996
  8
0
 10
1406.7835108439030591
 20
168.9588255674177049
 30
0.0
 40
0.03103973301302
 50
184.9994523402239111
 51
241.0723462129213033
  0
ARC
  5
D997
  8
0
 10
1408.7053170455810687
 20
169.2076724004666062
 30
0.0
 40
1.9688637228150121
 50
172.6595172865168024
 51
187.3404579117124058
  0
ARC
  5
D998
  8
0
 10
1406.783819790824964
 20
169.4552282454532133
 30
0.0
 40
0.0314851966064056
 50
119.1221865764111953
 51
172.7070182063075094
  0
ARC
  5
D999
  8
0
 10
1406.8713183337260944
 20
169.9713677498397999
 30
0.0
 40
0.0394
 50
89.4999999986274872
 51
168.6931995566650926
  0
LINE
  5
D99A
  8
0
 10
1406.9045937850580685
 20
168.2558725259277139
 30
0.0
 11
1408.0454877935760578
 21
168.2618462874955014
 31
0.0
  0
ARC
  5
D99B
  8
0
 10
1406.9043874880860585
 20
168.2952719858421915
 30
0.0
 40
0.0394
 50
193.6982444818121962
 51
270.299999995869598
  0
ARC
  5
D99C
  8
0
 10
1408.252431566874975
 20
168.2974917851385044
 30
0.0
 40
0.1182213487572366
 50
88.8590187719739646
 51
163.1486600664703133
  0
ARC
  5
D99D
  8
0
 10
1408.0450802562309036
 20
168.3602707244421026
 30
0.0
 40
0.0984252806697548
 50
270.2372382711220098
 51
343.1636472542057277
  0
ARC
  5
D99E
  8
0
 10
1407.8215700272050981
 20
169.9827757790635872
 30
0.0
 40
0.0197
 50
89.4999999985883932
 51
106.8718875300978937
  0
LINE
  5
D99F
  8
0
 10
1411.6683017550810746
 20
168.1379709788855905
 30
0.0
 11
1411.7149365832810872
 21
165.4664897224803042
 31
0.0
  0
ARC
  5
D9A0
  8
0
 10
1411.3015003645580236
 20
168.0398491778898915
 30
0.0
 40
0.3796987594386692
 50
14.97633860016707
 51
86.9644226441630082
  0
LINE
  5
D9A1
  8
0
 10
1410.1893420728808906
 20
170.5300274492803112
 30
0.0
 11
1411.8232003193809305
 21
170.5300274492803112
 31
0.0
  0
LINE
  5
D9A2
  8
0
 10
1413.5554837839808897
 20
172.1993187878802019
 30
0.0
 11
1411.075168823381091
 21
172.1993187878802019
 31
0.0
  0
LINE
  5
D9A3
  8
0
 10
1413.5259834756820965
 20
171.8056180004801945
 30
0.0
 11
1411.1046691316789747
 21
171.8056180004801945
 31
0.0
  0
LINE
  5
D9A4
  8
0
 10
1413.545676724984105
 20
171.8248023145985997
 30
0.0
 11
1413.5554837839808897
 21
172.1993187878802019
 31
0.0
  0
LINE
  5
D9A5
  8
0
 10
1411.0849758823781031
 20
171.8248023145985997
 30
0.0
 11
1411.075168823381091
 21
172.1993187878802019
 31
0.0
  0
LINE
  5
D9A6
  8
0
 10
1412.8074522878810058
 20
170.1323896539801979
 30
0.0
 11
1412.8074522878810058
 21
171.8056180004801945
 31
0.0
  0
LINE
  5
D9A7
  8
0
 10
1411.8232008614809274
 20
170.1323896539801979
 30
0.0
 11
1411.8232003193809305
 21
171.8056180004801945
 31
0.0
  0
LINE
  5
D9A8
  8
0
 10
1411.8232008614809274
 20
170.1323896539801979
 30
0.0
 11
1412.8074522878810058
 21
170.1323896539801979
 31
0.0
  0
ARC
  5
D9A9
  8
0
 10
1413.5259834756820965
 20
171.8253180004803085
 30
0.0
 40
0.0197
 50
270.0
 51
358.4999999998116209
  0
ARC
  5
D9AA
  8
0
 10
1411.1046691316789747
 20
171.8253180004803085
 30
0.0
 40
0.0197
 50
181.5000000001884075
 51
270.0
  0
LINE
  5
D9AB
  8
0
 10
1410.4846176422809094
 20
169.9945943783802136
 30
0.0
 11
1412.0003656736810171
 21
169.9945943783802988
 31
0.0
  0
LINE
  5
D9AC
  8
0
 10
1412.6302869335809191
 20
169.9945943783802988
 30
0.0
 11
1413.1420979571810221
 21
169.9945943783802988
 31
0.0
  0
LINE
  5
D9AD
  8
0
 10
1410.4649326028809355
 20
168.4394912287802129
 30
0.0
 11
1410.4649326028809355
 21
169.9748943783802133
 31
0.0
  0
ARC
  5
D9AE
  8
0
 10
1410.4846326028809926
 20
168.4394912287802129
 30
0.0
 40
0.0197
 50
180.0
 51
269.9999999999869829
  0
ARC
  5
D9AF
  8
0
 10
1410.484607073216921
 20
169.9749198943366935
 30
0.0
 40
0.0196744868823731
 50
89.9692209119101278
 51
180.0743072504540123
  0
LINE
  5
D9B0
  8
0
 10
1411.921625516280983
 20
169.2071928035803126
 30
0.0
 11
1411.921625516280983
 21
153.4591613074802865
 31
0.0
  0
LINE
  5
D9B1
  8
0
 10
1412.7090270910809977
 20
169.2071928035803126
 30
0.0
 11
1412.7090270910809977
 21
153.4591613074802865
 31
0.0
  0
LINE
  5
D9B2
  8
0
 10
1413.1420979572310443
 20
169.9945943783802988
 30
0.0
 11
1413.1420979572310443
 21
168.4197912287802978
 31
0.0
  0
LINE
  5
D9B3
  8
0
 10
1413.1853263036809949
 20
169.9945943783802988
 30
0.0
 11
1413.1853263036809949
 21
168.4197912287802978
 31
0.0
  0
LINE
  5
D9B4
  8
0
 10
1413.1853263037310171
 20
168.5260904413802905
 30
0.0
 11
1413.1420979572310443
 21
168.5260904413802905
 31
0.0
  0
LINE
  5
D9B5
  8
0
 10
1413.1420979571810221
 20
169.8882951657803062
 30
0.0
 11
1413.1853263036809949
 21
169.8882951657803062
 31
0.0
  0
ARC
  5
D9B6
  8
0
 10
1412.315326303681104
 20
169.2071928035803126
 30
0.0
 40
0.3937007874
 50
0.0
 51
180.0
  0
LINE
  5
D9B7
  8
0
 10
1412.0003656736810171
 20
169.7981242537634898
 30
0.0
 11
1412.0003656736810171
 21
170.1323896538802956
 31
0.0
  0
LINE
  5
D9B8
  8
0
 10
1412.6302869335809191
 20
169.7981244669371108
 30
0.0
 11
1412.6302869335809191
 21
170.1323896538802956
 31
0.0
  0
ARC
  5
D9B9
  8
0
 10
1412.315326303681104
 20
169.2071928035803126
 30
0.0
 40
0.6496062992000005
 50
307.3052009664631896
 51
232.6947990335368104
  0
ARC
  5
D9BA
  8
0
 10
1412.6697331521729666
 20
169.7981058564132866
 30
0.0
 40
0.0394462229854254
 50
179.9729681466997988
 51
237.9307856444258107
  0
ARC
  5
D9BB
  8
0
 10
1411.9609194549880158
 20
169.7981058564132866
 30
0.0
 40
0.0394462229854254
 50
302.0692071341700853
 51
0.0267222177490302
  0
ARC
  5
D9BC
  8
0
 10
1412.315326303681104
 20
169.2071928035803126
 30
0.0
 40
0.4330708660999977
 50
335.3800226828935251
 51
204.6199773171082086
  0
LINE
  5
D9BD
  8
0
 10
1411.921625516280983
 20
169.1678227236014891
 30
0.0
 11
1411.8840486993740342
 21
169.1678227236014891
 31
0.0
  0
LINE
  5
D9BE
  8
0
 10
1411.9235989662129214
 20
169.2465628806760094
 30
0.0
 11
1411.8840486993640297
 21
169.2465628806760094
 31
0.0
  0
ARC
  5
D9BF
  8
0
 10
1412.3153263036820135
 20
169.2071928021939868
 30
0.0
 40
0.401574881201844
 50
174.3737301879984045
 51
185.6262698278567029
  0
ARC
  5
D9C0
  8
0
 10
1412.3153263036799672
 20
169.2071928021939868
 30
0.0
 40
0.4212598575998363
 50
174.6374286098291861
 51
185.3625714052828926
  0
ARC
  5
D9C1
  8
0
 10
1411.2917042564311032
 20
169.2071928037252064
 30
0.0
 40
0.3188976379491767
 50
237.5050111063503948
 51
302.3261203163530126
  0
ARC
  5
D9C2
  8
0
 10
1411.2916866883128932
 20
169.2071652219156874
 30
0.0
 40
0.3188649363439707
 50
122.6102378145016019
 51
237.505011100079912
  0
ARC
  5
D9C3
  8
0
 10
1411.2921080008259196
 20
169.2061020002539919
 30
0.0
 40
0.3199876762280918
 50
57.2860059298357598
 51
122.5711860757207035
  0
ARC
  5
D9C4
  8
0
 10
1411.2425171889810827
 20
169.2072030698805065
 30
0.0
 40
0.2952512111996764
 50
91.3894832919715441
 51
114.5501104361238021
  0
ARC
  5
D9C5
  8
0
 10
1412.315326303681104
 20
153.4591613074802865
 30
0.0
 40
0.3937007874000002
 50
180.0
 51
0.0
  0
ARC
  5
D9C6
  8
0
 10
1412.3154005136539126
 20
153.4588980398297053
 30
0.0
 40
0.413536655581974
 50
162.2663328274948924
 51
17.8515179710709084
  0
ARC
  5
D9C7
  8
0
 10
1412.315326303681104
 20
153.472698744231991
 30
0.0
 40
0.4879454727516622
 50
143.7896938721630136
 51
36.2103061278369509
  0
LINE
  5
D9C8
  8
0
  6
CONTINUOUS
 62
     7
 10
1413.7734478913489511
 20
168.9501699735679097
 30
0.0
 11
1413.7739385190809571
 21
168.4197912287802978
 31
0.0
  0
LINE
  5
D9C9
  8
0
  6
CONTINUOUS
 62
     7
 10
1416.3563745841809123
 20
163.7411815396802126
 30
0.0
 11
1416.3563745841809123
 21
163.7411815396802126
 31
0.0
  0
LINE
  5
D9CA
  8
0
  6
CONTINUOUS
 62
     7
 10
1415.3124490938810141
 20
165.9981017798801872
 30
0.0
 11
1415.309636625280973
 21
166.0010532400802106
 31
0.0
  0
LINE
  5
D9CB
  8
0
  6
CONTINUOUS
 62
     7
 10
1415.3096391174810833
 20
166.001050616380212
 30
0.0
 11
1415.309636625280973
 21
166.0010532400802106
 31
0.0
  0
ARC
  5
D9CC
  8
0
  6
CONTINUOUS
 62
     7
 10
1414.8445059367809336
 20
165.5495696986801875
 30
0.0
 40
0.6481911959000001
 50
43.788169082897312
 51
44.303616421602328
  0
ARC
  5
D9CD
  8
0
 10
1414.305256176184912
 20
168.9159486257412084
 30
0.0
 40
0.5329082026646021
 50
90.1258300289371306
 51
176.318148440694813
  0
ARC
  5
D9CE
  8
0
 10
1414.3348672420120238
 20
168.9095485252873914
 30
0.0
 40
0.5397455476600469
 50
4.7514423553418803
 51
91.2469410457607353
  0
LINE
  5
D9CF
  8
0
 10
1414.8727579096118916
 20
168.9542574273947082
 30
0.0
 11
1414.8708401008379951
 21
168.0946523325698934
 31
0.0
  0
ARC
  5
D9D0
  8
0
 10
1401.1523297054989143
 20
167.9912533710804041
 30
0.0
 40
12.6288817295339495
 50
354.6679751632080979
 51
1.9446001331858329
  0
ARC
  5
D9D1
  8
0
 10
1412.3453702936549234
 20
166.9238370187605085
 30
0.0
 40
1.385267825395651
 50
318.1099839902964845
 51
355.6052732178283122
  0
ARC
  5
D9D2
  8
0
 10
1410.3173840800550352
 20
169.069347212068493
 30
0.0
 40
4.3343425435059331
 50
303.4898401195289921
 51
314.8949439933803092
  0
ARC
  5
D9D3
  8
0
 10
1422.9139007626160947
 20
167.7790200248907126
 30
0.0
 40
8.0492514287159622
 50
177.7527057021688108
 51
187.5499327671927006
  0
ARC
  5
D9D4
  8
0
 10
1416.4027984216929781
 20
166.9418582851434962
 30
0.0
 40
1.484821289108307
 50
188.5374682481790956
 51
210.2182573932124114
  0
ARC
  5
D9D5
  8
0
 10
1416.8776458121410542
 20
167.4438747860396006
 30
0.0
 40
2.1566231775946041
 50
215.4009422509163016
 51
229.3489799489545931
  0
ARC
  5
D9D6
  8
0
 10
1412.7553409380029734
 20
161.9718307570589104
 30
0.0
 40
4.7008215550785373
 50
44.4067523091230427
 51
54.6855574232151298
  0
ARC
  5
D9D7
  8
0
 10
1415.016519116175914
 20
164.2792216488462884
 30
0.0
 40
1.4723524503697529
 50
4.282470658893871
 51
41.8327222884420209
  0
ARC
  5
D9D8
  8
0
 10
1414.3245347893800954
 20
165.4624377496224099
 30
0.0
 40
2.7303476588903308
 50
233.7232770988163111
 51
281.4935501712398036
  0
ARC
  5
D9D9
  8
0
 10
1414.464450242014891
 20
165.0919852848714129
 30
0.0
 40
2.340300669304106
 50
279.9437763051159891
 51
310.3704960574956999
  0
ARC
  5
D9DA
  8
0
 10
1414.8605970665830682
 20
164.5918692198412998
 30
0.0
 40
1.702824762350845
 50
311.1149966236534965
 51
334.9829820157494282
  0
ARC
  5
D9DB
  8
0
 10
1415.056179588330906
 20
164.3480183752039068
 30
0.0
 40
1.4291737213668141
 50
340.5346851381527244
 51
1.649904951653741
  0
ARC
  5
D9DC
  8
0
 10
1414.2395511419069862
 20
165.0848901752696918
 30
0.0
 40
2.4114322225982159
 50
230.6026307971170013
 51
259.7359667924483233
  0
ARC
  5
D9DD
  8
0
 10
1414.322318559580026
 20
165.4208818876585099
 30
0.0
 40
2.7568793818476389
 50
259.2875857028182054
 51
285.3093502694317181
  0
ARC
  5
D9DE
  8
0
 10
1414.4838048899600835
 20
164.9170202144451878
 30
0.0
 40
2.2283760992535888
 50
284.725138696367992
 51
314.3837734631837861
  0
ARC
  5
D9DF
  8
0
 10
1415.1835562371829838
 20
164.2942184446208103
 30
0.0
 40
1.295434158485079
 50
311.5313130701039768
 51
352.5709307882215739
  0
LINE
  5
D9E0
  8
0
 10
1414.30408583168105
 20
169.4488555432803025
 30
0.0
 11
1414.3231215644809708
 21
169.4491662559802876
 31
0.0
  0
LINE
  5
D9E1
  8
0
 10
1412.7090270910809977
 20
168.4197912287802978
 30
0.0
 11
1413.1420979571810221
 21
168.4197912287802978
 31
0.0
  0
LINE
  5
D9E2
  8
0
 10
1412.9623383272069077
 20
168.1456466913543011
 30
0.0
 11
1412.9180845090349976
 21
165.6019443564503888
 31
0.0
  0
ARC
  5
D9E3
  8
0
 10
1413.3317274483740675
 20
168.033995342539697
 30
0.0
 40
0.3858942167584825
 50
91.9885450254791124
 51
163.1820624433289026
  0
ARC
  5
D9E4
  8
0
 10
1411.7247751214199525
 20
169.4263961250836132
 30
0.0
 40
0.0196850382399001
 50
159.6336891836537006
 51
180.0000003007866098
  0
ARC
  5
D9E5
  8
0
 10
1411.724775122580013
 20
168.9879894821802111
 30
0.0
 40
0.0196850393998762
 50
179.9999999999153033
 51
200.3610441532694892
  0
LINE
  5
D9E6
  8
0
 10
1411.7050900831809486
 20
169.4263961249801866
 30
0.0
 11
1411.7050900831809486
 21
168.9879894821802964
 31
0.0
  0
LINE
  5
D9E7
  8
0
 10
1412.9255625241810321
 20
169.4263961249801866
 30
0.0
 11
1412.9255625241810321
 21
168.9879894821802964
 31
0.0
  0
ARC
  5
D9E8
  8
0
 10
1412.9058774868619821
 20
168.9879894819947879
 30
0.0
 40
0.0196850373190435
 50
339.6379424026339962
 51
0.0000140659130055
  0
ARC
  5
D9E9
  8
0
 10
1412.9058774854970579
 20
169.4263961250439934
 30
0.0
 40
0.0196850386842164
 50
359.9999998144061806
 51
20.3610447040972815
  0
ARC
  5
D9EA
  8
0
 10
1410.0681910259440883
 20
170.4159205576862064
 30
0.0
 40
0.062445969031084
 50
111.9129370583356007
 51
145.5033980813365133
  0
ARC
  5
D9EB
  8
0
 10
1409.0941737849059336
 20
173.1325796848560969
 30
0.0
 40
2.82359198856473
 50
289.6761445191074813
 51
292.8216256600928773
  0
LINE
  5
D9EC
  8
0
 10
1413.1853263036809949
 20
168.4197988132802948
 30
0.0
 11
1413.7739385190909616
 21
168.4197912287802978
 31
0.0
  0
ARC
  5
D9ED
  8
0
 10
1409.3351126419829598
 20
168.1456083880715084
 30
0.0
 40
2.333201613126378
 50
359.8124499434272252
 51
6.7269460978550901
  0
ARC
  5
D9EE
  8
0
 10
1415.2944440758440123
 20
168.145646691348901
 30
0.0
 40
2.3321057486372578
 50
173.2491366529137053
 51
180.1884966097732956
  0
ARC
  5
D9EF
  8
0
 10
1412.3153075115499178
 20
165.4769551276897062
 30
0.0
 40
0.6004621355399065
 50
180.9986539961693097
 51
229.0324357865839033
  0
LINE
  5
D9F0
  8
0
 10
1406.8326830327719108
 20
169.9790926136060136
 30
0.0
 11
1406.8326830327719108
 21
168.4361614383122969
 31
0.0
  0
LINE
  5
D9F1
  8
0
 10
1406.854068458050051
 20
168.3375246493619954
 30
0.0
 11
1408.143352316076971
 21
168.3430835746680998
 31
0.0
  0
ARC
  5
D9F2
  8
0
 10
1408.8681858172810735
 20
170.6973502841011054
 30
0.0
 40
0.16732283482083
 50
229.8808331448396984
 51
310.1191668551603016
  0
ARC
  5
D9F3
  8
0
 10
1409.3625703981811057
 20
171.1402636705136047
 30
0.0
 40
0.6102362212333003
 50
249.3064587925223918
 51
290.6935412074777219
  0
ARC
  5
D9F4
  8
0
 10
1409.8569549790809106
 20
170.6973502841011054
 30
0.0
 40
0.1673228348208017
 50
229.8808331448267097
 51
310.1191668551733187
  0
ARC
  5
D9F5
  8
0
 10
1408.8681858172810735
 20
171.150106189159402
 30
0.0
 40
0.16732283482083
 50
49.8808331448396416
 51
130.1191668551603016
  0
ARC
  5
D9F6
  8
0
 10
1409.3625703981811057
 20
170.707192802746988
 30
0.0
 40
0.6102362212333003
 50
69.3064587925223208
 51
110.6935412074776934
  0
ARC
  5
D9F7
  8
0
 10
1409.8569549790809106
 20
171.1501061891594873
 30
0.0
 40
0.1673228348208017
 50
49.8808331448267381
 51
130.1191668551732903
  0
LINE
  5
D9F8
  8
0
 10
1408.7523341776809502
 20
171.278058945230498
 30
0.0
 11
1408.7603664161808865
 21
171.2780589452802928
 31
0.0
  0
LINE
  5
D9F9
  8
0
 10
1408.7603664161808865
 20
171.2780589452802928
 30
0.0
 11
1408.7603664161808865
 21
170.5693975279802999
 31
0.0
  0
LINE
  5
D9FA
  8
0
 10
1408.7603664161808865
 20
170.5693975279802999
 30
0.0
 11
1408.7523341777309724
 21
170.5693975279802999
 31
0.0
  0
LINE
  5
D9FB
  8
0
 10
1408.976005218381033
 20
170.5693975279802999
 30
0.0
 11
1408.976005218381033
 21
171.2780589452802928
 31
0.0
  0
LINE
  5
D9FC
  8
0
 10
1408.976005218381033
 20
171.2780589452802928
 30
0.0
 11
1409.1469315959809592
 21
171.2780589452802928
 31
0.0
  0
LINE
  5
D9FD
  8
0
 10
1409.1469315959809592
 20
171.2780589452802928
 30
0.0
 11
1409.1469315959809592
 21
170.5693975279802999
 31
0.0
  0
LINE
  5
D9FE
  8
0
 10
1409.1469315959809592
 20
170.5693975279802999
 30
0.0
 11
1408.976005218381033
 21
170.5693975279802999
 31
0.0
  0
LINE
  5
D9FF
  8
0
 10
1409.5782092003810249
 20
170.5693975279802999
 30
0.0
 11
1409.749135577980951
 21
170.5693975279802999
 31
0.0
  0
LINE
  5
DA00
  8
0
 10
1409.749135577980951
 20
170.5693975279802999
 30
0.0
 11
1409.749135577980951
 21
171.2780589452802928
 31
0.0
  0
LINE
  5
DA01
  8
0
 10
1409.749135577980951
 20
171.2780589452802928
 30
0.0
 11
1409.5782092003810249
 21
171.2780589452802928
 31
0.0
  0
LINE
  5
DA02
  8
0
 10
1409.5782092003810249
 20
171.2780589452802928
 30
0.0
 11
1409.5782092003810249
 21
170.5693975279802999
 31
0.0
  0
LINE
  5
DA03
  8
0
 10
1408.7720051377800701
 20
170.4512872917802895
 30
0.0
 11
1410.0167255698809186
 21
170.4512872917802895
 31
0.0
  0
LINE
  5
DA04
  8
0
 10
1411.016114681380941
 20
170.5300274492803112
 30
0.0
 11
1411.016114681380941
 21
170.5497124885802123
 31
0.0
  0
LINE
  5
DA05
  8
0
 10
1411.016114681380941
 20
170.5497124885802123
 30
0.0
 11
1411.2523332015809956
 21
170.5497124885802123
 31
0.0
  0
LINE
  5
DA06
  8
0
 10
1411.2523332015809956
 20
170.5497124885802123
 30
0.0
 11
1411.2523341776809502
 21
170.5300274492803112
 31
0.0
  0
LINE
  5
DA07
  8
0
 10
1413.1853263036809949
 20
169.9945867938803019
 30
0.0
 11
1414.7610668081811127
 21
169.9945867938803019
 31
0.0
  0
ARC
  5
DA08
  8
0
 10
1411.3410235718440617
 20
169.2071927966171074
 30
0.0
 40
0.295276263637262
 50
270.1229730543250867
 51
89.8783016380017159
  0
ARC
  5
DA09
  8
0
 10
1411.3428784754698881
 20
169.2071928172142066
 30
0.0
 40
0.2952781292637891
 50
90.2382287363373052
 51
269.7630459368415927
  0
LINE
  5
DA0A
  8
0
 10
1411.2353577364410739
 20
169.5023674646747907
 30
0.0
 11
1411.3416572281810204
 21
169.5024683941803119
 31
0.0
  0
LINE
  5
DA0B
  8
0
 10
1411.2425152024809449
 20
168.9119172130803008
 30
0.0
 11
1411.3416571687810119
 21
168.9119172530801904
 31
0.0
  0
ARC
  5
DA0C
  8
0
 10
1411.2430945385231098
 20
169.2112786947710106
 30
0.0
 40
0.2993620422671277
 50
245.8010621927903969
 51
269.8891191059942116
  0
ARC
  5
DA0D
  8
0
 10
1414.7575247889999446
 20
169.3561773294889008
 30
0.0
 40
0.0225995255616251
 50
279.7378219707217113
 51
352.1081229863002022
  0
ARC
  5
DA0E
  8
0
 10
1412.7190527873649444
 20
169.5985745503915894
 30
0.0
 40
2.0754286156157509
 50
353.206637807967013
 51
3.8416318006601782
  0
ARC
  5
DA0F
  8
0
 10
1414.761080264552902
 20
169.9749154994048013
 30
0.0
 40
0.0196712990779778
 50
2.7817682700349091
 51
90.0391938213508638
  0
LINE
  5
DA10
  8
0
 10
1414.7898180175809557
 20
169.7376259791801942
 30
0.0
 11
1414.7807283836450551
 21
169.9758701857095105
 31
0.0
  0
LINE
  5
DA11
  8
0
 10
1414.7613472732800801
 20
169.333903417180295
 30
0.0
 11
1414.6868512686899066
 21
169.3187336926415014
 31
0.0
  0
LINE
  5
DA12
  8
0
 10
1414.7807233530809299
 20
169.3599704420803107
 30
0.0
 11
1414.8042857067021032
 21
169.1759534074244868
 31
0.0
  0
LINE
  5
DA13
  8
0
 10
1412.8074522878810058
 20
170.5300274492803112
 30
0.0
 11
1414.4413105343799089
 21
170.5300274492803112
 31
0.0
  0
LINE
  5
DA14
  8
0
 10
1414.6139270373810177
 20
170.4512872917802895
 30
0.0
 11
1415.8586333902810566
 21
170.4512872917802895
 31
0.0
  0
LINE
  5
DA15
  8
0
 10
1415.8586333902810566
 20
170.4512872917802895
 30
0.0
 11
1415.8586333902810566
 21
168.4197912287802978
 31
0.0
  0
LINE
  5
DA16
  8
0
 10
1415.8586333902810566
 20
168.4197912287802978
 30
0.0
 11
1414.8715655006690213
 21
168.419792877824392
 31
0.0
  0
LINE
  5
DA17
  8
0
 10
1415.9058774847810582
 20
168.4197912294301887
 30
0.0
 11
1416.3758669504341015
 21
168.4156896935880923
 31
0.0
  0
LINE
  5
DA18
  8
0
 10
1415.9058774847810582
 20
168.5182164256802935
 30
0.0
 11
1415.8586474696310233
 21
168.5182164256802935
 31
0.0
  0
LINE
  5
DA19
  8
0
 10
1415.9058774847810582
 20
169.9945943777302944
 30
0.0
 11
1416.8064288102270893
 21
170.0024533701084124
 31
0.0
  0
LINE
  5
DA1A
  8
0
 10
1417.2887907263020679
 20
170.0066628787892
 30
0.0
 11
1417.7589904481360463
 21
170.0107662496085084
 31
0.0
  0
LINE
  5
DA1B
  8
0
 10
1415.8586333902810566
 20
169.8961691815802908
 30
0.0
 11
1415.9058774847810582
 21
169.8961691815802908
 31
0.0
  0
LINE
  5
DA1C
  8
0
 10
1417.8621558334671136
 20
168.9000762324554898
 30
0.0
 11
1417.8621558334671136
 21
169.1187146178727971
 31
0.0
  0
LINE
  5
DA1D
  8
0
 10
1415.9058774847810582
 20
168.4197912294301887
 30
0.0
 11
1415.9058774847810582
 21
169.9945943777302944
 31
0.0
  0
ARC
  5
DA1E
  8
0
 10
1413.9373714489240683
 20
169.2071924642341969
 30
0.0
 40
3.937009998526193
 50
8.1203846292987016
 51
11.3068004433282194
  0
ARC
  5
DA1F
  8
0
 10
1414.0519857110818975
 20
169.1908454890499911
 30
0.0
 40
3.8212488955962129
 50
346.301755518122377
 51
355.6359895027484868
  0
ARC
  5
DA20
  8
0
 10
1417.8471417634580121
 20
168.9588255674177049
 30
0.0
 40
0.03103973301302
 50
298.9276537870787251
 51
355.0005476597759753
  0
ARC
  5
DA21
  8
0
 10
1415.9253355617800025
 20
169.2076724004666062
 30
0.0
 40
1.9688637228150121
 50
352.6595420882875942
 51
357.4466675386213979
  0
ARC
  5
DA22
  8
0
 10
1417.7593342736358863
 20
169.9713677498397999
 30
0.0
 40
0.0394
 50
11.3068004433348595
 51
90.5000000013725412
  0
LINE
  5
DA23
  8
0
 10
1417.7260588223039122
 20
168.2558725259277139
 30
0.0
 11
1416.5851648137850134
 21
168.2618462874955014
 31
0.0
  0
ARC
  5
DA24
  8
0
 10
1417.7262651192759222
 20
168.2952719858421915
 30
0.0
 40
0.0394
 50
269.7000000041172143
 51
346.3017555181860985
  0
ARC
  5
DA25
  8
0
 10
1416.3782210404860962
 20
168.2974917851385044
 30
0.0
 40
0.1182213487572366
 50
16.8513399335296583
 51
91.1409812280260354
  0
ARC
  5
DA26
  8
0
 10
1416.5855723511299402
 20
168.3602707244421026
 30
0.0
 40
0.0984252806697548
 50
196.8363527457943007
 51
269.7627617288649162
  0
LINE
  5
DA27
  8
0
 10
1417.7979695745900699
 20
169.9790926136060136
 30
0.0
 11
1417.7979695745900699
 21
169.7620333091248881
 31
0.0
  0
LINE
  5
DA28
  8
0
 10
1417.7979695745900699
 20
169.116115709944296
 30
0.0
 11
1417.7979695745900699
 21
168.4361614383122969
 31
0.0
  0
LINE
  5
DA29
  8
0
 10
1417.7765841493119297
 20
168.3375246493619954
 30
0.0
 11
1416.4873002912841002
 21
168.3430835746680998
 31
0.0
  0
LINE
  5
DA2A
  8
0
 10
1413.9885696107310196
 20
172.1599487090803109
 30
0.0
 11
1416.5475948076309578
 21
172.1599487090803109
 31
0.0
  0
LINE
  5
DA2B
  8
0
 10
1413.9688696107309624
 20
172.0182406202796983
 30
0.0
 11
1413.9688696107309624
 21
172.1402487090803106
 31
0.0
  0
LINE
  5
DA2C
  8
0
 10
1416.5672948076310149
 20
172.0182406202796983
 30
0.0
 11
1416.5672948076310149
 21
172.1402487090803106
 31
0.0
  0
LINE
  5
DA2D
  8
0
 10
1415.8851174225731029
 20
171.3892306879689045
 30
0.0
 11
1416.4916185521140051
 21
171.8630813028881903
 31
0.0
  0
LINE
  5
DA2E
  8
0
 10
1414.651046995787965
 20
171.3892306879689045
 30
0.0
 11
1414.0445458662470628
 21
171.8630813028881903
 31
0.0
  0
ARC
  5
DA2F
  8
0
 10
1414.6994995538930198
 20
171.4512471342802939
 30
0.0
 40
0.0787
 50
232.0000000030094043
 51
270.0
  0
LINE
  5
DA30
  8
0
 10
1414.6994995538930198
 20
171.3725471342802962
 30
0.0
 11
1415.8366648644680481
 21
171.3725471342802962
 31
0.0
  0
ARC
  5
DA31
  8
0
 10
1415.8366648644680481
 20
171.4512471342802939
 30
0.0
 40
0.0787
 50
269.9999999999869829
 51
307.999999996988322
  0
ARC
  5
DA32
  8
0
 10
1416.3703948076311008
 20
172.0182406202796983
 30
0.0
 40
0.1969
 50
307.999999996988322
 51
359.9999999999968168
  0
ARC
  5
DA33
  8
0
 10
1414.165769610731104
 20
172.0182406202796983
 30
0.0
 40
0.1969
 50
180.0000000000065086
 51
232.0000000030115928
  0
ARC
  5
DA34
  8
0
 10
1413.9885696107310196
 20
172.1402487090803106
 30
0.0
 40
0.0197
 50
90.0
 51
180.0000000000422915
  0
ARC
  5
DA35
  8
0
 10
1416.5475948076309578
 20
172.1402487090803106
 30
0.0
 40
0.0197
 50
359.9999999999805027
 51
89.9999999999869686
  0
LINE
  5
DA36
  8
0
 10
1415.8389483509311049
 20
170.5300274492803112
 30
0.0
 11
1414.6972160674310999
 21
170.5300274492803112
 31
0.0
  0
LINE
  5
DA37
  8
0
 10
1415.8783184296310083
 20
170.5693975279802999
 30
0.0
 11
1415.8389483509311049
 21
170.5300274492803112
 31
0.0
  0
LINE
  5
DA38
  8
0
 10
1415.8783184296310083
 20
170.5693975279802999
 30
0.0
 11
1415.8783184296310083
 21
171.2780589452802928
 31
0.0
  0
LINE
  5
DA39
  8
0
 10
1414.6578459887309691
 20
170.5693975279802999
 30
0.0
 11
1414.6578459887309691
 21
171.2780589452806908
 31
0.0
  0
LINE
  5
DA3A
  8
0
 10
1414.6578459887309691
 20
170.5693975279802999
 30
0.0
 11
1414.6972160674310999
 21
170.5300274492803112
 31
0.0
  0
LINE
  5
DA3B
  8
0
 10
1415.8389483509311049
 20
171.3174290240802975
 30
0.0
 11
1414.6972160674310999
 21
171.3174290240802975
 31
0.0
  0
LINE
  5
DA3C
  8
0
 10
1415.8783184296310083
 20
171.2780589452802928
 30
0.0
 11
1415.8389483509311049
 21
171.3174290240802975
 31
0.0
  0
LINE
  5
DA3D
  8
0
 10
1415.7826491383309531
 20
171.3725471342802962
 30
0.0
 11
1415.7826491383309531
 21
171.3174290240802975
 31
0.0
  0
ARC
  5
DA3E
  8
0
 10
1415.7624667900809072
 20
170.6973502841011054
 30
0.0
 40
0.16732283482083
 50
229.8808331448396984
 51
310.1191668551603016
  0
ARC
  5
DA3F
  8
0
 10
1415.2680822091811024
 20
171.1402636705136047
 30
0.0
 40
0.6102362212333003
 50
249.3064587925223918
 51
290.6935412074777219
  0
ARC
  5
DA40
  8
0
 10
1414.7736976282810701
 20
170.6973502841011054
 30
0.0
 40
0.1673228348208017
 50
229.8808331448267097
 51
310.1191668551733187
  0
ARC
  5
DA41
  8
0
 10
1415.7624667900809072
 20
171.150106189159402
 30
0.0
 40
0.16732283482083
 50
49.8808331448396416
 51
130.1191668551603016
  0
ARC
  5
DA42
  8
0
 10
1415.2680822091811024
 20
170.707192802746988
 30
0.0
 40
0.6102362212333003
 50
69.3064587925223208
 51
110.6935412074776934
  0
LINE
  5
DA43
  8
0
 10
1415.8783184296810305
 20
171.278058945230498
 30
0.0
 11
1415.8702861911810942
 21
171.2780589452802928
 31
0.0
  0
LINE
  5
DA44
  8
0
 10
1415.8702861911810942
 20
171.2780589452802928
 30
0.0
 11
1415.8702861911810942
 21
170.5693975279802999
 31
0.0
  0
LINE
  5
DA45
  8
0
 10
1415.8702861911810942
 20
170.5693975279802999
 30
0.0
 11
1415.8783184296310083
 21
170.5693975279802999
 31
0.0
  0
LINE
  5
DA46
  8
0
 10
1415.6546473889809477
 20
170.5693975279802999
 30
0.0
 11
1415.6546473889809477
 21
171.2780589452802928
 31
0.0
  0
LINE
  5
DA47
  8
0
 10
1415.6546473889809477
 20
171.2780589452802928
 30
0.0
 11
1415.4837210113810215
 21
171.2780589452802928
 31
0.0
  0
LINE
  5
DA48
  8
0
 10
1415.4837210113810215
 20
171.2780589452802928
 30
0.0
 11
1415.4837210113810215
 21
170.5693975279802999
 31
0.0
  0
LINE
  5
DA49
  8
0
 10
1415.4837210113810215
 20
170.5693975279802999
 30
0.0
 11
1415.6546473889809477
 21
170.5693975279802999
 31
0.0
  0
LINE
  5
DA4A
  8
0
 10
1415.0524434069809558
 20
170.5693975279802999
 30
0.0
 11
1414.8815170293810297
 21
170.5693975279802999
 31
0.0
  0
LINE
  5
DA4B
  8
0
 10
1414.8815170293810297
 20
170.5693975279802999
 30
0.0
 11
1414.8815170293810297
 21
171.2767651511782105
 31
0.0
  0
LINE
  5
DA4C
  8
0
 10
1414.8822815170990452
 20
171.2780589452802928
 30
0.0
 11
1415.0524434069809558
 21
171.2780589452802928
 31
0.0
  0
LINE
  5
DA4D
  8
0
 10
1415.0524434069809558
 20
171.2780589452802928
 30
0.0
 11
1415.0524434069809558
 21
170.5693975279802999
 31
0.0
  0
LINE
  5
DA4E
  8
0
 10
1414.8468223666809536
 20
170.5300274492803112
 30
0.0
 11
1414.8468223666809536
 21
170.4512872917802895
 31
0.0
  0
LINE
  5
DA4F
  8
0
 10
1415.6893420516810238
 20
170.5300274492803112
 30
0.0
 11
1415.6893420516810238
 21
170.4512872917802895
 31
0.0
  0
LINE
  5
DA50
  8
0
 10
1414.6578459887309691
 20
170.5693975279802999
 30
0.0
 11
1414.6658782271811106
 21
170.5693975279802999
 31
0.0
  0
LINE
  5
DA51
  8
0
 10
1414.6658782271811106
 20
170.5693975279802999
 30
0.0
 11
1414.6658782271811106
 21
171.2780589452792981
 31
0.0
  0
LINE
  5
DA52
  8
0
 10
1408.1390340552538873
 20
171.8630813029220121
 30
0.0
 11
1410.5861067411140084
 21
171.8630813028881903
 31
0.0
  0
LINE
  5
DA53
  8
0
 10
1414.044526577418992
 20
171.8630963749029945
 30
0.0
 11
1416.4916376176929589
 21
171.863096198590199
 31
0.0
  0
ARC
  5
DA54
  8
0
 10
1412.315326303681104
 20
153.4591613074802865
 30
0.0
 40
4.9997203197000033
 50
94.5164067818067082
 51
85.483593218193306
  0
ARC
  5
DA55
  8
0
 10
1412.315326303681104
 20
153.4591613074802865
 30
0.0
 40
4.9409448819000001
 50
94.5702456483471963
 51
85.4297543516528464
  0
ARC
  5
DA56
  8
0
 10
1412.315326303681104
 20
153.4591613074802865
 30
0.0
 40
4.9485883382999978
 50
94.5631715952474536
 51
85.4368284047525037
  0
ARC
  5
DA57
  8
0
 10
1412.315326303681104
 20
153.4591613074802865
 30
0.0
 40
0.7480314949999965
 50
121.7568639095561025
 51
58.2431360904438833
  0
ARC
  5
DA58
  8
0
 10
1412.315326303681104
 20
153.4591613074802865
 30
0.0
 40
0.7874015747999934
 50
120.000000000000199
 51
59.9999999999997797
  0
ARC
  5
DA59
  8
0
 10
1412.315326303681104
 20
153.4591613074802865
 30
0.0
 40
0.8070866142000028
 50
119.1964044084386956
 51
60.8035955915612973
  0
LINE
  5
DA5A
  8
0
 10
1408.7720051377800701
 20
169.7376259791801942
 30
0.0
 11
1410.4649326028809355
 21
169.7376259791801942
 31
0.0
  0
LINE
  5
DA5B
  8
0
 10
1408.7720051377800701
 20
169.2071930725824984
 30
0.0
 11
1410.4649326028809355
 21
169.2071928035803126
 31
0.0
  0
LINE
  5
DA5C
  8
0
 10
1414.7898180175809557
 20
169.737625979180109
 30
0.0
 11
1415.8586333902810566
 21
169.7376259791801942
 31
0.0
  0
LINE
  5
DA5D
  8
0
 10
1414.8002856514399355
 20
169.2071929991803074
 30
0.0
 11
1415.8586333902810566
 21
169.2071929991803074
 31
0.0
  0
LINE
  5
DA5E
  8
0
 10
1414.6578459887309691
 20
171.2780589452806908
 30
0.0
 11
1414.6972160674310999
 21
171.3174290240802975
 31
0.0
  0
ARC
  5
DA5F
  8
0
 10
1414.7736976282810701
 20
171.150106189159402
 30
0.0
 40
0.16732283482083
 50
49.8808331448396416
 51
130.1191668554093894
  0
LINE
  5
DA60
  8
0
 10
1414.6658782271811106
 20
171.2780589452792981
 30
0.0
 11
1414.6578459887309691
 21
171.2780589452806908
 31
0.0
  0
LINE
  5
DA61
  8
0
 10
1414.7535152800310243
 20
171.3725471342802962
 30
0.0
 11
1414.7535152800310243
 21
171.3174290240802975
 31
0.0
  0
ARC
  5
DA62
  8
0
 10
1414.5624615813180753
 20
170.4159205576862064
 30
0.0
 40
0.062445969031084
 50
34.4966019188167721
 51
68.0870629416644135
  0
ARC
  5
DA63
  8
0
 10
1415.5364788223560026
 20
173.1325796848560969
 30
0.0
 40
2.82359198856473
 50
247.1783743399062985
 51
250.3238554808924903
  0
ARC
  5
DA64
  8
0
 10
1417.0409684201540585
 20
170.7655812373155868
 30
0.0
 40
0.7974575813353482
 50
253.3330214515981993
 51
287.6669785512423232
  0
ARC
  5
DA65
  8
0
 10
1416.8066007229770094
 20
169.9827541202240866
 30
0.0
 40
0.0197
 50
73.3330214515853811
 51
90.5000000014116068
  0
ARC
  5
DA66
  8
0
 10
1417.2889626390519879
 20
169.9869636289049026
 30
0.0
 40
0.0197
 50
90.5000000014116068
 51
107.6669785512421953
  0
LINE
  5
DA67
  8
0
 10
1417.2779247288810893
 20
170.149303827180205
 30
0.0
 11
1417.2779247288810893
 21
170.0041416127992022
 31
0.0
  0
LINE
  5
DA68
  8
0
 10
1416.8172948075809927
 20
170.149303827180205
 30
0.0
 11
1416.8172948075809927
 21
170.0001344990851919
 31
0.0
  0
LINE
  5
DA69
  8
0
 10
1417.2582247288810322
 20
170.1690038271802052
 30
0.0
 11
1416.8369948075810498
 21
170.1690038271802052
 31
0.0
  0
ARC
  5
DA6A
  8
0
 10
1417.2582247288810322
 20
170.1493038271802902
 30
0.0
 40
0.0197
 50
359.9999999999583906
 51
90.0000000000521254
  0
ARC
  5
DA6B
  8
0
 10
1416.8369948075810498
 20
170.1493038271802902
 30
0.0
 40
0.0197
 50
89.9999999999609201
 51
180.0000000000406999
  0
ARC
  5
DA6C
  8
0
 10
1364.5093529593259518
 20
421.4992995275478052
 30
0.0
 40
258.8354043062429923
 50
280.7856339645729804
 51
280.9705981123037759
  0
ARC
  5
DA6D
  8
0
 10
1364.5093529593259518
 20
421.4992995275478052
 30
0.0
 40
258.8354043062429923
 50
281.2185836542662969
 51
282.0120680387590824
  0
ARC
  5
DA6E
  8
0
 10
1406.9762853220709076
 20
221.9148082610531958
 30
0.0
 40
54.7829367925973969
 50
282.0120680387590824
 51
284.6934637704507054
  0
ARC
  5
DA6F
  8
0
 10
1420.1366335963668917
 20
171.7272193530974107
 30
0.0
 40
2.8985571866434778
 50
284.6934637704507054
 51
300.0479229728720725
  0
ARC
  5
DA70
  8
0
 10
1421.2946158458159971
 20
169.4908030839633
 30
0.0
 40
0.4004857136104545
 50
317.1047199289727132
 51
357.2412681047379124
  0
ARC
  5
DA71
  8
0
 10
1421.3326703953830474
 20
169.4647504571640013
 30
0.0
 40
0.3620304646676109
 50
1.0726234738796041
 51
71.8015211360366266
  0
ARC
  5
DA72
  8
0
 10
1420.7598400652589135
 20
166.734897366853005
 30
0.0
 40
3.1493722377583131
 50
77.4208464282931317
 51
96.7188562956507951
  0
ARC
  5
DA73
  8
0
 10
1407.4509690910210793
 20
469.9582779848099108
 30
0.0
 40
300.374509132167816
 50
271.6551837001618992
 51
272.4691175008483128
  0
ARC
  5
DA74
  8
0
 10
1415.746881496846072
 20
190.9988296925473037
 30
0.0
 40
21.293127276866791
 50
267.4256714000064221
 51
271.0231579331913849
  0
ARC
  5
DA75
  8
0
 10
1415.7732266337400233
 20
219.9159105740407938
 30
0.0
 40
50.8401292505320228
 50
268.9544798147874189
 51
273.2866148235718811
  0
ARC
  5
DA76
  8
0
 10
1421.7946993705609202
 20
109.333820995003407
 30
0.0
 40
59.9061938435596986
 50
91.0200159350475957
 51
92.9727236385698035
  0
ARC
  5
DA77
  8
0
 10
1420.8673639840480973
 20
166.7125024851158912
 30
0.0
 40
2.5218584012934002
 50
78.0755410870454511
 51
93.1618298860991985
  0
ARC
  5
DA78
  8
0
 10
1421.3905283595490801
 20
169.1427854801382864
 30
0.0
 40
0.0372148122399173
 50
341.8148902612841766
 51
93.224460216970769
  0
ARC
  5
DA79
  8
0
 10
1367.116313875583046
 20
407.9780928358683809
 30
0.0
 40
244.4284310023184048
 50
280.8095934930054227
 51
281.006122218404812
  0
ARC
  5
DA7A
  8
0
 10
1367.116313875583046
 20
407.9780928358683809
 30
0.0
 40
244.4284310023184048
 50
281.2665569209278829
 51
281.4566007129172931
  0
ARC
  5
DA7B
  8
0
 10
1367.116313875583046
 20
407.9780928358683809
 30
0.0
 40
244.4284310023184048
 50
281.502661961572187
 51
281.5139635258747148
  0
ARC
  5
DA7C
  8
0
 10
1367.116313875583046
 20
407.9780928358683809
 30
0.0
 40
244.4284310023184048
 50
281.9818622912825958
 51
282.3311862085020039
  0
ARC
  5
DA7D
  8
0
 10
1411.841184868317896
 20
167.3733379224784983
 30
0.0
 40
0.3580552061568091
 50
184.626187676457306
 51
244.5452222793053068
  0
ARC
  5
DA7E
  8
0
 10
1411.7925284958510019
 20
167.3425652852261862
 30
0.0
 40
0.3082381504718545
 50
111.9726552523677015
 51
179.6479619782109864
  0
LINE
  5
DA80
  8
0
 10
1408.7720051377800701
 20
168.4197912330658937
 30
0.0
 11
1408.7720051377800701
 21
170.4512872917802895
 31
0.0
  0
ENDSEC
  0
EOF
