  0
SECTION
  2
HEADER
  9
$ACADVER
  1
AC1009
  9
$INSBASE
 10
6206.649142532978658
 20
327.9060838719657909
 30
0.0
  9
$EXTMIN
 10
6200.6336471700451511
 20
308.7288467329340165
 30
-0.0000000000112498
  9
$EXTMAX
 10
6212.4826486073316119
 20
360.9750121578484254
 30
0.0000000000002956
  9
$LIMMIN
 10
0.0
 20
0.0
  9
$LIMMAX
 10
11.6929133858000007
 20
8.2677165353999982
  9
$ORTHOMODE
 70
     0
  9
$REGENMODE
 70
     1
  9
$FILLMODE
 70
     1
  9
$QTEXTMODE
 70
     0
  9
$MIRRTEXT
 70
     0
  9
$DRAGMODE
 70
     2
  9
$LTSCALE
 40
0.6431102362
  9
$OSMODE
 70
  4095
  9
$ATTMODE
 70
     1
  9
$TEXTSIZE
 40
0.2
  9
$TRACEWID
 40
0.05
  9
$TEXTSTYLE
  7
STANDARD
  9
$CLAYER
  8
0
  9
$CELTYPE
  6
BYLAYER
  9
$CECOLOR
 62
   256
  9
$DIMSCALE
 40
1.0
  9
$DIMASZ
 40
0.1875
  9
$DIMEXO
 40
0.0625
  9
$DIMDLI
 40
0.4443307087
  9
$DIMRND
 40
0.0
  9
$DIMDLE
 40
0.0
  9
$DIMEXE
 40
0.125
  9
$DIMTP
 40
0.01
  9
$DIMTM
 40
0.01
  9
$DIMTXT
 40
2.0
  9
$DIMCEN
 40
0.1052362205
  9
$DIMTSZ
 40
0.0
  9
$DIMTOL
 70
     1
  9
$DIMLIM
 70
     0
  9
$DIMTIH
 70
     1
  9
$DIMTOH
 70
     1
  9
$DIMSE1
 70
     0
  9
$DIMSE2
 70
     0
  9
$DIMTAD
 70
     0
  9
$DIMZIN
 70
     0
  9
$DIMBLK
  1

  9
$DIMASO
 70
     1
  9
$DIMSHO
 70
     1
  9
$DIMPOST
  1
\X
  9
$DIMAPOST
  1

  9
$DIMALT
 70
     1
  9
$DIMALTD
 70
     2
  9
$DIMALTF
 40
25.3999999999999986
  9
$DIMLFAC
 40
1.0
  9
$DIMTOFL
 70
     0
  9
$DIMTVP
 40
0.0
  9
$DIMTIX
 70
     0
  9
$DIMSOXD
 70
     0
  9
$DIMSAH
 70
     0
  9
$DIMBLK1
  1

  9
$DIMBLK2
  1

  9
$DIMSTYLE
  2
STANDARD
  9
$DIMCLRD
 70
     0
  9
$DIMCLRE
 70
     0
  9
$DIMCLRT
 70
     0
  9
$DIMTFAC
 40
1.0
  9
$DIMGAP
 40
0.09
  9
$LUNITS
 70
     2
  9
$LUPREC
 70
     4
  9
$SKETCHINC
 40
0.1
  9
$FILLETRAD
 40
0.0
  9
$AUNITS
 70
     0
  9
$AUPREC
 70
     0
  9
$MENU
  1
.
  9
$ELEVATION
 40
0.0
  9
$PELEVATION
 40
0.0
  9
$THICKNESS
 40
0.0
  9
$LIMCHECK
 70
     0
  9
$BLIPMODE
 70
     0
  9
$CHAMFERA
 40
0.0
  9
$CHAMFERB
 40
0.0
  9
$SKPOLY
 70
     0
  9
$TDCREATE
 40
2458060.468368056230247
  9
$TDUPDATE
 40
2460223.7721296302042902
  9
$TDINDWG
 40
0.7283519676
  9
$TDUSRTIMER
 40
0.7283519676
  9
$USRTIMER
 70
     1
  9
$ANGBASE
 50
0.0
  9
$ANGDIR
 70
     0
  9
$PDMODE
 70
     0
  9
$PDSIZE
 40
0.3125
  9
$PLINEWID
 40
0.0
  9
$COORDS
 70
     1
  9
$SPLFRAME
 70
     0
  9
$SPLINETYPE
 70
     6
  9
$SPLINESEGS
 70
     8
  9
$ATTDIA
 70
     1
  9
$ATTREQ
 70
     1
  9
$HANDLING
 70
     1
  9
$HANDSEED
  5
33581
  9
$SURFTAB1
 70
     6
  9
$SURFTAB2
 70
     6
  9
$SURFTYPE
 70
     6
  9
$SURFU
 70
     6
  9
$SURFV
 70
     6
  9
$UCSNAME
  2

  9
$UCSORG
 10
0.0
 20
0.0
 30
0.0
  9
$UCSXDIR
 10
1.0
 20
0.0
 30
0.0
  9
$UCSYDIR
 10
0.0
 20
1.0
 30
0.0
  9
$PUCSNAME
  2

  9
$PUCSORG
 10
0.0
 20
0.0
 30
0.0
  9
$PUCSXDIR
 10
1.0
 20
0.0
 30
0.0
  9
$PUCSYDIR
 10
0.0
 20
1.0
 30
0.0
  9
$USERI1
 70
     0
  9
$USERI2
 70
     0
  9
$USERI3
 70
     0
  9
$USERI4
 70
     0
  9
$USERI5
 70
     0
  9
$USERR1
 40
0.0
  9
$USERR2
 40
0.0
  9
$USERR3
 40
0.0
  9
$USERR4
 40
0.0
  9
$USERR5
 40
0.0
  9
$WORLDVIEW
 70
     1
  9
$SHADEDGE
 70
     3
  9
$SHADEDIF
 70
    70
  9
$TILEMODE
 70
     1
  9
$MAXACTVP
 70
    64
  9
$PLIMCHECK
 70
     0
  9
$PEXTMIN
 10
1.0000000000000000E+20
 20
1.0000000000000000E+20
 30
1.0000000000000000E+20
  9
$PEXTMAX
 10
-1.0000000000000000E+20
 20
-1.0000000000000000E+20
 30
-1.0000000000000000E+20
  9
$PLIMMIN
 10
0.0
 20
0.0
  9
$PLIMMAX
 10
12.0
 20
9.0
  9
$UNITMODE
 70
     0
  9
$VISRETAIN
 70
     1
  9
$PLINEGEN
 70
     0
  9
$PSLTSCALE
 70
     1
  0
ENDSEC
  0
SECTION
  2
TABLES
  0
TABLE
  2
VPORT
 70
     1
  0
VPORT
  2
*ACTIVE
 70
     0
 10
0.0
 20
0.0
 11
1.0
 21
1.0
 12
2295.1927914433758815
 22
202.2723243428521016
 13
0.0
 23
0.0
 14
1.0
 24
1.0
 15
0.0
 25
0.0
 16
0.0
 26
0.0
 36
60.4960186965801583
 17
3911.3653564453120453
 27
132.5796051025390057
 37
0.0
 40
52.7140415331971894
 41
2.8325859491778771
 42
50.0
 43
0.0
 44
0.0
 50
0.0
 51
0.0
 71
     0
 72
   100
 73
     1
 74
     1
 75
     0
 76
     0
 77
     0
 78
     0
  0
ENDTAB
  0
TABLE
  2
LTYPE
 70
     2
  0
LTYPE
  2
CONTINUOUS
 70
     0
  3
Solid line
 72
    65
 73
     0
 40
0.0
  0
LTYPE
  2
PHANTOM2
 70
     0
  3
___ _ _ ___ _ _ ___ _ _ ___ _ _
 72
    65
 73
     6
 40
1.25
 49
0.625
 49
-0.125
 49
0.125
 49
-0.125
 49
0.125
 49
-0.125
  0
ENDTAB
  0
TABLE
  2
LAYER
 70
     2
  0
LAYER
  2
0
 70
     0
 62
   255
  6
CONTINUOUS
  0
LAYER
  2
DEFPOINTS
 70
     0
 62
     7
  6
CONTINUOUS
  0
ENDTAB
  0
TABLE
  2
STYLE
 70
     1
  0
STYLE
  2
STANDARD
 70
     0
 40
0.0
 41
0.8
 50
0.0
 71
     0
 42
0.2
  3
txt
  4

  0
ENDTAB
  0
TABLE
  2
VIEW
 70
     0
  0
ENDTAB
  0
TABLE
  2
UCS
 70
     0
  0
ENDTAB
  0
TABLE
  2
APPID
 70
    11
  0
APPID
  2
ACAD
 70
     0
  0
APPID
  2
ACAD_MLEADERVER
 70
     0
  0
APPID
  2
ACAD_EXEMPT_FROM_CAD_STANDARDS
 70
     0
  0
APPID
  2
ACAD_NAV_VCDISPLAY
 70
     0
  0
APPID
  2
ACAECLAYERSTANDARD
 70
     0
  0
APPID
  2
ACCMTRANSPARENCY
 70
     0
  0
APPID
  2
ACAD_DSTYLE_DIMJAG
 70
     0
  0
APPID
  2
ACAD_DSTYLE_DIMTALN
 70
     0
  0
APPID
  2
ACDBATTR
 70
     0
  0
APPID
  2
ACADANNOTATIVE
 70
     0
  0
APPID
  2
DCO15
 70
     0
  0
ENDTAB
  0
TABLE
  2
DIMSTYLE
 70
     1
  0
DIMSTYLE
  2
STANDARD
 70
     0
  3

  4

  5

  6

  7

 40
1.0
 41
0.1875
 42
0.0625
 43
0.38
 44
0.125
 45
0.0
 46
0.0
 47
0.01
 48
0.01
140
0.15625
141
0.09
142
0.0
143
25.3999999999999986
144
1.0
145
0.0
146
1.0
147
0.09
 71
     1
 72
     0
 73
     1
 74
     1
 75
     0
 76
     0
 77
     0
 78
     4
170
     0
171
     2
172
     0
173
     0
174
     0
175
     0
176
     0
177
     0
178
     0
  0
ENDTAB
  0
ENDSEC
  0
SECTION
  2
BLOCKS
  0
BLOCK
  8
0
  2
$MODEL_SPACE
 70
     0
 10
0.0
 20
0.0
 30
0.0
  3
$MODEL_SPACE
  1

  0
ENDBLK
  5
21
  8
0
  0
BLOCK
 67
     1
  8
0
  2
$PAPER_SPACE
 70
     0
 10
0.0
 20
0.0
 30
0.0
  3
$PAPER_SPACE
  1

  0
ENDBLK
  5
1D
 67
     1
  8
0
  0
BLOCK
  8
0
  2
_FILLED
 70
     0
 10
0.0
 20
0.0
 30
0.0
  3
_FILLED
  1

  0
SOLID
  5
2853B
  8
0
  6
BYBLOCK
 62
     0
 10
0.0
 20
0.0
 30
0.0
 11
-1.0
 21
0.1666666667
 31
0.0
 12
-1.0
 22
-0.1666666667
 32
0.0
 13
-1.0
 23
-0.1666666667
 33
0.0
  0
ENDBLK
  5
2853C
  8
0
  6
BYBLOCK
 62
     0
  0
ENDSEC
  0
SECTION
  2
ENTITIES
  0
ATTDEF
  5
2842F
  8
DEFPOINTS
 10
6206.6491088311486237
 20
327.9045797130282835
 30
0.0
 40
0.001
  1
K-23125T-B9
  3

  2
MODELNUMBER
 70
     0
1001
ACDBATTR
1070
     0
1070
     1
  0
ATTDEF
  5
28430
  8
DEFPOINTS
 10
6206.6489830214914036
 20
327.9029128726492104
 30
0.0
 40
0.001
  1
JULY
  3

  2
TRADENAME
 70
     0
1001
ACDBATTR
1070
     0
1070
     1
  0
ATTDEF
  5
28431
  8
DEFPOINTS
 10
6206.6491088311486237
 20
327.9012463796948964
 30
0.0
 40
0.001
  1
SHOWER COLUMN
  3

  2
PRODUCT
 70
     0
1001
ACDBATTR
1070
     0
1070
     1
  0
LINE
  5
329D9
  8
0
 10
6201.2051346059861316
 20
313.1535566715331811
 30
0.0
 11
6203.0585913518789312
 21
313.1373830846331998
 31
0.0
  0
LINE
  5
329DA
  8
0
 10
6201.2051346054267924
 20
311.5464063481331891
 30
0.0
 11
6203.0585913518789312
 21
311.5625799350331135
 31
0.0
  0
ARC
  5
329DB
  8
0
 10
6201.117708494783983
 20
312.1019739651209193
 30
0.0
 40
0.0315606326371513
 50
187.3265523903189091
 51
240.8033958788533084
  0
ARC
  5
329DC
  8
0
 10
6203.0466173366530711
 20
312.3499815177306118
 30
0.0
 40
1.976347784587684
 50
172.673447614790291
 51
187.3265523903189091
  0
ARC
  5
329DD
  8
0
 10
6201.11766227606131
 20
312.5980023369335754
 30
0.0
 40
0.0315131002949163
 50
119.148644793800301
 51
172.6866555157155858
  0
LINE
  5
329DE
  8
0
 10
6201.1023129681980208
 20
312.0403442385526205
 30
0.0
 11
6201.1023129681980208
 21
312.6600052753652221
 31
0.0
  0
LINE
  5
329DF
  8
0
 10
6201.086405540458145
 20
312.0979492188081963
 30
0.0
 11
6201.086405540458145
 21
312.6020138166530273
 31
0.0
  0
ARC
  5
329E0
  8
0
 10
6205.0193375470144019
 20
312.3486452761512169
 30
0.0
 40
3.9291387199783041
 50
184.5003564198374022
 51
191.3099084927603997
  0
ARC
  5
329E1
  8
0
 10
6201.2051346054267924
 20
311.5858063481331897
 30
0.0
 40
0.0394
 50
191.3099084927603997
 51
270.0
  0
ARC
  5
329E2
  8
0
 10
6205.0270952835153366
 20
312.3499815104530057
 30
0.0
 40
3.9370078686030441
 50
168.6931951631607092
 51
175.48350303671711
  0
ARC
  5
329E3
  8
0
 10
6201.2051346059861316
 20
313.1141566715331805
 30
0.0
 40
0.0394
 50
90.0
 51
168.6931951631543996
  0
LINE
  5
329E4
  8
0
 10
6203.0585913518789312
 20
311.5625799350331135
 30
0.0
 11
6203.0585913518789312
 21
313.1373830846331998
 31
0.0
  0
LINE
  5
329E5
  8
0
 10
6203.1058213670803525
 20
311.5625799350331135
 30
0.0
 11
6203.1058213670803525
 21
313.1373830845008115
 31
0.0
  0
LINE
  5
329E6
  8
0
 10
6203.1058213670803525
 20
313.1373830845008115
 30
0.0
 11
6206.0323165486815924
 21
313.1373830845554949
 31
0.0
  0
LINE
  5
329E7
  8
0
 10
6207.26596851728209
 20
313.1373830845785164
 30
0.0
 11
6209.4784620872096639
 21
313.1373830846197848
 31
0.0
  0
LINE
  5
329E8
  8
0
 10
6210.029644849608303
 20
313.1373830846300734
 30
0.0
 11
6210.1924636988796919
 21
313.1373830846331998
 31
0.0
  0
ARC
  5
329E9
  8
0
 10
6206.0323165486797734
 20
313.2620830845555133
 30
0.0
 40
0.1247
 50
270.0000000010422241
 51
0.0
  0
LINE
  5
329EA
  8
0
 10
6203.1058213670803525
 20
311.5625799350331135
 30
0.0
 11
6206.1727645801802282
 21
311.562579934983205
 31
0.0
  0
LINE
  5
329EB
  8
0
 10
6207.1255204857798162
 20
311.562579934983205
 30
0.0
 11
6209.411464790367063
 21
311.5625799350203806
 31
0.0
  0
LINE
  5
329EC
  8
0
 10
6209.9657174897720324
 20
311.5625799350294187
 30
0.0
 11
6210.1924636988796919
 21
311.5625799350331135
 31
0.0
  0
LINE
  5
329ED
  8
0
 10
6201.1665021114713454
 20
312.1682592901626094
 30
0.0
 11
6201.1665021114713454
 21
311.5780674586370083
 31
0.0
  0
LINE
  5
329EE
  8
0
 10
6201.1665021114713454
 20
312.5323174534971145
 30
0.0
 11
6201.1665021114713454
 21
313.1218955582464218
 31
0.0
  0
ARC
  5
329EF
  8
0
 10
6201.6335902138798701
 20
312.5562408644950096
 30
0.0
 40
0.4677003581419749
 50
182.9320245175013895
 51
197.6307071198432936
  0
ARC
  5
329F0
  8
0
 10
6201.0123338449047878
 20
312.3499815101264971
 30
0.0
 40
0.1870355554754172
 50
339.793829745861899
 51
20.2061698993719503
  0
ARC
  5
329F1
  8
0
 10
6201.4934872549129068
 20
312.1691423137327206
 30
0.0
 40
0.3269863357425776
 50
159.1771064585153965
 51
180.1547269097806918
  0
LINE
  5
329F2
  8
0
 10
6202.3795271573499122
 20
312.2527898939559918
 30
0.0
 11
6201.230993349567143
 21
312.2476375745621908
 31
0.0
  0
LINE
  5
329F3
  8
0
 10
6202.3795273042796907
 20
312.4472045177831774
 30
0.0
 11
6201.2276080720439495
 21
312.4501168550510783
 31
0.0
  0
ARC
  5
329F4
  8
0
 10
6202.3759358321985928
 20
312.3499972085837726
 30
0.0
 40
0.0972736327762555
 50
272.1158308058359125
 51
87.8840825906933105
  0
ARC
  5
329F5
  8
0
 10
6201.2259932220404153
 20
312.4119235584286116
 30
0.0
 40
0.0382274200990261
 50
87.578920326333801
 51
176.0100905834227092
  0
ARC
  5
329F6
  8
0
 10
6201.2285434635150523
 20
312.2883578169160046
 30
0.0
 40
0.0407938730571584
 50
184.1867341489216017
 51
273.4429838061741975
  0
ARC
  5
329F7
  8
0
 10
6203.6963866274809334
 20
312.3499815097832197
 30
0.0
 40
1.29921259845
 50
37.3052009675426532
 51
142.4949437427370071
  0
ARC
  5
329F8
  8
0
 10
6203.6963866274809334
 20
312.3499815097832197
 30
0.0
 40
1.29921259845
 50
217.5050562516869945
 51
322.6947990379837279
  0
LINE
  5
329F9
  8
0
 10
6212.0931363806748777
 20
313.1535566715331811
 30
0.0
 11
6210.2396796347802592
 21
313.1373830846331998
 31
0.0
  0
LINE
  5
329FA
  8
0
 10
6212.093136381230579
 20
311.5464063481331891
 30
0.0
 11
6210.2396796347802592
 21
311.5625799350331135
 31
0.0
  0
ARC
  5
329FB
  8
0
 10
6212.1805624918770263
 20
312.1019739651209193
 30
0.0
 40
0.0315606326371513
 50
299.19660412114672
 51
352.6734476096777939
  0
ARC
  5
329FC
  8
0
 10
6210.2533765958833101
 20
312.3499815177304981
 30
0.0
 40
1.974638918011266
 50
352.6670723275921091
 51
7.3329276672953494
  0
ARC
  5
329FD
  8
0
 10
6212.1806087105978804
 20
312.5980023369335754
 30
0.0
 40
0.0315131002949163
 50
7.3133444842843289
 51
60.8513552061996705
  0
LINE
  5
329FE
  8
0
 10
6212.1959580184629885
 20
312.0403442385526205
 30
0.0
 11
6212.1959580184629885
 21
312.6600052753652221
 31
0.0
  0
LINE
  5
329FF
  8
0
 10
6212.2118654462028644
 20
312.0979492188081963
 30
0.0
 11
6212.2118654462028644
 21
312.6020138166530273
 31
0.0
  0
ARC
  5
32A00
  8
0
 10
6208.2789334396466074
 20
312.3486452761512169
 30
0.0
 40
3.9291387199783041
 50
348.6900915072363887
 51
355.4996435801626262
  0
ARC
  5
32A01
  8
0
 10
6212.093136381230579
 20
311.5858063481331897
 30
0.0
 40
0.0394
 50
270.0
 51
348.6900915072395719
  0
ARC
  5
32A02
  8
0
 10
6208.2711757031447632
 20
312.3499815104530057
 30
0.0
 40
3.9370078686030441
 50
4.5164969632828429
 51
11.3068048368424208
  0
ARC
  5
32A03
  8
0
 10
6212.0931363806748777
 20
313.1141566715331805
 30
0.0
 40
0.0394
 50
11.3068048368456093
 51
90.0
  0
LINE
  5
32A04
  8
0
 10
6210.2396796347802592
 20
311.5625799350331135
 30
0.0
 11
6210.2396796347802592
 21
313.1373830846331998
 31
0.0
  0
LINE
  5
32A05
  8
0
 10
6210.1924636988796919
 20
311.5625799350331135
 30
0.0
 11
6210.1924636988796919
 21
313.1373830846331998
 31
0.0
  0
LINE
  5
32A06
  8
0
 10
6212.131768875189664
 20
312.1682592901626094
 30
0.0
 11
6212.131768875189664
 21
311.5780674586370083
 31
0.0
  0
LINE
  5
32A07
  8
0
 10
6212.131768875189664
 20
312.5323174534971145
 30
0.0
 11
6212.131768875189664
 21
313.1218955582464218
 31
0.0
  0
ARC
  5
32A08
  8
0
 10
6211.6646807727802297
 20
312.5562408644950096
 30
0.0
 40
0.4677003581419749
 50
342.3692928801567064
 51
357.0679754824985821
  0
ARC
  5
32A09
  8
0
 10
6212.285937141755312
 20
312.3499815101264971
 30
0.0
 40
0.1870355554754172
 50
159.7938301006280142
 51
200.206170254138101
  0
ARC
  5
32A0A
  8
0
 10
6211.8047837317481026
 20
312.1691423137327206
 30
0.0
 40
0.3269863357425776
 50
359.8452730902192798
 51
20.8228935414845502
  0
LINE
  5
32A0B
  8
0
 10
6210.9281859269103734
 20
312.2527188870304258
 30
0.0
 11
6212.0672776370929569
 21
312.2476375745621908
 31
0.0
  0
LINE
  5
32A0C
  8
0
 10
6210.9292466219785638
 20
312.4501168550510783
 30
0.0
 11
6212.0706629146170599
 21
312.4501168550510783
 31
0.0
  0
ARC
  5
32A0D
  8
0
 10
6210.9239039336962378
 20
312.3514437295951893
 30
0.0
 40
0.0988176603918452
 50
86.9007278557137255
 51
272.4835336278142108
  0
ARC
  5
32A0E
  8
0
 10
6212.0722777646196846
 20
312.4119235584286116
 30
0.0
 40
0.0382274200990261
 50
3.9899094165773121
 51
92.4210796736661848
  0
ARC
  5
32A0F
  8
0
 10
6212.0697275231450476
 20
312.2883578169160046
 30
0.0
 40
0.0407938730571584
 50
266.5570161938258025
 51
355.8132658510751867
  0
ARC
  5
32A10
  8
0
 10
6209.6018984384800206
 20
312.3499815097832197
 30
0.0
 40
1.29921259845
 50
37.5050562572630426
 51
71.1101918335948966
  0
ARC
  5
32A11
  8
0
 10
6209.6018984384800206
 20
312.3499815097832197
 30
0.0
 40
1.29921259845
 50
95.8642448029035563
 51
142.694799032457297
  0
ARC
  5
32A12
  8
0
 10
6209.6018984384800206
 20
312.3499815097832197
 30
0.0
 40
1.29921259845
 50
217.3052009620163005
 51
258.3310212598667022
  0
ARC
  5
32A13
  8
0
 10
6209.6018984384800206
 20
312.3499815097832197
 30
0.0
 40
1.29921259845
 50
283.2915179094483733
 51
322.5044152275415854
  0
LINE
  5
32A14
  8
0
 10
6204.7987488321787168
 20
335.22006516548322
 30
0.0
 11
6204.7987488321787168
 21
333.6846332268831929
 31
0.0
  0
LINE
  5
32A15
  8
0
 10
6205.3814184995799224
 20
335.4059323525831928
 30
0.0
 11
6205.3368319431710916
 21
335.2271054425897887
 31
0.0
  0
LINE
  5
32A16
  8
0
 10
6205.9287956085217957
 20
335.2330336637735968
 30
0.0
 11
6205.9695283442788423
 21
335.3964037435832211
 31
0.0
  0
LINE
  5
32A17
  8
0
 10
6206.0664653675794398
 20
335.2791208496831814
 30
0.0
 11
6206.0664653675794398
 21
335.2397507709832212
 31
0.0
  0
LINE
  5
32A18
  8
0
 10
6206.0664653675794398
 20
333.6649476213831917
 30
0.0
 11
6206.0664652816831222
 21
333.6255775425190109
 31
0.0
  0
LINE
  5
32A19
  8
0
 10
6207.2318198032862711
 20
333.6255775425107117
 30
0.0
 11
6207.2318196982796508
 21
333.6649476213831917
 31
0.0
  0
LINE
  5
32A1A
  8
0
 10
6207.2318196982796508
 20
335.2397507709832212
 30
0.0
 11
6207.2318196982796508
 21
335.2791208496831814
 31
0.0
  0
LINE
  5
32A1B
  8
0
 10
6207.4759141864788035
 20
333.6649476213831917
 30
0.0
 11
6207.4759141864788035
 21
335.2397507709832212
 31
0.0
  0
LINE
  5
32A1C
  8
0
 10
6207.5191425329803678
 20
335.2397507709832212
 30
0.0
 11
6207.5191425329803678
 21
333.6649476213831917
 31
0.0
  0
LINE
  5
32A1D
  8
0
 10
6207.2121343668795816
 20
333.6058925032832008
 30
0.0
 11
6207.1648888119807452
 21
333.6058925032832008
 31
0.0
  0
LINE
  5
32A1E
  8
0
 10
6206.133396254780564
 20
333.6058925032832008
 30
0.0
 11
6206.0861506990795533
 21
333.6058925032832008
 31
0.0
  0
LINE
  5
32A1F
  8
0
 10
6208.3858278035795593
 20
333.6649476213831917
 30
0.0
 11
6207.5191425329803678
 21
333.6649476213831917
 31
0.0
  0
LINE
  5
32A20
  8
0
 10
6207.4759141864788035
 20
333.6649476213831917
 30
0.0
 11
6207.2318196982796508
 21
333.6649476213831917
 31
0.0
  0
LINE
  5
32A21
  8
0
 10
6206.0664653675794398
 20
333.6649476213831917
 30
0.0
 11
6204.8184338715791455
 21
333.6649476213831917
 31
0.0
  0
LINE
  5
32A22
  8
0
 10
6207.4759141864788035
 20
333.7712468339831844
 30
0.0
 11
6207.5191425329803678
 21
333.7712468339831844
 31
0.0
  0
LINE
  5
32A23
  8
0
 10
6206.1453391140803433
 20
335.2948718180832088
 30
0.0
 11
6206.1438022953798281
 21
335.295828891283179
 31
0.0
  0
LINE
  5
32A24
  8
0
 10
6207.4759141864788035
 20
335.1334515583831717
 30
0.0
 11
6207.5191425329803678
 21
335.1334515583831717
 31
0.0
  0
LINE
  5
32A25
  8
0
 10
6208.1069212185802826
 20
335.2397507709832212
 30
0.0
 11
6207.5191425329803678
 21
335.2397398075833053
 31
0.0
  0
LINE
  5
32A26
  8
0
 10
6207.4759141864788035
 20
335.2397507709832212
 30
0.0
 11
6207.2318196982796508
 21
335.2397507709832212
 31
0.0
  0
LINE
  5
32A27
  8
0
 10
6206.0664653675794398
 20
335.2397507709832212
 30
0.0
 11
6205.9444181234794087
 21
335.2397507709832212
 31
0.0
  0
LINE
  5
32A28
  8
0
 10
6205.3065930323800785
 20
335.2397507709832212
 30
0.0
 11
6204.8184338715791455
 21
335.2397507709832212
 31
0.0
  0
LINE
  5
32A29
  8
0
 10
6207.2121343667804467
 20
335.2988058890830985
 30
0.0
 11
6207.164888811081255
 21
335.2988058890830985
 31
0.0
  0
LINE
  5
32A2A
  8
0
 10
6206.1333962538801643
 20
335.2988058890830985
 30
0.0
 11
6206.0861506990795533
 21
335.2988058890830985
 31
0.0
  0
LINE
  5
32A2B
  8
0
 10
6205.9504278589793103
 20
335.4208531331831864
 30
0.0
 11
6205.4005190075804421
 21
335.4208531331831864
 31
0.0
  0
ARC
  5
32A2C
  8
0
 10
6207.5152842652796608
 20
335.0940814795832239
 30
0.0
 40
0.0393700787
 50
84.3731095002988951
 51
90.0
  0
ARC
  5
32A2D
  8
0
 10
6207.2123048911817023
 20
335.27929108451292
 30
0.0
 40
0.0195155495948701
 50
359.5002005493961974
 51
90.5006496380373164
  0
ARC
  5
32A2E
  8
0
 10
6206.0861581855579061
 20
333.6255854073065166
 30
0.0
 40
0.019692905446315
 50
180.0228823088854142
 51
269.9782183683182097
  0
ARC
  5
32A2F
  8
0
 10
6206.0861580522823715
 20
335.2791132042701179
 30
0.0
 40
0.019692686185875
 50
90.0213941071104244
 51
179.9777557055039097
  0
ARC
  5
32A30
  8
0
 10
6207.2121280161709365
 20
333.6255842905300142
 30
0.0
 40
0.0196917882708542
 50
270.0184782015119254
 51
359.9803657734727267
  0
ARC
  5
32A31
  8
0
 10
6204.8184338715864214
 20
333.684632660696991
 30
0.0
 40
0.0196850394138788
 50
179.9983520442083034
 51
269.9999999832725734
  0
ARC
  5
32A32
  8
0
 10
6204.8184338715864214
 20
335.2200657315693206
 30
0.0
 40
0.0196850394138792
 50
90.0000000167273555
 51
180.0016476647431034
  0
ARC
  5
32A33
  8
0
 10
6208.7087246667379077
 20
345.4830908679998061
 30
0.0
 40
11.81683398161152
 50
270.7341849046795801
 51
271.8726830465919875
  0
ARC
  5
32A34
  8
0
 10
6208.3697684990602284
 20
335.2760034685730943
 30
0.0
 40
1.6111358862699141
 50
270.5711160778004114
 51
274.0858309261730028
  0
ARC
  5
32A35
  8
0
 10
6208.6541118568702586
 20
331.3127097330955735
 30
0.0
 40
2.3623448819629429
 50
86.9605913047395944
 51
94.1157338421761125
  0
ARC
  5
32A36
  8
0
 10
6207.7995862439984194
 20
315.5634350958102914
 30
0.0
 40
18.1347835717810213
 50
86.7075860680755426
 51
86.9029229214660575
  0
ARC
  5
32A37
  8
0
 10
6209.1756405584656022
 20
339.5120065442291093
 30
0.0
 40
5.8532886330390124
 50
266.7235179045010227
 51
266.910186374127079
  0
ARC
  5
32A38
  8
0
 10
6205.6255055779301983
 20
335.9599454337745215
 30
0.0
 40
0.7876455827479462
 50
246.1155490068391885
 51
293.8844509931607831
  0
ARC
  5
32A39
  8
0
 10
6205.400616463123697
 20
335.401042440424817
 30
0.0
 40
0.0198109324654052
 50
90.2818551769667437
 51
165.7100537213298139
  0
ARC
  5
32A3A
  8
0
 10
6205.9503409703438592
 20
335.4010996661941135
 30
0.0
 40
0.0197536580846036
 50
346.2477402285217067
 51
89.7479774046398262
  0
ARC
  5
32A3B
  8
0
 10
6207.1651525637389568
 20
333.6264900059903198
 30
0.0
 40
0.0205991913133042
 50
238.803720981402904
 51
269.2663655898824118
  0
ARC
  5
32A3C
  8
0
 10
6206.1331324982347724
 20
333.6264900188512001
 30
0.0
 40
0.0205992042343559
 50
270.7336472616526066
 51
301.1962650128932069
  0
ARC
  5
32A3D
  8
0
 10
6206.8651917002189293
 20
332.4955941582908281
 30
0.0
 40
1.326568755318531
 50
108.2166994898054071
 51
122.9427657170065942
  0
ARC
  5
32A3E
  8
0
 10
6206.3632616126042194
 20
332.3727792719939202
 30
0.0
 40
1.4676341420909
 50
57.3766989269769283
 51
67.17053876840302
  0
ARC
  5
32A3F
  8
0
 10
6206.6521318263512512
 20
333.1112161919505184
 30
0.0
 40
0.6752690961265977
 50
65.4508533771637531
 51
107.3740509861255958
  0
ARC
  5
32A40
  8
0
 10
6207.1276995237631127
 20
332.1559932615006119
 30
0.0
 40
1.844765891503906
 50
115.5191617868918996
 51
125.1183786873811954
  0
ARC
  5
32A41
  8
0
 10
6206.1371821555549104
 20
332.1051277504784025
 30
0.0
 40
1.905588984963335
 50
54.9399058828567703
 51
63.2204543824448777
  0
ARC
  5
32A42
  8
0
 10
6206.6509644194156863
 20
333.1992842429638131
 30
0.0
 40
0.6981385291704829
 50
60.4039743270774991
 51
117.098197040928099
  0
ARC
  5
32A43
  8
0
 10
6207.2279125243812814
 20
336.9092965817515051
 30
0.0
 40
2.0338000669428711
 50
235.1749561781196007
 51
242.6833034878117985
  0
ARC
  5
32A44
  8
0
 10
6206.1410663505012053
 20
336.7929196624730253
 30
0.0
 40
1.8979137154207411
 50
296.8023904372781203
 51
305.079449663775506
  0
ARC
  5
32A45
  8
0
 10
6206.7185789160357672
 20
335.9213052338615739
 30
0.0
 40
0.9222489051167311
 50
242.6296832467697868
 51
257.4595015863170033
  0
ARC
  5
32A46
  8
0
 10
6206.5535272879660624
 20
335.9820594289300857
 30
0.0
 40
0.9881851047418559
 50
286.4115463618032891
 51
296.6562693098401837
  0
ARC
  5
32A47
  8
0
 10
6206.6498169053747915
 20
335.6457131230437767
 30
0.0
 40
0.638342926747885
 50
258.1131558279645901
 51
286.6505730029542178
  0
ARC
  5
32A48
  8
0
 10
6206.1331325020100849
 20
335.2782083862201716
 30
0.0
 40
0.0205991914705302
 50
58.8037205589327812
 51
89.2663652856380594
  0
ARC
  5
32A49
  8
0
 10
6207.1651510983920161
 20
335.2782135101422796
 30
0.0
 40
0.0205940492637517
 50
90.7297429506284061
 51
121.2001706330124051
  0
ARC
  5
32A4A
  8
0
 10
6207.0848955127066802
 20
336.7982119795379958
 30
0.0
 40
1.7727938027998831
 50
237.9954719487107866
 51
243.6489972728514886
  0
ARC
  5
32A4B
  8
0
 10
6206.1807483258071443
 20
336.8509766584439831
 30
0.0
 40
1.834841504673234
 50
298.2235835426934045
 51
302.0521759363384717
  0
ARC
  5
32A4C
  8
0
 10
6206.722183547937675
 20
336.0571895024974083
 30
0.0
 40
0.947781122984039
 50
243.4136087229666998
 51
256.4232709796190761
  0
ARC
  5
32A4D
  8
0
 10
6206.5297918771775585
 20
336.1796655165611014
 30
0.0
 40
1.078321594820411
 50
285.7932177040573265
 51
298.7510394338119113
  0
ARC
  5
32A4E
  8
0
 10
6206.6495973199253058
 20
335.7636492413432734
 30
0.0
 40
0.6454061127108643
 50
256.5697599588542062
 51
285.6105913023300786
  0
ARC
  5
32A4F
  8
0
 10
6209.0929034849878008
 20
333.6906289439239117
 30
0.0
 40
0.0181689623922502
 50
276.2549306105876212
 51
311.070637838846892
  0
ARC
  5
32A50
  8
0
 10
6209.0820696662976843
 20
333.700404314303114
 30
0.0
 40
0.032702920829022
 50
314.1298833896145197
 51
356.7532216462190036
  0
ARC
  5
32A51
  8
0
 10
6207.0595520372480678
 20
336.7485284626214934
 30
0.0
 40
1.7735218821582011
 50
235.9475394648744953
 51
246.1611218083444896
  0
ARC
  5
32A52
  8
0
 10
6206.6870644303216977
 20
335.9114671967245727
 30
0.0
 40
0.8573304767496781
 50
246.3213356492668993
 51
259.209189915524405
  0
ARC
  5
32A53
  8
0
 10
6206.2387966583119123
 20
336.7485284626214934
 30
0.0
 40
1.7735218821582011
 50
293.8388781916063976
 51
304.0499794945441181
  0
ARC
  5
32A54
  8
0
 10
6206.6112842652391919
 20
335.9114671967245727
 30
0.0
 40
0.8573304767496781
 50
280.790810084475595
 51
293.6786643507330723
  0
ARC
  5
32A55
  8
0
 10
6206.6491743477808996
 20
335.7184665704759254
 30
0.0
 40
0.6606495925927091
 50
259.3033558307816975
 51
280.6966441692184162
  0
ARC
  5
32A56
  8
0
 10
6207.0595520372480678
 20
332.1561699297449195
 30
0.0
 40
1.7735218821582011
 50
113.8388781916553967
 51
124.0524638835942
  0
ARC
  5
32A57
  8
0
 10
6206.6870644303216977
 20
332.9932311956417266
 30
0.0
 40
0.8573304767496781
 50
100.7908100844754955
 51
113.6786643507330012
  0
ARC
  5
32A58
  8
0
 10
6206.2387966583119123
 20
332.1561699297449195
 30
0.0
 40
1.7735218821582011
 50
55.9500164156239421
 51
66.1611218083445749
  0
ARC
  5
32A59
  8
0
 10
6206.6112842652391919
 20
332.9932311956417266
 30
0.0
 40
0.8573304767496781
 50
66.3213356492669561
 51
79.2091899155244334
  0
ARC
  5
32A5A
  8
0
 10
6206.6491743477808996
 20
333.1862318218904875
 30
0.0
 40
0.6606495925927091
 50
79.3033558307816833
 51
100.6966441692183025
  0
ARC
  5
32A5B
  8
0
 10
6206.649142532978658
 20
360.5783279664831866
 30
0.0
 40
0.3937007873999985
 50
90.0
 51
180.0
  0
ARC
  5
32A5C
  8
0
 10
6202.3508692001696545
 20
355.1027689113561223
 30
0.0
 40
0.0078740156728768
 50
185.9999998634974077
 51
270.0000000757681846
  0
ARC
  5
32A5D
  8
0
 10
6202.4154661560660315
 20
355.1027689114778809
 30
0.0
 40
0.0078740158945971
 50
186.0000005435117885
 51
269.9999986485216823
  0
ARC
  5
32A5E
  8
0
 10
6202.5080756415491123
 20
355.1027689990373801
 30
0.0
 40
0.0078741959512586
 50
269.7222852416516048
 51
353.9994962462096737
  0
LINE
  5
32A5F
  8
0
 10
6202.3375724615443687
 20
355.1539500137333221
 30
0.0
 11
6202.3430383191616784
 21
355.1019458526222934
 31
0.0
  0
LINE
  5
32A60
  8
0
 10
6202.4021694172079151
 20
355.1539500137333221
 30
0.0
 11
6202.4076352748616046
 21
355.1019458526222934
 31
0.0
  0
LINE
  5
32A61
  8
0
 10
6202.5159066946825988
 20
355.1019458526154722
 30
0.0
 11
6202.5213725522553432
 21
355.1539500137333221
 31
0.0
  0
LINE
  5
32A62
  8
0
 10
6202.3508692001796589
 20
355.0948948955831952
 30
0.0
 11
6202.5080374751796626
 21
355.0948948955831952
 31
0.0
  0
ARC
  5
32A63
  8
0
 10
6202.6073326157711563
 20
355.1027689115778117
 30
0.0
 40
0.0078740158945971
 50
186.0000005435117885
 51
269.9999986485216823
  0
ARC
  5
32A64
  8
0
 10
6202.6999699895332014
 20
355.1026955502441069
 30
0.0
 40
0.0078009342257496
 50
269.5148404501578057
 51
354.4851594007463973
  0
LINE
  5
32A65
  8
0
 10
6202.5939975385254002
 20
355.1539500137333221
 30
0.0
 11
6202.5995017345667293
 21
355.101945852722281
 31
0.0
  0
LINE
  5
32A66
  8
0
 10
6202.7077348159700705
 20
355.1019458526154722
 30
0.0
 11
6202.713200673531901
 21
355.1539500137333221
 31
0.0
  0
LINE
  5
32A67
  8
0
 10
6202.6073326155847099
 20
355.0948948956831828
 30
0.0
 11
6202.6999039348847873
 21
355.0948948956831828
 31
0.0
  0
ARC
  5
32A68
  8
0
 10
6202.920534062216575
 20
355.1027689114778809
 30
0.0
 40
0.0078740158945971
 50
186.0000005435117885
 51
269.9999986485216823
  0
ARC
  5
32A69
  8
0
 10
6203.0131714359768011
 20
355.1026955501441194
 30
0.0
 40
0.0078009342257496
 50
269.5148404501578057
 51
354.4851594007463973
  0
LINE
  5
32A6A
  8
0
 10
6202.9071989849589954
 20
355.1539500137333221
 30
0.0
 11
6202.912703181012148
 21
355.1019458526222934
 31
0.0
  0
LINE
  5
32A6B
  8
0
 10
6203.0209362624145797
 20
355.1019458525154278
 30
0.0
 11
6203.0264021199891431
 21
355.1539500137333221
 31
0.0
  0
LINE
  5
32A6C
  8
0
 10
6202.9205340620292191
 20
355.0948948955831952
 30
0.0
 11
6203.0131053813292965
 21
355.0948948955831952
 31
0.0
  0
ARC
  5
32A6D
  8
0
 10
6203.0789603938656001
 20
355.1027689114778809
 30
0.0
 40
0.0078740158945971
 50
186.0000005435117885
 51
269.9999986485216823
  0
ARC
  5
32A6E
  8
0
 10
6203.1715977676276452
 20
355.1026955501441194
 30
0.0
 40
0.0078009342257496
 50
269.5148404501578057
 51
354.4851594007463973
  0
LINE
  5
32A6F
  8
0
 10
6203.0656253166098395
 20
355.1539500137333221
 30
0.0
 11
6203.0711295126620826
 21
355.1019458526222934
 31
0.0
  0
LINE
  5
32A70
  8
0
 10
6203.1793625940636048
 20
355.1019458525154278
 30
0.0
 11
6203.1848284516372587
 21
355.1539500137333221
 31
0.0
  0
LINE
  5
32A71
  8
0
 10
6203.0789603936800631
 20
355.0948948955831952
 30
0.0
 11
6203.1715317129792311
 21
355.0948948955831952
 31
0.0
  0
ARC
  5
32A72
  8
0
 10
6203.2329715795158336
 20
355.1027689114778809
 30
0.0
 40
0.0078740158945971
 50
186.0000005435117885
 51
269.9999986485216823
  0
ARC
  5
32A73
  8
0
 10
6203.3256089532778788
 20
355.1026955501441194
 30
0.0
 40
0.0078009342257496
 50
269.5148404501578057
 51
354.4851594007463973
  0
LINE
  5
32A74
  8
0
 10
6203.219636502260073
 20
355.1539500137333221
 30
0.0
 11
6203.2251406983141351
 21
355.1019458526222934
 31
0.0
  0
LINE
  5
32A75
  8
0
 10
6203.3333737797147478
 20
355.1019458525154278
 30
0.0
 11
6203.3355936782636491
 21
355.1230667764496047
 31
0.0
  0
LINE
  5
32A76
  8
0
 10
6203.2329715793302967
 20
355.0948948955831952
 30
0.0
 11
6203.3255428986285551
 21
355.0948948955831952
 31
0.0
  0
ARC
  5
32A77
  8
0
 10
6203.3456600287663605
 20
355.1027689114778809
 30
0.0
 40
0.0078740158945971
 50
186.0000005435117885
 51
269.9999986485216823
  0
ARC
  5
32A78
  8
0
 10
6203.4382974025265867
 20
355.1026955501441194
 30
0.0
 40
0.0078009342257496
 50
269.5148404501578057
 51
354.4851594007463973
  0
LINE
  5
32A79
  8
0
 10
6203.3323249515096904
 20
355.1539500137333221
 30
0.0
 11
6203.3378291475619335
 21
355.1019458526222934
 31
0.0
  0
LINE
  5
32A7A
  8
0
 10
6203.4460622289661842
 20
355.1019458525154278
 30
0.0
 11
6203.4515280865389286
 21
355.1539500137333221
 31
0.0
  0
LINE
  5
32A7B
  8
0
 10
6203.3456600285799141
 20
355.0948948955831952
 30
0.0
 11
6203.4382313478799915
 21
355.0948948955831952
 31
0.0
  0
ARC
  5
32A7C
  8
0
 10
6203.5342900319155888
 20
355.1027689114778809
 30
0.0
 40
0.0078740158945971
 50
186.0000005435117885
 51
269.9999986485216823
  0
ARC
  5
32A7D
  8
0
 10
6203.6269274056776339
 20
355.1026955501441194
 30
0.0
 40
0.0078009342257496
 50
269.5148404501578057
 51
354.4851594007463973
  0
LINE
  5
32A7E
  8
0
 10
6203.5209549546598282
 20
355.1539500137333221
 30
0.0
 11
6203.5264591507120713
 21
355.1019458526222934
 31
0.0
  0
LINE
  5
32A7F
  8
0
 10
6203.6346922321135935
 20
355.1019458525154278
 30
0.0
 11
6203.6401580896872474
 21
355.1539500137333221
 31
0.0
  0
LINE
  5
32A80
  8
0
 10
6203.5342900317300519
 20
355.0948948955831952
 30
0.0
 11
6203.6268613510292198
 21
355.0948948955831952
 31
0.0
  0
ARC
  5
32A81
  8
0
 10
6203.7682112042157314
 20
355.1027689114778809
 30
0.0
 40
0.0078740158945971
 50
186.0000005435117885
 51
269.9999986485216823
  0
ARC
  5
32A82
  8
0
 10
6203.8608485779777766
 20
355.1026955501441194
 30
0.0
 40
0.0078009342257496
 50
269.5148404501578057
 51
285.92981878401622
  0
LINE
  5
32A83
  8
0
 10
6203.7548761269608804
 20
355.1539500137333221
 30
0.0
 11
6203.7603803230113044
 21
355.1019458526222934
 31
0.0
  0
LINE
  5
32A84
  8
0
 10
6203.7682112040320135
 20
355.0948948955831952
 30
0.0
 11
6203.8607825233311814
 21
355.0948948955831952
 31
0.0
  0
ARC
  5
32A85
  8
0
 10
6203.8651398782958495
 20
355.1027689114778809
 30
0.0
 40
0.0078740158945971
 50
186.0000005435117885
 51
269.9999986485216823
  0
LINE
  5
32A86
  8
0
 10
6203.8518048010400889
 20
355.1539500137333221
 30
0.0
 11
6203.857308997092332
 21
355.1019458526222934
 31
0.0
  0
LINE
  5
32A87
  8
0
 10
6203.8651398781112221
 20
355.0948948955831952
 30
0.0
 11
6203.95771119741039
 21
355.0948948955831952
 31
0.0
  0
ARC
  5
32A88
  8
0
 10
6203.869744202415859
 20
355.1027689114778809
 30
0.0
 40
0.0078740158945971
 50
186.0000005435117885
 51
269.9999986485216823
  0
ARC
  5
32A89
  8
0
 10
6203.9623815761779042
 20
355.1026955501441194
 30
0.0
 40
0.0078009342257496
 50
269.5148404501578057
 51
354.4851594007463973
  0
LINE
  5
32A8A
  8
0
 10
6203.8564091251600985
 20
355.1539500137333221
 30
0.0
 11
6203.8619133212123415
 21
355.1019458526222934
 31
0.0
  0
LINE
  5
32A8B
  8
0
 10
6203.9701464026147733
 20
355.1019458525154278
 30
0.0
 11
6203.9756122601884272
 21
355.1539500137333221
 31
0.0
  0
LINE
  5
32A8C
  8
0
 10
6203.8697442022303221
 20
355.0948948955831952
 30
0.0
 11
6203.9623155215285806
 21
355.0948948955831952
 31
0.0
  0
ARC
  5
32A8D
  8
0
 10
6203.9696665470155494
 20
355.1027689114778809
 30
0.0
 40
0.0078740158945971
 50
242.2526955950881131
 51
269.9999986485216823
  0
ARC
  5
32A8E
  8
0
 10
6204.0623039207775946
 20
355.1026955501441194
 30
0.0
 40
0.0078009342257496
 50
269.5148404501578057
 51
354.4851594007463973
  0
LINE
  5
32A8F
  8
0
 10
6204.0700687472135542
 20
355.1019458525154278
 30
0.0
 11
6204.0755346047872081
 21
355.1539500137333221
 31
0.0
  0
LINE
  5
32A90
  8
0
 10
6203.9696665468300125
 20
355.0948948955831952
 30
0.0
 11
6204.06223786613009
 21
355.0948948955831952
 31
0.0
  0
ARC
  5
32A91
  8
0
 10
6204.1479917839651534
 20
355.1027689114778809
 30
0.0
 40
0.0078740158945971
 50
186.0000005435117885
 51
269.9999986485216823
  0
ARC
  5
32A92
  8
0
 10
6204.2406291577281081
 20
355.1026955501441194
 30
0.0
 40
0.0078009342257496
 50
269.5148404501578057
 51
354.4851594007463973
  0
LINE
  5
32A93
  8
0
 10
6204.1346567067103024
 20
355.1539500137333221
 30
0.0
 11
6204.1401609027607265
 21
355.1019458526222934
 31
0.0
  0
LINE
  5
32A94
  8
0
 10
6204.2483939841649772
 20
355.1019458525154278
 30
0.0
 11
6204.2538598417377216
 21
355.1539500137333221
 31
0.0
  0
LINE
  5
32A95
  8
0
 10
6204.1479917837796165
 20
355.0948948955831952
 30
0.0
 11
6204.240563103079694
 21
355.0948948955831952
 31
0.0
  0
ARC
  5
32A96
  8
0
 10
6204.7617276121145551
 20
355.1027689114778809
 30
0.0
 40
0.0078740158945971
 50
186.0000005435117885
 51
269.9999986485216823
  0
ARC
  5
32A97
  8
0
 10
6204.8543649858784192
 20
355.1026955501441194
 30
0.0
 40
0.0078009342257496
 50
269.5148404501578057
 51
354.4851594007463973
  0
LINE
  5
32A98
  8
0
 10
6204.748392534859704
 20
355.1539500137333221
 30
0.0
 11
6204.7538967309119471
 21
355.1019458526222934
 31
0.0
  0
LINE
  5
32A99
  8
0
 10
6204.8621298123152883
 20
355.1019458525154278
 30
0.0
 11
6204.8675956698880327
 21
355.1539500137333221
 31
0.0
  0
LINE
  5
32A9A
  8
0
 10
6204.7617276119308372
 20
355.0948948955831952
 30
0.0
 11
6204.8542989312300051
 21
355.0948948955831952
 31
0.0
  0
ARC
  5
32A9B
  8
0
 10
6205.3754293641659388
 20
355.1027689114778809
 30
0.0
 40
0.0078740158945971
 50
186.0000005435117885
 51
269.9999986485216823
  0
ARC
  5
32A9C
  8
0
 10
6205.4680667379279839
 20
355.1026955501441194
 30
0.0
 40
0.0078009342257496
 50
269.5148404501578057
 51
354.4851594007463973
  0
LINE
  5
32A9D
  8
0
 10
6205.3620942869101782
 20
355.1539500137333221
 30
0.0
 11
6205.3675984829606023
 21
355.1019458526222934
 31
0.0
  0
LINE
  5
32A9E
  8
0
 10
6205.475831564364853
 20
355.1019458525154278
 30
0.0
 11
6205.4812974219375974
 21
355.1539500137333221
 31
0.0
  0
LINE
  5
32A9F
  8
0
 10
6205.3754293639804018
 20
355.0948948955831952
 30
0.0
 11
6205.4680006832786603
 21
355.0948948955831952
 31
0.0
  0
ARC
  5
32AA0
  8
0
 10
6205.8645102913160372
 20
355.1027689114778809
 30
0.0
 40
0.0078740158945971
 50
186.0000005435117885
 51
269.9999986485216823
  0
ARC
  5
32AA1
  8
0
 10
6205.9571476650780824
 20
355.1026955501441194
 30
0.0
 40
0.0078009342257496
 50
269.5148404501578057
 51
354.4851594007463973
  0
LINE
  5
32AA2
  8
0
 10
6205.8511752140602766
 20
355.1539500137333221
 30
0.0
 11
6205.8566794101107007
 21
355.1019458526222934
 31
0.0
  0
LINE
  5
32AA3
  8
0
 10
6205.9649124915149514
 20
355.1019458525154278
 30
0.0
 11
6205.9703783490876958
 21
355.1539500137333221
 31
0.0
  0
LINE
  5
32AA4
  8
0
 10
6205.8645102911295908
 20
355.0948948955831952
 30
0.0
 11
6205.9570816104305777
 21
355.0948948955831952
 31
0.0
  0
ARC
  5
32AA5
  8
0
 10
6206.081785518178549
 20
355.1026955501441194
 30
0.0
 40
0.0078009342257496
 50
269.5148404501578057
 51
354.4851594007463973
  0
LINE
  5
32AA6
  8
0
 10
6206.089550344613599
 20
355.1019458525154278
 30
0.0
 11
6206.0950162021872529
 21
355.1539500137333221
 31
0.0
  0
LINE
  5
32AA7
  8
0
 10
6205.9869180537752982
 20
355.0948948955831952
 30
0.0
 11
6206.0817194635301348
 21
355.0948948955831952
 31
0.0
  0
ARC
  5
32AA8
  8
0
 10
6206.6028562367164341
 20
355.1027689114778809
 30
0.0
 40
0.0078740158945971
 50
186.0000005435117885
 51
269.9999986485216823
  0
ARC
  5
32AA9
  8
0
 10
6206.6954936104775697
 20
355.1026955501441194
 30
0.0
 40
0.0078009342257496
 50
269.5148404501578057
 51
354.4851594007463973
  0
LINE
  5
32AAA
  8
0
 10
6206.589521159459764
 20
355.1539500137333221
 30
0.0
 11
6206.5950253555120071
 21
355.1019458526222934
 31
0.0
  0
LINE
  5
32AAB
  8
0
 10
6206.7032584369153483
 20
355.1019458525154278
 30
0.0
 11
6206.7087242944871832
 21
355.1539500137333221
 31
0.0
  0
LINE
  5
32AAC
  8
0
 10
6206.6028562365299877
 20
355.0948948955831952
 30
0.0
 11
6206.6954275558300651
 21
355.0948948955831952
 31
0.0
  0
ARC
  5
32AAD
  8
0
 10
6204.4768917907658761
 20
355.1027689115778117
 30
0.0
 40
0.0078740158945971
 50
186.0000005435117885
 51
269.9999986485216823
  0
ARC
  5
32AAE
  8
0
 10
6204.5695291645279212
 20
355.1026955502441069
 30
0.0
 40
0.0078009342257496
 50
269.5148404501578057
 51
354.4851594007463973
  0
LINE
  5
32AAF
  8
0
 10
6204.4635567135219389
 20
355.1539500137333221
 30
0.0
 11
6204.4690609095623586
 21
355.101945852722281
 31
0.0
  0
LINE
  5
32AB0
  8
0
 10
6204.5772939909647903
 20
355.1019458526154722
 30
0.0
 11
6204.5827598485293493
 21
355.1539500137333221
 31
0.0
  0
LINE
  5
32AB1
  8
0
 10
6204.4768917905812486
 20
355.0948948956831828
 30
0.0
 11
6204.5694631098804166
 21
355.0948948956831828
 31
0.0
  0
ARC
  5
32AB2
  8
0
 10
6204.6125647484277579
 20
355.1026955502441069
 30
0.0
 40
0.0078009342257496
 50
269.5148404501578057
 51
354.4851594007463973
  0
LINE
  5
32AB3
  8
0
 10
6204.6203295748646269
 20
355.1019458526154722
 30
0.0
 11
6204.6257954324273669
 21
355.1539500137333221
 31
0.0
  0
LINE
  5
32AB4
  8
0
 10
6204.5199273744810853
 20
355.0948948956831828
 30
0.0
 11
6204.6124986937802532
 21
355.0948948956831828
 31
0.0
  0
ARC
  5
32AB5
  8
0
 10
6204.6911162414280625
 20
355.1026955502441069
 30
0.0
 40
0.0078009342257496
 50
269.5148404501578057
 51
354.4851594007463973
  0
LINE
  5
32AB6
  8
0
 10
6204.6988810678649315
 20
355.1019458526154722
 30
0.0
 11
6204.704346925426762
 21
355.1539500137333221
 31
0.0
  0
LINE
  5
32AB7
  8
0
 10
6204.5984788674813899
 20
355.0948948956831828
 30
0.0
 11
6204.6910501867796484
 21
355.0948948956831828
 31
0.0
  0
ARC
  5
32AB8
  8
0
 10
6205.1486171655660655
 20
355.1027689115778117
 30
0.0
 40
0.0078740158945971
 50
186.0000005435117885
 51
269.9999986485216823
  0
ARC
  5
32AB9
  8
0
 10
6205.2412545393281107
 20
355.1026955502441069
 30
0.0
 40
0.0078009342257496
 50
269.5148404501578057
 51
354.4851594007463973
  0
LINE
  5
32ABA
  8
0
 10
6205.1352820883203094
 20
355.1539500137333221
 30
0.0
 11
6205.1407862843616385
 21
355.101945852722281
 31
0.0
  0
LINE
  5
32ABB
  8
0
 10
6205.2490193657658892
 20
355.1019458526154722
 30
0.0
 11
6205.2544852233268102
 21
355.1539500137333221
 31
0.0
  0
LINE
  5
32ABC
  8
0
 10
6205.1486171653814381
 20
355.0948948956831828
 30
0.0
 11
6205.2411884846796966
 21
355.0948948956831828
 31
0.0
  0
ARC
  5
32ABD
  8
0
 10
6205.2540722947278482
 20
355.1026955501441194
 30
0.0
 40
0.0078009342257496
 50
269.5148404501578057
 51
354.4851594007463973
  0
LINE
  5
32ABE
  8
0
 10
6205.2618371211647172
 20
355.1019458525154278
 30
0.0
 11
6205.2673029787383712
 21
355.1539500137333221
 31
0.0
  0
LINE
  5
32ABF
  8
0
 10
6205.1614349207811756
 20
355.0948948955831952
 30
0.0
 11
6205.2540062400803436
 21
355.0948948955831952
 31
0.0
  0
ARC
  5
32AC0
  8
0
 10
6205.2781905818292216
 20
355.1026955501441194
 30
0.0
 40
0.0078009342257496
 50
269.5148404501578057
 51
354.4851594007463973
  0
LINE
  5
32AC1
  8
0
 10
6205.2859554082651812
 20
355.1019458525154278
 30
0.0
 11
6205.2914212658379256
 21
355.1539500137333221
 31
0.0
  0
LINE
  5
32AC2
  8
0
 10
6205.18555320788073
 20
355.0948948955831952
 30
0.0
 11
6205.278124527179898
 21
355.0948948955831952
 31
0.0
  0
ARC
  5
32AC3
  8
0
 10
6205.328704142629249
 20
355.1026955501441194
 30
0.0
 40
0.0078009342257496
 50
269.5148404501578057
 51
354.4851594007463973
  0
LINE
  5
32AC4
  8
0
 10
6205.3364689690652085
 20
355.1019458525154278
 30
0.0
 11
6205.3419348266379529
 21
355.1539500137333221
 31
0.0
  0
LINE
  5
32AC5
  8
0
 10
6205.2360667686798479
 20
355.0948948955831952
 30
0.0
 11
6205.3286380879799253
 21
355.0948948955831952
 31
0.0
  0
ARC
  5
32AC6
  8
0
 10
6205.9585734308284373
 20
355.1026955502441069
 30
0.0
 40
0.0078009342257496
 50
269.5148404501578057
 51
354.4851594007463973
  0
LINE
  5
32AC7
  8
0
 10
6205.9663382572662158
 20
355.1019458526154722
 30
0.0
 11
6205.9718041148271368
 21
355.1539500137333221
 31
0.0
  0
LINE
  5
32AC8
  8
0
 10
6205.8659360568808552
 20
355.0948948956831828
 30
0.0
 11
6205.9585073761800231
 21
355.0948948956831828
 31
0.0
  0
ARC
  5
32AC9
  8
0
 10
6205.9618531311280094
 20
355.1026955502441069
 30
0.0
 40
0.0078009342257496
 50
269.5148404501578057
 51
354.4851594007463973
  0
LINE
  5
32ACA
  8
0
 10
6205.9696179575657879
 20
355.1019458526154722
 30
0.0
 11
6205.9750838151294374
 21
355.1539500137333221
 31
0.0
  0
LINE
  5
32ACB
  8
0
 10
6205.8692157571813368
 20
355.0948948956831828
 30
0.0
 11
6205.9617870764795953
 21
355.0948948956831828
 31
0.0
  0
ARC
  5
32ACC
  8
0
 10
6205.9686051190292346
 20
355.1026955501441194
 30
0.0
 40
0.0078009342257496
 50
269.5148404501578057
 51
354.4851594007463973
  0
LINE
  5
32ACD
  8
0
 10
6205.9763699454651942
 20
355.1019458525154278
 30
0.0
 11
6205.9818358030379386
 21
355.1539500137333221
 31
0.0
  0
LINE
  5
32ACE
  8
0
 10
6205.875967745080743
 20
355.0948948955831952
 30
0.0
 11
6205.968539064379911
 21
355.0948948955831952
 31
0.0
  0
ARC
  5
32ACF
  8
0
 10
6205.9868519991277935
 20
355.1026955501441194
 30
0.0
 40
0.0078009342257496
 50
269.5148404501578057
 51
354.4851594007463973
  0
LINE
  5
32AD0
  8
0
 10
6205.9946168255646626
 20
355.1019458525154278
 30
0.0
 11
6206.0000826831383165
 21
355.1539500137333221
 31
0.0
  0
LINE
  5
32AD1
  8
0
 10
6205.8942146251793019
 20
355.0948948955831952
 30
0.0
 11
6205.9867859444811984
 21
355.0948948955831952
 31
0.0
  0
LINE
  5
32AD2
  8
0
 10
6206.2554417455794464
 20
360.5783279664831866
 30
0.0
 11
6206.2554417455794464
 21
357.6747896247578069
 31
0.0
  0
LINE
  5
32AD3
  8
0
 10
6206.2554417455794464
 20
356.8853127097775086
 30
0.0
 11
6206.2554417455794464
 21
356.6881880286028945
 31
0.0
  0
ARC
  5
32AD4
  8
0
 10
6206.649142532978658
 20
360.5783279664831866
 30
0.0
 40
0.3937007873999985
 50
0.0
 51
90.0
  0
ARC
  5
32AD5
  8
0
 10
6210.9474158657922089
 20
355.1027689113561223
 30
0.0
 40
0.0078740156728768
 50
269.9999999242318154
 51
354.0000001365025923
  0
ARC
  5
32AD6
  8
0
 10
6210.8828189098949224
 20
355.1027689114778809
 30
0.0
 40
0.0078740158945971
 50
270.0000013514260786
 51
353.9999994564881263
  0
ARC
  5
32AD7
  8
0
 10
6210.7902094244109321
 20
355.1027689990373801
 30
0.0
 40
0.0078741959512586
 50
186.0005037537902979
 51
270.2777147582963266
  0
LINE
  5
32AD8
  8
0
 10
6210.9607126044156757
 20
355.1539500137333221
 30
0.0
 11
6210.9552467467983661
 21
355.1019458526222934
 31
0.0
  0
LINE
  5
32AD9
  8
0
 10
6210.8961156487530388
 20
355.1539500137333221
 30
0.0
 11
6210.8906497910984399
 21
355.1019458526222934
 31
0.0
  0
LINE
  5
32ADA
  8
0
 10
6210.7823783712774457
 20
355.1019458526154722
 30
0.0
 11
6210.7769125137037918
 21
355.1539500137333221
 31
0.0
  0
LINE
  5
32ADB
  8
0
 10
6210.9474158657803855
 20
355.0948948955831952
 30
0.0
 11
6210.7902475907812914
 21
355.0948948955831952
 31
0.0
  0
ARC
  5
32ADC
  8
0
 10
6210.6909524501897977
 20
355.1027689115778117
 30
0.0
 40
0.0078740158945971
 50
270.0000013514260786
 51
353.9999994564881263
  0
ARC
  5
32ADD
  8
0
 10
6210.5983150764277525
 20
355.1026955502441069
 30
0.0
 40
0.0078009342257496
 50
185.514840599253489
 51
270.485159549842308
  0
LINE
  5
32ADE
  8
0
 10
6210.7042875274337348
 20
355.1539500137333221
 30
0.0
 11
6210.6987833313951342
 21
355.101945852722281
 31
0.0
  0
LINE
  5
32ADF
  8
0
 10
6210.5905502499908835
 20
355.1019458526154722
 30
0.0
 11
6210.585084392427234
 21
355.1539500137333221
 31
0.0
  0
LINE
  5
32AE0
  8
0
 10
6210.6909524503753346
 20
355.0948948956831828
 30
0.0
 11
6210.5983811310761666
 21
355.0948948956831828
 31
0.0
  0
ARC
  5
32AE1
  8
0
 10
6210.37775100374256
 20
355.1027689114778809
 30
0.0
 40
0.0078740158945971
 50
270.0000013514260786
 51
353.9999994564881263
  0
ARC
  5
32AE2
  8
0
 10
6210.2851136299832433
 20
355.1026955501441194
 30
0.0
 40
0.0078009342257496
 50
185.514840599253489
 51
270.485159549842308
  0
LINE
  5
32AE3
  8
0
 10
6210.39108608099923
 20
355.1539500137333221
 30
0.0
 11
6210.3855818849478965
 21
355.1019458526222934
 31
0.0
  0
LINE
  5
32AE4
  8
0
 10
6210.2773488035445553
 20
355.1019458525154278
 30
0.0
 11
6210.2718829459709013
 21
355.1539500137333221
 31
0.0
  0
LINE
  5
32AE5
  8
0
 10
6210.3777510039299159
 20
355.0948948955831952
 30
0.0
 11
6210.2851796846298384
 21
355.0948948955831952
 31
0.0
  0
ARC
  5
32AE6
  8
0
 10
6210.2193246720944444
 20
355.1027689114778809
 30
0.0
 40
0.0078740158945971
 50
270.0000013514260786
 51
353.9999994564881263
  0
ARC
  5
32AE7
  8
0
 10
6210.1266872983342182
 20
355.1026955501441194
 30
0.0
 40
0.0078009342257496
 50
185.514840599253489
 51
270.485159549842308
  0
LINE
  5
32AE8
  8
0
 10
6210.2326597493502049
 20
355.1539500137333221
 30
0.0
 11
6210.2271555532970524
 21
355.1019458526222934
 31
0.0
  0
LINE
  5
32AE9
  8
0
 10
6210.1189224718946207
 20
355.1019458525154278
 30
0.0
 11
6210.1134566143227858
 21
355.1539500137333221
 31
0.0
  0
LINE
  5
32AEA
  8
0
 10
6210.2193246722799813
 20
355.0948948955831952
 30
0.0
 11
6210.1267533529799039
 21
355.0948948955831952
 31
0.0
  0
ARC
  5
32AEB
  8
0
 10
6210.0653134864442109
 20
355.1027689114778809
 30
0.0
 40
0.0078740158945971
 50
270.0000013514260786
 51
353.9999994564881263
  0
ARC
  5
32AEC
  8
0
 10
6209.9726761126830752
 20
355.1026955501441194
 30
0.0
 40
0.0078009342257496
 50
185.514840599253489
 51
270.485159549842308
  0
LINE
  5
32AED
  8
0
 10
6210.0786485636999714
 20
355.1539500137333221
 30
0.0
 11
6210.0731443676477284
 21
355.1019458526222934
 31
0.0
  0
LINE
  5
32AEE
  8
0
 10
6209.9649112862452967
 20
355.1019458525154278
 30
0.0
 11
6209.9626913876945764
 21
355.1230667764496047
 31
0.0
  0
LINE
  5
32AEF
  8
0
 10
6210.0653134866297478
 20
355.0948948955831952
 30
0.0
 11
6209.9727421673296703
 21
355.0948948955831952
 31
0.0
  0
ARC
  5
32AF0
  8
0
 10
6209.9526250371927745
 20
355.1027689114778809
 30
0.0
 40
0.0078740158945971
 50
270.0000013514260786
 51
353.9999994564881263
  0
ARC
  5
32AF1
  8
0
 10
6209.8599876634316388
 20
355.1026955501441194
 30
0.0
 40
0.0078009342257496
 50
185.514840599253489
 51
270.485159549842308
  0
LINE
  5
32AF2
  8
0
 10
6209.9659601144494445
 20
355.1539500137333221
 30
0.0
 11
6209.960455918398111
 21
355.1019458526222934
 31
0.0
  0
LINE
  5
32AF3
  8
0
 10
6209.8522228369956792
 20
355.1019458525154278
 30
0.0
 11
6209.8467569794220253
 21
355.1539500137333221
 31
0.0
  0
LINE
  5
32AF4
  8
0
 10
6209.9526250373810399
 20
355.0948948955831952
 30
0.0
 11
6209.8600537180800529
 21
355.0948948955831952
 31
0.0
  0
ARC
  5
32AF5
  8
0
 10
6209.7639950340435462
 20
355.1027689114778809
 30
0.0
 40
0.0078740158945971
 50
270.0000013514260786
 51
353.9999994564881263
  0
ARC
  5
32AF6
  8
0
 10
6209.67135766028332
 20
355.1026955501441194
 30
0.0
 40
0.0078009342257496
 50
185.514840599253489
 51
270.485159549842308
  0
LINE
  5
32AF7
  8
0
 10
6209.7773301112993067
 20
355.1539500137333221
 30
0.0
 11
6209.7718259152479732
 21
355.1019458526222934
 31
0.0
  0
LINE
  5
32AF8
  8
0
 10
6209.663592833844632
 20
355.1019458525154278
 30
0.0
 11
6209.6581269762718875
 21
355.1539500137333221
 31
0.0
  0
LINE
  5
32AF9
  8
0
 10
6209.7639950342290831
 20
355.0948948955831952
 30
0.0
 11
6209.6714237149290057
 21
355.0948948955831952
 31
0.0
  0
ARC
  5
32AFA
  8
0
 10
6209.5300738617434035
 20
355.1027689114778809
 30
0.0
 40
0.0078740158945971
 50
270.0000013514260786
 51
353.9999994564881263
  0
ARC
  5
32AFB
  8
0
 10
6209.4374364879813584
 20
355.1026955501441194
 30
0.0
 40
0.0078009342257496
 50
254.0701812159838084
 51
270.485159549842308
  0
LINE
  5
32AFC
  8
0
 10
6209.5434089390000736
 20
355.1539500137333221
 30
0.0
 11
6209.5379047429478305
 21
355.1019458526222934
 31
0.0
  0
LINE
  5
32AFD
  8
0
 10
6209.53007386192985
 20
355.0948948955831952
 30
0.0
 11
6209.4375025426297725
 21
355.0948948955831952
 31
0.0
  0
ARC
  5
32AFE
  8
0
 10
6209.4331451876632855
 20
355.1027689114778809
 30
0.0
 40
0.0078740158945971
 50
270.0000013514260786
 51
353.9999994564881263
  0
LINE
  5
32AFF
  8
0
 10
6209.4464802649199555
 20
355.1539500137333221
 30
0.0
 11
6209.4409760688677125
 21
355.1019458526222934
 31
0.0
  0
LINE
  5
32B00
  8
0
 10
6209.4331451878488224
 20
355.0948948955831952
 30
0.0
 11
6209.3405738685496544
 21
355.0948948955831952
 31
0.0
  0
ARC
  5
32B01
  8
0
 10
6209.4285408635450949
 20
355.1027689114778809
 30
0.0
 40
0.0078740158945971
 50
270.0000013514260786
 51
353.9999994564881263
  0
ARC
  5
32B02
  8
0
 10
6209.3359034897830497
 20
355.1026955501441194
 30
0.0
 40
0.0078009342257496
 50
185.514840599253489
 51
270.485159549842308
  0
LINE
  5
32B03
  8
0
 10
6209.441875940799946
 20
355.1539500137333221
 30
0.0
 11
6209.4363717447477029
 21
355.1019458526222934
 31
0.0
  0
LINE
  5
32B04
  8
0
 10
6209.3281386633461807
 20
355.1019458525154278
 30
0.0
 11
6209.3226728057716173
 21
355.1539500137333221
 31
0.0
  0
LINE
  5
32B05
  8
0
 10
6209.4285408637288128
 20
355.0948948955831952
 30
0.0
 11
6209.3359695444287354
 21
355.0948948955831952
 31
0.0
  0
ARC
  5
32B06
  8
0
 10
6209.3286185189454045
 20
355.1027689114778809
 30
0.0
 40
0.0078740158945971
 50
270.0000013514260786
 51
297.7473044049103237
  0
ARC
  5
32B07
  8
0
 10
6209.2359811451842688
 20
355.1026955501441194
 30
0.0
 40
0.0078009342257496
 50
185.514840599253489
 51
270.485159549842308
  0
LINE
  5
32B08
  8
0
 10
6209.2282163187446713
 20
355.1019458525154278
 30
0.0
 11
6209.2227504611719269
 21
355.1539500137333221
 31
0.0
  0
LINE
  5
32B09
  8
0
 10
6209.3286185191300319
 20
355.0948948955831952
 30
0.0
 11
6209.2360471998299545
 21
355.0948948955831952
 31
0.0
  0
ARC
  5
32B0A
  8
0
 10
6209.1502932819939815
 20
355.1027689114778809
 30
0.0
 40
0.0078740158945971
 50
270.0000013514260786
 51
353.9999994564881263
  0
ARC
  5
32B0B
  8
0
 10
6209.0576559082328458
 20
355.1026955501441194
 30
0.0
 40
0.0078009342257496
 50
185.514840599253489
 51
270.485159549842308
  0
LINE
  5
32B0C
  8
0
 10
6209.1636283592497421
 20
355.1539500137333221
 30
0.0
 11
6209.1581241631984085
 21
355.1019458526222934
 31
0.0
  0
LINE
  5
32B0D
  8
0
 10
6209.0498910817950673
 20
355.1019458525154278
 30
0.0
 11
6209.0444252242223229
 21
355.1539500137333221
 31
0.0
  0
LINE
  5
32B0E
  8
0
 10
6209.1502932821804279
 20
355.0948948955831952
 30
0.0
 11
6209.05772196288126
 21
355.0948948955831952
 31
0.0
  0
ARC
  5
32B0F
  8
0
 10
6208.5365574538427609
 20
355.1027689114778809
 30
0.0
 40
0.0078740158945971
 50
270.0000013514260786
 51
353.9999994564881263
  0
ARC
  5
32B10
  8
0
 10
6208.4439200800816252
 20
355.1026955501441194
 30
0.0
 40
0.0078009342257496
 50
185.514840599253489
 51
270.485159549842308
  0
LINE
  5
32B11
  8
0
 10
6208.5498925310994309
 20
355.1539500137333221
 30
0.0
 11
6208.5443883350490069
 21
355.1019458526222934
 31
0.0
  0
LINE
  5
32B12
  8
0
 10
6208.4361552536456657
 20
355.1019458525154278
 30
0.0
 11
6208.4306893960720117
 21
355.1539500137333221
 31
0.0
  0
LINE
  5
32B13
  8
0
 10
6208.5365574540301168
 20
355.0948948955831952
 30
0.0
 11
6208.4439861347300393
 21
355.0948948955831952
 31
0.0
  0
ARC
  5
32B14
  8
0
 10
6207.9228557017941057
 20
355.1027689114778809
 30
0.0
 40
0.0078740158945971
 50
270.0000013514260786
 51
353.9999994564881263
  0
ARC
  5
32B15
  8
0
 10
6207.83021832803297
 20
355.1026955501441194
 30
0.0
 40
0.0078009342257496
 50
185.514840599253489
 51
270.485159549842308
  0
LINE
  5
32B16
  8
0
 10
6207.9361907790498663
 20
355.1539500137333221
 30
0.0
 11
6207.9306865829967137
 21
355.1019458526222934
 31
0.0
  0
LINE
  5
32B17
  8
0
 10
6207.822453501596101
 20
355.1019458525154278
 30
0.0
 11
6207.8169876440206281
 21
355.1539500137333221
 31
0.0
  0
LINE
  5
32B18
  8
0
 10
6207.9228557019796426
 20
355.0948948955831952
 30
0.0
 11
6207.8302843826795652
 21
355.0948948955831952
 31
0.0
  0
ARC
  5
32B19
  8
0
 10
6207.4337747746440073
 20
355.1027689114778809
 30
0.0
 40
0.0078740158945971
 50
270.0000013514260786
 51
353.9999994564881263
  0
ARC
  5
32B1A
  8
0
 10
6207.3411374008828716
 20
355.1026955501441194
 30
0.0
 40
0.0078009342257496
 50
185.514840599253489
 51
270.485159549842308
  0
LINE
  5
32B1B
  8
0
 10
6207.4471098518997678
 20
355.1539500137333221
 30
0.0
 11
6207.4416056558484343
 21
355.1019458526222934
 31
0.0
  0
LINE
  5
32B1C
  8
0
 10
6207.3333725744460025
 20
355.1019458525154278
 30
0.0
 11
6207.3279067168714391
 21
355.1539500137333221
 31
0.0
  0
LINE
  5
32B1D
  8
0
 10
6207.4337747748304537
 20
355.0948948955831952
 30
0.0
 11
6207.3412034555303762
 21
355.0948948955831952
 31
0.0
  0
ARC
  5
32B1E
  8
0
 10
6207.2164995477833145
 20
355.1026955501441194
 30
0.0
 40
0.0078009342257496
 50
185.514840599253489
 51
270.485159549842308
  0
LINE
  5
32B1F
  8
0
 10
6207.208734721343717
 20
355.1019458525154278
 30
0.0
 11
6207.2032688637709725
 21
355.1539500137333221
 31
0.0
  0
LINE
  5
32B20
  8
0
 10
6207.3113670121838368
 20
355.0948948955831952
 30
0.0
 11
6207.2165656024299096
 21
355.0948948955831952
 31
0.0
  0
ARC
  5
32B21
  8
0
 10
6208.8213932751941684
 20
355.1027689115778117
 30
0.0
 40
0.0078740158945971
 50
270.0000013514260786
 51
353.9999994564881263
  0
ARC
  5
32B22
  8
0
 10
6208.7287559014321232
 20
355.1026955502441069
 30
0.0
 40
0.0078009342257496
 50
185.514840599253489
 51
270.485159549842308
  0
LINE
  5
32B23
  8
0
 10
6208.834728352439015
 20
355.1539500137333221
 30
0.0
 11
6208.8292241563976859
 21
355.101945852722281
 31
0.0
  0
LINE
  5
32B24
  8
0
 10
6208.7209910749952542
 20
355.1019458526154722
 30
0.0
 11
6208.7155252174316047
 21
355.1539500137333221
 31
0.0
  0
LINE
  5
32B25
  8
0
 10
6208.8213932753787958
 20
355.0948948956831828
 30
0.0
 11
6208.7288219560787184
 21
355.0948948956831828
 31
0.0
  0
ARC
  5
32B26
  8
0
 10
6208.6857203175322866
 20
355.1026955502441069
 30
0.0
 40
0.0078009342257496
 50
185.514840599253489
 51
270.485159549842308
  0
LINE
  5
32B27
  8
0
 10
6208.6779554910935985
 20
355.1019458526154722
 30
0.0
 11
6208.672489633531768
 21
355.1539500137333221
 31
0.0
  0
LINE
  5
32B28
  8
0
 10
6208.7783576914798687
 20
355.0948948956831828
 30
0.0
 11
6208.6857863721788817
 21
355.0948948956831828
 31
0.0
  0
ARC
  5
32B29
  8
0
 10
6208.6071688245328914
 20
355.1026955502441069
 30
0.0
 40
0.0078009342257496
 50
185.514840599253489
 51
270.485159549842308
  0
LINE
  5
32B2A
  8
0
 10
6208.5994039980951129
 20
355.1019458526154722
 30
0.0
 11
6208.5939381405323729
 21
355.1539500137333221
 31
0.0
  0
LINE
  5
32B2B
  8
0
 10
6208.6998061984786546
 20
355.0948948956831828
 30
0.0
 11
6208.6072348791785771
 21
355.0948948956831828
 31
0.0
  0
ARC
  5
32B2C
  8
0
 10
6208.1496679003939789
 20
355.1027689115778117
 30
0.0
 40
0.0078740158945971
 50
270.0000013514260786
 51
353.9999994564881263
  0
ARC
  5
32B2D
  8
0
 10
6208.0570305266319338
 20
355.1026955502441069
 30
0.0
 40
0.0078009342257496
 50
185.514840599253489
 51
270.485159549842308
  0
LINE
  5
32B2E
  8
0
 10
6208.1630029776388255
 20
355.1539500137333221
 30
0.0
 11
6208.1574987815984059
 21
355.101945852722281
 31
0.0
  0
LINE
  5
32B2F
  8
0
 10
6208.0492657001950647
 20
355.1019458526154722
 30
0.0
 11
6208.0437998426323247
 21
355.1539500137333221
 31
0.0
  0
LINE
  5
32B30
  8
0
 10
6208.1496679005786063
 20
355.0948948956831828
 30
0.0
 11
6208.0570965812803479
 21
355.0948948956831828
 31
0.0
  0
ARC
  5
32B31
  8
0
 10
6208.0442127712312868
 20
355.1026955501441194
 30
0.0
 40
0.0078009342257496
 50
185.514840599253489
 51
270.485159549842308
  0
LINE
  5
32B32
  8
0
 10
6208.0364479447953272
 20
355.1019458525154278
 30
0.0
 11
6208.0309820872216733
 21
355.1539500137333221
 31
0.0
  0
LINE
  5
32B33
  8
0
 10
6208.1368501451797783
 20
355.0948948955831952
 30
0.0
 11
6208.0442788258797009
 21
355.0948948955831952
 31
0.0
  0
ARC
  5
32B34
  8
0
 10
6208.0200944841308228
 20
355.1026955501441194
 30
0.0
 40
0.0078009342257496
 50
185.514840599253489
 51
270.485159549842308
  0
LINE
  5
32B35
  8
0
 10
6208.0123296576948633
 20
355.1019458525154278
 30
0.0
 11
6208.0068638001221188
 21
355.1539500137333221
 31
0.0
  0
LINE
  5
32B36
  8
0
 10
6208.1127318580802239
 20
355.0948948955831952
 30
0.0
 11
6208.020160538779237
 21
355.0948948955831952
 31
0.0
  0
ARC
  5
32B37
  8
0
 10
6207.969580923331705
 20
355.1026955501441194
 30
0.0
 40
0.0078009342257496
 50
185.514840599253489
 51
270.485159549842308
  0
LINE
  5
32B38
  8
0
 10
6207.9618160968948359
 20
355.1019458525154278
 30
0.0
 11
6207.9563502393220915
 21
355.1539500137333221
 31
0.0
  0
LINE
  5
32B39
  8
0
 10
6208.0622182972792871
 20
355.0948948955831952
 30
0.0
 11
6207.9696469779801191
 21
355.0948948955831952
 31
0.0
  0
ARC
  5
32B3A
  8
0
 10
6207.3397116351316072
 20
355.1026955502441069
 30
0.0
 40
0.0078009342257496
 50
185.514840599253489
 51
270.485159549842308
  0
LINE
  5
32B3B
  8
0
 10
6207.3319468086947381
 20
355.1019458526154722
 30
0.0
 11
6207.3264809511310887
 21
355.1539500137333221
 31
0.0
  0
LINE
  5
32B3C
  8
0
 10
6207.4323490090791893
 20
355.0948948956831828
 30
0.0
 11
6207.3397776897800213
 21
355.0948948956831828
 31
0.0
  0
ARC
  5
32B3D
  8
0
 10
6207.336431934832035
 20
355.1026955502441069
 30
0.0
 40
0.0078009342257496
 50
185.514840599253489
 51
270.485159549842308
  0
LINE
  5
32B3E
  8
0
 10
6207.328667108395166
 20
355.1019458526154722
 30
0.0
 11
6207.323201250830607
 21
355.1539500137333221
 31
0.0
  0
LINE
  5
32B3F
  8
0
 10
6207.4290693087787076
 20
355.0948948956831828
 30
0.0
 11
6207.3364979894804492
 21
355.0948948956831828
 31
0.0
  0
ARC
  5
32B40
  8
0
 10
6207.3296799469317193
 20
355.1026955501441194
 30
0.0
 40
0.0078009342257496
 50
185.514840599253489
 51
270.485159549842308
  0
LINE
  5
32B41
  8
0
 10
6207.3219151204948503
 20
355.1019458525154278
 30
0.0
 11
6207.3164492629221058
 21
355.1539500137333221
 31
0.0
  0
LINE
  5
32B42
  8
0
 10
6207.4223173208802109
 20
355.0948948955831952
 30
0.0
 11
6207.3297460015801335
 21
355.0948948955831952
 31
0.0
  0
ARC
  5
32B43
  8
0
 10
6207.3114330668331604
 20
355.1026955501441194
 30
0.0
 40
0.0078009342257496
 50
185.514840599253489
 51
270.485159549842308
  0
LINE
  5
32B44
  8
0
 10
6207.3036682403953819
 20
355.1019458525154278
 30
0.0
 11
6207.2982023828226374
 21
355.1539500137333221
 31
0.0
  0
LINE
  5
32B45
  8
0
 10
6207.404070440779833
 20
355.0948948955831952
 30
0.0
 11
6207.3114991214797556
 21
355.0948948955831952
 31
0.0
  0
LINE
  5
32B46
  8
0
 10
6207.0428433203796885
 20
360.5783279664831866
 30
0.0
 11
6207.0428433203796885
 21
357.674789624757409
 31
0.0
  0
LINE
  5
32B47
  8
0
 10
6207.0428433203796885
 20
356.8853127097777929
 30
0.0
 11
6207.0428433203796885
 21
356.6881880286023261
 31
0.0
  0
LINE
  5
32B48
  8
0
 10
6206.2554943543800618
 20
357.822422454683192
 30
0.0
 11
6207.0427907115799826
 21
357.822422454683192
 31
0.0
  0
LINE
  5
32B49
  8
0
 10
6206.2849693045791355
 20
357.7043122279832232
 30
0.0
 11
6207.013315761279955
 21
357.7043122279832232
 31
0.0
  0
LINE
  5
32B4A
  8
0
 10
6206.2554417455794464
 20
355.1539500137333221
 30
0.0
 11
6206.2554417455794464
 21
344.6334460766831853
 31
0.0
  0
LINE
  5
32B4B
  8
0
 10
6207.0428433203796885
 20
344.6334460766831853
 30
0.0
 11
6207.0428433202732776
 21
355.1539500137333221
 31
0.0
  0
ARC
  5
32B4C
  8
0
 10
6206.0192212731999462
 20
344.062579934940004
 30
0.0
 40
0.0196850394201924
 50
89.9980135568420962
 51
179.9999999756481941
  0
ARC
  5
32B4D
  8
0
 10
6207.2790637927801072
 20
344.0625799349483032
 30
0.0
 40
0.0196850394000041
 50
0.0000000000097707
 51
90.0
  0
LINE
  5
32B4E
  8
0
 10
6206.0389063124803215
 20
344.6134460766832035
 30
0.0
 11
6206.0389063124803215
 21
344.1810051317484067
 31
0.0
  0
LINE
  5
32B4F
  8
0
 10
6207.2593787534797229
 20
344.6134460766832035
 30
0.0
 11
6207.2593787534797229
 21
344.1810051317484067
 31
0.0
  0
LINE
  5
32B50
  8
0
 10
6207.2790637927801072
 20
344.0822649743485044
 30
0.0
 11
6206.0192219556802229
 21
344.0822649743485044
 31
0.0
  0
LINE
  5
32B51
  8
0
 10
6205.9995362337785991
 20
342.8621074940484164
 30
0.0
 11
6205.9995362337785991
 21
344.062579934940004
 31
0.0
  0
LINE
  5
32B52
  8
0
 10
6207.2987488321796263
 20
344.0625799349483032
 30
0.0
 11
6207.2987488321796263
 21
342.9619292019659724
 31
0.0
  0
LINE
  5
32B53
  8
0
 10
6206.1570165486791666
 20
342.8421074940483777
 30
0.0
 11
6206.1570165486791666
 21
335.2876364285111208
 31
0.0
  0
LINE
  5
32B54
  8
0
 10
6207.1412685171799239
 20
335.2876327074098981
 30
0.0
 11
6207.1412685171799239
 21
339.3307748687809067
 31
0.0
  0
LINE
  5
32B55
  8
0
 10
6206.1570165486791666
 20
333.617321673033473
 30
0.0
 11
6206.1570165486791666
 21
313.2620830845555133
 31
0.0
  0
ARC
  5
32B56
  8
0
 10
6208.61015537840467
 20
312.5115009338338155
 30
0.0
 40
2.561406549423312
 50
180.0028633635307074
 51
186.2674763409588081
  0
ARC
  5
32B57
  8
0
 10
6206.3681731624210443
 20
312.2316177809020132
 30
0.0
 40
0.3041151315843482
 50
179.952107574702211
 51
222.5896093357619066
  0
ARC
  5
32B58
  8
0
 10
6206.2336153664737139
 20
312.0966596495177896
 30
0.0
 40
0.11402145421507
 50
218.4162366393539116
 51
253.023600001706086
  0
ARC
  5
32B59
  8
0
 10
6206.4542388168420075
 20
313.0755893769728004
 30
0.0
 40
1.1172194472193231
 50
256.8633532284115972
 51
268.8441586345318228
  0
ARC
  5
32B5A
  8
0
 10
6206.6674384454308893
 20
314.6411151718560859
 30
0.0
 40
2.692856078438008
 50
264.9778263312492754
 51
269.6107156860553005
  0
LINE
  5
32B5B
  8
0
 10
6206.0487488319777185
 20
312.5113729272309229
 30
0.0
 11
6206.0487488298786047
 21
313.0846418717171105
 31
0.0
  0
LINE
  5
32B5C
  8
0
 10
6206.1727645801802282
 20
311.562579934983205
 30
0.0
 11
6206.1766705697800717
 21
311.5635225862832272
 31
0.0
  0
LINE
  5
32B5D
  8
0
 10
6206.1766705697800717
 20
311.9978761379845196
 30
0.0
 11
6206.1766705697800717
 21
311.4838707464800223
 31
0.0
  0
LINE
  5
32B5E
  8
0
 10
6207.1412685172799684
 20
333.6172290424980815
 30
0.0
 11
6207.1412685172799684
 21
313.2620830845784781
 31
0.0
  0
ARC
  5
32B5F
  8
0
 10
6207.265968517280271
 20
313.2620830845784781
 30
0.0
 40
0.1247
 50
180.0
 51
270.0000000010422241
  0
ARC
  5
32B60
  8
0
 10
6206.9301119035380907
 20
312.2316177809020132
 30
0.0
 40
0.3041151315843482
 50
317.4103906642379798
 51
0.0478924252978421
  0
ARC
  5
32B61
  8
0
 10
6207.06466969948724
 20
312.0966596495177896
 30
0.0
 40
0.11402145421507
 50
286.976399998293914
 51
321.5837633606383861
  0
ARC
  5
32B62
  8
0
 10
6206.8440462491189464
 20
313.0755893769728004
 30
0.0
 40
1.1172194472193231
 50
271.1558413654681772
 51
283.1366467715874933
  0
ARC
  5
32B63
  8
0
 10
6206.6308466205300647
 20
314.6411151718560859
 30
0.0
 40
2.692856078438008
 50
270.3892843138925741
 51
275.0221736686988265
  0
LINE
  5
32B64
  8
0
 10
6207.1255204857798162
 20
311.562579934983205
 30
0.0
 11
6207.121584250478918
 21
311.5635491833830883
 31
0.0
  0
LINE
  5
32B65
  8
0
 10
6207.1215869351908623
 20
311.9978602552840812
 30
0.0
 11
6207.1215835428365608
 21
311.4838397931404756
 31
0.0
  0
LINE
  5
32B66
  8
0
 10
6206.1963865801799329
 20
311.4641547380830957
 30
0.0
 11
6207.1018984856800671
 21
311.4641547380830957
 31
0.0
  0
LINE
  5
32B67
  8
0
 10
6212.1317808725498253
 20
312.5398876976315137
 30
0.0
 11
6210.7131654821796474
 21
312.5349326731832207
 31
0.0
  0
LINE
  5
32B68
  8
0
 10
6210.7131654821796474
 20
312.5349326731832207
 30
0.0
 11
6210.7131653520800683
 21
312.1650344698965114
 31
0.0
  0
LINE
  5
32B69
  8
0
 10
6210.7131653520800683
 20
312.1650344698965114
 30
0.0
 11
6212.1317809020802088
 21
312.1600751988526099
 31
0.0
  0
LINE
  5
32B6A
  8
0
 10
6210.7131653520800683
 20
312.5349326727287007
 30
0.0
 11
6210.8251055240971255
 21
312.3494932768047079
 31
0.0
  0
LINE
  5
32B6B
  8
0
 10
6210.8251055240971255
 20
312.3494932768047079
 30
0.0
 11
6210.7131744275247911
 21
312.1650344381702098
 31
0.0
  0
LINE
  5
32B6C
  8
0
 10
6201.1665041638798357
 20
312.5398876978080125
 30
0.0
 11
6202.5851195841787558
 21
312.5349326705832027
 31
0.0
  0
LINE
  5
32B6D
  8
0
 10
6202.5851195841787558
 20
312.5349326705832027
 30
0.0
 11
6202.5851195837803971
 21
312.1650303463832188
 31
0.0
  0
LINE
  5
32B6E
  8
0
 10
6202.5851195837803971
 20
312.1650303463832188
 30
0.0
 11
6201.1665041934093097
 21
312.1600753166907793
 31
0.0
  0
LINE
  5
32B6F
  8
0
 10
6202.5851191712081345
 20
312.5349326720256045
 30
0.0
 11
6202.4732081518277482
 21
312.3505026438771779
 31
0.0
  0
LINE
  5
32B70
  8
0
 10
6202.4732081518277482
 20
312.3505026438771779
 30
0.0
 11
6202.5851184966368237
 21
312.1650303425859079
 31
0.0
  0
LINE
  5
32B71
  8
0
 10
6206.097961430579744
 20
344.1610051317484249
 30
0.0
 11
6206.097961430579744
 21
344.0822649743485044
 31
0.0
  0
LINE
  5
32B72
  8
0
 10
6207.2003236353803004
 20
344.1610051317484249
 30
0.0
 11
6207.2003236353803004
 21
344.0822649743485044
 31
0.0
  0
LINE
  5
32B73
  8
0
 10
6203.0585913518789312
 20
313.038957887683182
 30
0.0
 11
6203.1058213670803525
 21
313.038957887683182
 31
0.0
  0
LINE
  5
32B74
  8
0
 10
6210.1924636988796919
 20
313.038957887683182
 30
0.0
 11
6210.2396796347802592
 21
313.038957887683182
 31
0.0
  0
LINE
  5
32B75
  8
0
 10
6203.0585913518789312
 20
311.6610051317832131
 30
0.0
 11
6203.1058213670803525
 21
311.6610051317832131
 31
0.0
  0
LINE
  5
32B76
  8
0
 10
6210.1924636988796919
 20
311.6610051317832131
 30
0.0
 11
6210.2396796347802592
 21
311.6610051317832131
 31
0.0
  0
LINE
  5
32B77
  8
0
 10
6206.3735519817801105
 20
314.0120720685832225
 30
0.0
 11
6206.3735519817801105
 21
313.4444586750832968
 31
0.0
  0
LINE
  5
32B78
  8
0
 10
6206.9129330841788033
 20
313.4326586750831893
 30
0.0
 11
6206.3853519817803317
 21
313.4326586750831893
 31
0.0
  0
LINE
  5
32B79
  8
0
 10
6206.9247330841790244
 20
314.0120720685832225
 30
0.0
 11
6206.9247330841790244
 21
313.4444586750832968
 31
0.0
  0
LINE
  5
32B7A
  8
0
 10
6206.3853519817803317
 20
314.0238720685832163
 30
0.0
 11
6206.9129330841788033
 21
314.0238720685832163
 31
0.0
  0
ARC
  5
32B7B
  8
0
 10
6206.3853519817803317
 20
314.0120720685832225
 30
0.0
 40
0.0118
 50
90.0
 51
180.0000000000065086
  0
ARC
  5
32B7C
  8
0
 10
6206.9129330841788033
 20
314.0120720685832225
 30
0.0
 40
0.0118
 50
0.0
 51
90.0
  0
ARC
  5
32B7D
  8
0
 10
6206.9129330841788033
 20
313.4444586750832968
 30
0.0
 40
0.0118
 50
270.0
 51
0.0000000000130276
  0
ARC
  5
32B7E
  8
0
 10
6206.3853519817803317
 20
313.4444586750832968
 30
0.0
 40
0.0118
 50
179.9999999999901945
 51
270.0
  0
LINE
  5
32B7F
  8
0
 10
6206.8459929266800827
 20
313.2161232420831993
 30
0.0
 11
6206.8459929266800827
 21
313.4129586750831891
 31
0.0
  0
LINE
  5
32B80
  8
0
 10
6206.4522921392790522
 20
313.2161232420831993
 30
0.0
 11
6206.4522921392790522
 21
313.4129586750831891
 31
0.0
  0
LINE
  5
32B81
  8
0
 10
6206.4522921392790522
 20
313.2161232420831993
 30
0.0
 11
6206.8459929266800827
 21
313.2161232420831993
 31
0.0
  0
LINE
  5
32B82
  8
0
 10
6206.5704023754788068
 20
313.2161232420831993
 30
0.0
 11
6206.5704023754788068
 21
313.1373830845654993
 31
0.0
  0
LINE
  5
32B83
  8
0
 10
6206.7278826904794187
 20
313.2161232420831993
 30
0.0
 11
6206.7278826904794187
 21
313.137383084568512
 31
0.0
  0
ARC
  5
32B84
  8
0
 10
6206.8656929266799125
 20
313.4129586750831891
 30
0.0
 40
0.0197
 50
90.0
 51
179.9999999999967031
  0
ARC
  5
32B85
  8
0
 10
6206.432592139280132
 20
313.4129586750831891
 30
0.0
 40
0.0197
 50
0.0
 51
90.0
  0
ARC
  5
32B86
  8
0
 10
6206.649142532978658
 20
310.9087113343035753
 30
0.0
 40
3.1263096224302189
 50
85.1597637093370992
 51
94.8402362906629151
  0
LINE
  5
32B87
  8
0
 10
6206.2160716668304303
 20
311.7616572559331871
 30
0.0
 11
6206.2160716668304303
 21
311.968974418133314
 31
0.0
  0
ARC
  5
32B88
  8
0
 10
6206.6480882484484027
 20
309.892929196124328
 30
0.0
 40
2.0120733843474889
 50
89.9699782053587427
 51
94.0116808243743662
  0
ARC
  5
32B89
  8
0
 10
6206.5908058355462344
 20
310.7097128814086773
 30
0.0
 40
1.1932835069217591
 50
94.0116808059864866
 51
108.2528672651077954
  0
ARC
  5
32B8A
  8
0
 10
6206.5633921907601689
 20
310.9672881160075235
 30
0.0
 40
0.8895152744923898
 50
96.2710427190636864
 51
101.9737892759115994
  0
ARC
  5
32B8B
  8
0
 10
6206.4789628047929
 20
311.3532264436767036
 30
0.0
 40
0.4944643242975542
 50
101.6813167765845947
 51
110.572210621551605
  0
ARC
  5
32B8C
  8
0
 10
6206.278121670922701
 20
311.7730568232408928
 30
0.0
 40
0.022677004993847
 50
138.1018388633023903
 51
221.898161132878414
  0
ARC
  5
32B8D
  8
0
 10
6206.6123608616007914
 20
312.7947305821444957
 30
0.0
 40
1.1016872684757979
 50
259.859152836196472
 51
265.4747450454057116
  0
ARC
  5
32B8E
  8
0
 10
6206.503826890196251
 20
312.1888397317339923
 30
0.0
 40
0.4861523080876221
 50
248.2590775675870134
 51
259.8780238296803873
  0
ARC
  5
32B8F
  8
0
 10
6206.3819700471776741
 20
311.8626898827853893
 30
0.0
 40
0.1382751775525611
 50
223.1520293084145976
 51
245.0999237563680992
  0
ARC
  5
32B90
  8
0
 10
6206.3271224736126896
 20
311.8075162620922924
 30
0.0
 40
0.0605882916505598
 50
191.8705394978067034
 51
220.560813327212287
  0
ARC
  5
32B91
  8
0
 10
6206.6501968174106878
 20
309.892929196124328
 30
0.0
 40
2.0120733843474889
 50
85.988319175625648
 51
90.0300217946412715
  0
ARC
  5
32B92
  8
0
 10
6206.7074792303155846
 20
310.7097128814086773
 30
0.0
 40
1.1932835069217591
 50
71.7471327348921335
 51
85.9883191940135134
  0
ARC
  5
32B93
  8
0
 10
6206.6491425329286358
 20
343.4621862341484757
 30
0.0
 40
1.2401574802999831
 50
347.1939612867050755
 51
60.5237006111096392
  0
ARC
  5
32B94
  8
0
 10
6206.6491425329286358
 20
343.4621862341484757
 30
0.0
 40
1.2401574802999831
 50
70.8118635503932268
 51
71.4905950158861998
  0
ARC
  5
32B95
  8
0
 10
6206.6491425329286358
 20
343.4621862341484757
 30
0.0
 40
1.2401574802999831
 50
108.5094049792268009
 51
109.1881364496068016
  0
ARC
  5
32B96
  8
0
 10
6206.6491425329286358
 20
343.4621862341484757
 30
0.0
 40
1.2401574802999831
 50
119.476299383567607
 51
246.6201318840793988
  0
ARC
  5
32B97
  8
0
 10
6208.6347972575049425
 20
335.3878696091460938
 30
0.0
 40
0.5204311453120908
 50
272.6577316107615161
 51
306.1175230700895895
  0
ARC
  5
32B98
  8
0
 10
6208.6673750906384157
 20
335.3440106391881841
 30
0.0
 40
0.4760872941757224
 50
240.761201540928198
 51
268.983532230505773
  0
ARC
  5
32B99
  8
0
 10
6208.7563154251120068
 20
335.5128389848641746
 30
0.0
 40
0.6668661198340199
 50
223.8391172787108871
 51
241.1784000716515948
  0
LINE
  5
32B9A
  8
0
 10
6209.1137262412412383
 20
334.9404049565241053
 30
0.0
 11
6208.9415619829123898
 21
334.967460308277623
 31
0.0
  0
LINE
  5
32B9B
  8
0
 10
6206.9676906731256167
 20
310.2757100844831939
 30
0.0
 11
6206.3305943927352928
 21
310.2757100844831939
 31
0.0
  0
LINE
  5
32B9C
  8
0
 10
6207.0463061105383531
 20
310.3507627566377209
 30
0.0
 11
6207.0970051001204411
 21
311.4435417475044119
 31
0.0
  0
LINE
  5
32B9D
  8
0
 10
6206.2519789553216469
 20
310.3507627566377209
 30
0.0
 11
6206.2012799657386495
 21
311.4435417475044119
 31
0.0
  0
ARC
  5
32B9E
  8
0
 10
6206.9676906731256167
 20
310.3544100844832201
 30
0.0
 40
0.0787
 50
270.0
 51
357.3436928570591249
  0
ARC
  5
32B9F
  8
0
 10
6206.3305943927352928
 20
310.3544100844832201
 30
0.0
 40
0.0787
 50
182.656307142934395
 51
270.0
  0
ARC
  5
32BA0
  8
0
 10
6207.0773262676302693
 20
311.4444547380830954
 30
0.0
 40
0.0197
 50
357.3436928570624218
 51
90.0
  0
ARC
  5
32BA1
  8
0
 10
6206.2209587982297307
 20
311.4444547380830954
 30
0.0
 40
0.0197
 50
90.0
 51
182.656307142934395
  0
LINE
  5
32BA2
  8
0
 10
6207.1215835428365608
 20
311.4838397931404756
 30
0.0
 11
6207.1018984856800671
 21
311.4641547380830957
 31
0.0
  0
LINE
  5
32BA3
  8
0
 10
6206.1766705697800717
 20
311.4838707464800223
 30
0.0
 11
6206.1963865801799329
 21
311.4641547380830957
 31
0.0
  0
LINE
  5
32BA4
  8
0
 10
6206.1766705697800717
 20
311.4838707464800223
 30
0.0
 11
6207.1215835430011794
 21
311.4838645103856152
 31
0.0
  0
ARC
  5
32BA5
  8
0
 10
6216.0008532383226338
 20
340.8380579042390082
 30
0.0
 40
9.8249945355546888
 50
176.9970204609520863
 51
178.9614780412140931
  0
ARC
  5
32BA6
  8
0
 10
6207.8660133325356583
 20
341.2604518269649816
 30
0.0
 40
1.6792026132711639
 50
168.3368796682198933
 51
176.8484861023534904
  0
ARC
  5
32BA7
  8
0
 10
6208.0184584332946542
 20
341.223195552779714
 30
0.0
 40
1.836040568296482
 50
142.1320791618078943
 51
168.1599650535341084
  0
ARC
  5
32BA8
  8
0
 10
6208.3504794776408744
 20
340.962668681947207
 30
0.0
 40
2.2580706815589031
 50
121.3309721802565946
 51
142.0849275050003939
  0
ARC
  5
32BA9
  8
0
 10
6208.5716009748530269
 20
340.6089974422257001
 30
0.0
 40
2.675152414929014
 50
109.1951452673986012
 51
121.4375211192417936
  0
ARC
  5
32BAA
  8
0
 10
6207.8648333009632552
 20
340.9639156134542759
 30
0.0
 40
1.688168449510151
 50
163.1763979251848866
 51
196.8236020748149997
  0
ARC
  5
32BAB
  8
0
 10
6208.5878717689247424
 20
340.2541351889091175
 30
0.0
 40
2.7352916113347439
 50
106.5957643899675986
 51
118.1807502914105044
  0
ARC
  5
32BAC
  8
0
 10
6208.3500429334708315
 20
340.6566634842178019
 30
0.0
 40
2.2682465528769642
 50
117.6871329947127975
 51
144.4611038473589133
  0
ARC
  5
32BAD
  8
0
 10
6208.0145461161300773
 20
340.9132854309901859
 30
0.0
 40
1.846134441073771
 50
144.8896877466688977
 51
163.0171100241065858
  0
ARC
  5
32BAE
  8
0
 10
6208.0207620571236475
 20
341.010265773280878
 30
0.0
 40
1.8508386147606459
 50
196.7999677105752028
 51
209.1302599271600968
  0
ARC
  5
32BAF
  8
0
 10
6208.2319895670198093
 20
341.1476332400504816
 30
0.0
 40
2.1022892053746252
 50
209.5981536714481877
 51
230.5084862939941956
  0
ARC
  5
32BB0
  8
0
 10
6218.6909335157952228
 20
354.2669374117760981
 30
0.0
 40
18.8801737423761189
 50
231.3340782659932131
 51
232.075186440362387
  0
ARC
  5
32BB1
  8
0
 10
6194.4143096329062246
 20
323.280650695705674
 30
0.0
 40
20.483700066471151
 50
49.8647324705995416
 51
51.7819534352871713
  0
ARC
  5
32BB2
  8
0
 10
6206.3131660762001047
 20
337.3368150568505257
 30
0.0
 40
2.0677998301879801
 50
45.2187982340699719
 51
50.8746657443387491
  0
ARC
  5
32BB3
  8
0
 10
6207.0573558851692724
 20
338.1086380507517219
 30
0.0
 40
0.9958698854700745
 50
13.3355995348956302
 51
44.3301106060296632
  0
ARC
  5
32BB4
  8
0
 10
6207.1328604855016238
 20
338.1328694694176988
 30
0.0
 40
0.9168328392515942
 50
1.5096797587731869
 51
12.9504780772836305
  0
LINE
  5
32BB5
  8
0
 10
6208.049375081330254
 20
338.1570241949331717
 30
0.0
 11
6208.125172570428731
 21
335.0915582785332276
 31
0.0
  0
ARC
  5
32BB6
  8
0
 10
6208.1421325061573953
 20
335.0919776342130945
 30
0.0
 40
0.016965119482034
 50
181.4164213877365057
 51
224.0170988017061973
  0
ARC
  5
32BB7
  8
0
 10
6208.1522149028241984
 20
335.102470444016717
 30
0.0
 40
0.031511491247572
 50
224.9985197624276054
 51
250.5832871494125129
  0
ARC
  5
32BB8
  8
0
 10
6208.167431663773641
 20
335.1406899509603932
 30
0.0
 40
0.0726345420139034
 50
249.2849558682611928
 51
259.0615840532083212
  0
ARC
  5
32BB9
  8
0
 10
6208.8010593435783449
 20
338.807363472559075
 30
0.0
 40
3.7936390953727268
 50
260.1739902372801794
 51
261.1190534300831132
  0
ARC
  5
32BBA
  8
0
 10
6208.6465137499772027
 20
337.9647447379674077
 30
0.0
 40
2.9373502690101891
 50
261.560043381620801
 51
268.1633704748114724
  0
ARC
  5
32BBB
  8
0
 10
6201.3130215804358158
 20
340.8380579042390082
 30
0.0
 40
9.8249945355546888
 50
1.0385219587858889
 51
3.0029795390479102
  0
ARC
  5
32BBC
  8
0
 10
6209.4478614862227914
 20
341.2604518269649816
 30
0.0
 40
1.6792026132711639
 50
3.1515138976497261
 51
11.6631203317801102
  0
ARC
  5
32BBD
  8
0
 10
6209.2954163854637955
 20
341.223195552779714
 30
0.0
 40
1.836040568296482
 50
11.8400349464658401
 51
37.8679208381921271
  0
ARC
  5
32BBE
  8
0
 10
6208.9633953411157563
 20
340.962668681947207
 30
0.0
 40
2.2580706815589031
 50
37.9150724949996132
 51
58.6690278197433983
  0
ARC
  5
32BBF
  8
0
 10
6208.7422738439063323
 20
340.6089974422257001
 30
0.0
 40
2.675152414929014
 50
58.5624788807581425
 51
70.8048547326013846
  0
ARC
  5
32BC0
  8
0
 10
6209.449041517796104
 20
340.9639156134542759
 30
0.0
 40
1.688168449510151
 50
343.176397925184915
 51
16.8236020748150494
  0
ARC
  5
32BC1
  8
0
 10
6208.7260030498327978
 20
340.2541351889091175
 30
0.0
 40
2.7352916113347439
 50
61.8192497085894672
 51
73.404235610032373
  0
ARC
  5
32BC2
  8
0
 10
6208.9638318852876182
 20
340.6566634842178019
 30
0.0
 40
2.2682465528769642
 50
35.538896152641108
 51
62.3128670052872025
  0
ARC
  5
32BC3
  8
0
 10
6209.2993287026301914
 20
340.9132854309901859
 30
0.0
 40
1.846134441073771
 50
16.9828899758933609
 51
35.1103122533310668
  0
ARC
  5
32BC4
  8
0
 10
6209.2931127616348022
 20
341.010265773280878
 30
0.0
 40
1.8508386147606459
 50
330.8697400728370894
 51
343.200032289424712
  0
ARC
  5
32BC5
  8
0
 10
6209.0818852517386404
 20
341.1476332400504816
 30
0.0
 40
2.1022892053746252
 50
309.4915137060057759
 51
330.4018463285518123
  0
ARC
  5
32BC6
  8
0
 10
6198.6229413029641364
 20
354.2669374117760981
 30
0.0
 40
18.8801737423761189
 50
307.9248135596375846
 51
308.6659217340068722
  0
ARC
  5
32BC7
  8
0
 10
6222.8995651858540441
 20
323.280650695705674
 30
0.0
 40
20.483700066471151
 50
128.2180465647128074
 51
130.1352675294004939
  0
ARC
  5
32BC8
  8
0
 10
6211.0007087425592545
 20
337.3368150568505257
 30
0.0
 40
2.0677998301879801
 50
129.1253342556611869
 51
134.7812017659277046
  0
ARC
  5
32BC9
  8
0
 10
6210.2565189335900868
 20
338.1086380507517219
 30
0.0
 40
0.9958698854700745
 50
135.6698893939702941
 51
166.6644004651043076
  0
ARC
  5
32BCA
  8
0
 10
6210.1810143332577354
 20
338.1328694694176988
 30
0.0
 40
0.9168328392515942
 50
167.0495219227163091
 51
178.4903202412268115
  0
LINE
  5
32BCB
  8
0
 10
6209.2644997374291052
 20
338.1570241949331717
 30
0.0
 11
6209.1887022483288092
 21
335.0915582785332276
 31
0.0
  0
ARC
  5
32BCC
  8
0
 10
6209.1717423126019639
 20
335.0919776342130945
 30
0.0
 40
0.016965119482034
 50
315.9829011982938027
 51
358.583578612263409
  0
ARC
  5
32BCD
  8
0
 10
6209.1616599159351608
 20
335.102470444016717
 30
0.0
 40
0.031511491247572
 50
289.4167128505876008
 51
315.001480237572423
  0
ARC
  5
32BCE
  8
0
 10
6209.1464431549857181
 20
335.1406899509603932
 30
0.0
 40
0.0726345420139034
 50
280.9384159467916788
 51
290.7150441317388072
  0
ARC
  5
32BCF
  8
0
 10
6208.5128154751801048
 20
338.807363472559075
 30
0.0
 40
3.7936390953727268
 50
278.8809465698653867
 51
279.8260097627198206
  0
ARC
  5
32BD0
  8
0
 10
6208.667361068781247
 20
337.9647447379674077
 30
0.0
 40
2.9373502690101891
 50
271.8366295251885276
 51
278.4399566183790853
  0
ARC
  5
32BD1
  8
0
 10
6208.4359489172420581
 20
342.4449173378916953
 30
0.0
 40
0.025151831817976
 50
47.0794035234443484
 51
137.2293851009021068
  0
ARC
  5
32BD2
  8
0
 10
6208.4392630697602726
 20
342.4480895414088195
 30
0.0
 40
0.0205736767652026
 50
308.0031433435494819
 51
47.8222354159734593
  0
ARC
  5
32BD3
  8
0
 10
6208.4362484148296062
 20
342.4518250977920957
 30
0.0
 40
0.0253734586804618
 50
235.9695460816554942
 51
308.1735827125937135
  0
ARC
  5
32BD4
  8
0
 10
6208.4330783271479959
 20
342.4483438863651941
 30
0.0
 40
0.0207254763170945
 50
138.7943962218155889
 51
237.8469197928839947
  0
LINE
  5
32BD5
  8
0
 10
6208.3721284345292588
 20
342.4835703731333183
 30
0.0
 11
6208.3721284352295697
 21
342.4593715545332202
 31
0.0
  0
ARC
  5
32BD6
  8
0
 10
6208.4321729813391357
 20
342.4598883758476973
 30
0.0
 40
0.0600467702859216
 50
180.4931496824129056
 51
218.5282014186022082
  0
ARC
  5
32BD7
  8
0
 10
6208.4358326206101992
 20
342.4634695868533072
 30
0.0
 40
0.0651425391162149
 50
218.9873276899419068
 51
250.6618081868423928
  0
LINE
  5
32BD8
  8
0
 10
6208.5000811919044281
 20
342.4816593488174021
 30
0.0
 11
6208.5000811912286736
 21
342.4583371957332929
 31
0.0
  0
ARC
  5
32BD9
  8
0
 10
6208.4411681569035864
 20
342.4586572650557059
 30
0.0
 40
0.0589139037727533
 50
322.4814183338536964
 51
359.688720142970908
  0
ARC
  5
32BDA
  8
0
 10
6208.4385462117943462
 20
342.4609205083237953
 30
0.0
 40
0.062372187580646
 50
289.1571432213340813
 51
322.2992656292831271
  0
ARC
  5
32BDB
  8
0
 10
6208.4366376880443568
 20
342.4647787161695192
 30
0.0
 40
0.0666451987099376
 50
250.3814232749892028
 51
289.6185767250108256
  0
ARC
  5
32BDC
  8
0
 10
6208.432871010101735
 20
342.4828493251986856
 30
0.0
 40
0.0607468550403033
 50
113.7250068784809969
 51
179.3198993822443867
  0
ARC
  5
32BDD
  8
0
 10
6208.4352049970757434
 20
342.4777329344731811
 30
0.0
 40
0.0663699642005073
 50
66.2075119028654342
 51
113.7924880971345942
  0
ARC
  5
32BDE
  8
0
 10
6208.4374687516810809
 20
342.4808413723504259
 30
0.0
 40
0.0626177830667692
 50
0.7484764007081255
 51
66.9554070814897955
  0
ARC
  5
32BDF
  8
0
 10
6208.0055083188153731
 20
342.3636497076851128
 30
0.0
 40
0.025151831817976
 50
47.0794035234443484
 51
137.2293851009021068
  0
ARC
  5
32BE0
  8
0
 10
6208.0088224713317686
 20
342.3668219112022939
 30
0.0
 40
0.0205736767652026
 50
308.0031433435494819
 51
47.8222354159734593
  0
ARC
  5
32BE1
  8
0
 10
6208.0058078164020117
 20
342.3705574675856269
 30
0.0
 40
0.0253734586804618
 50
235.9695460816554942
 51
308.1735827125937135
  0
ARC
  5
32BE2
  8
0
 10
6208.0026377287204014
 20
342.3670762561587253
 30
0.0
 40
0.0207254763170945
 50
138.7943962218155889
 51
237.8469197928839947
  0
LINE
  5
32BE3
  8
0
 10
6207.9416878361007548
 20
342.402302742926679
 30
0.0
 11
6207.9416878368019752
 21
342.3781039243266946
 31
0.0
  0
ARC
  5
32BE4
  8
0
 10
6208.0017323829106317
 20
342.3786207456411148
 30
0.0
 40
0.0600467702859216
 50
180.4931496824096087
 51
218.5282014186022082
  0
ARC
  5
32BE5
  8
0
 10
6208.0053920221826047
 20
342.3822019566467816
 30
0.0
 40
0.0651425391162149
 50
218.9873276899419068
 51
250.6618081868423928
  0
LINE
  5
32BE6
  8
0
 10
6208.0696405934759241
 20
342.4003917186108765
 30
0.0
 11
6208.0696405928019885
 21
342.3770695655267104
 31
0.0
  0
ARC
  5
32BE7
  8
0
 10
6208.0107275584769013
 20
342.3773896348491803
 30
0.0
 40
0.0589139037727533
 50
322.4814183338536964
 51
359.688720142970908
  0
ARC
  5
32BE8
  8
0
 10
6208.0081056133658421
 20
342.3796528781173265
 30
0.0
 40
0.062372187580646
 50
289.1571432213340813
 51
322.2992656292831271
  0
ARC
  5
32BE9
  8
0
 10
6208.0061970896158527
 20
342.3835110859628799
 30
0.0
 40
0.0666451987099376
 50
250.3814232749892028
 51
289.6185767250108256
  0
ARC
  5
32BEA
  8
0
 10
6208.0024304116741405
 20
342.4015816949921032
 30
0.0
 40
0.0607468550403033
 50
113.7250068784809969
 51
179.3198993822443867
  0
ARC
  5
32BEB
  8
0
 10
6208.0047643986490584
 20
342.3964653042667123
 30
0.0
 40
0.0663699642005073
 50
66.2075119028654342
 51
113.7924880971345942
  0
ARC
  5
32BEC
  8
0
 10
6208.0070281532543959
 20
342.3995737421439003
 30
0.0
 40
0.0626177830667692
 50
0.7484764007081255
 51
66.9554070814897955
  0
ARC
  5
32BED
  8
0
 10
6208.3890686097802245
 20
342.0394346106548937
 30
0.0
 40
0.025151831817976
 50
47.0794035234443484
 51
137.2293851009021068
  0
ARC
  5
32BEE
  8
0
 10
6208.3923827622966201
 20
342.0426068141720748
 30
0.0
 40
0.0205736767652026
 50
308.0031433435494819
 51
47.8222354159734593
  0
ARC
  5
32BEF
  8
0
 10
6208.3893681073677726
 20
342.0463423705554078
 30
0.0
 40
0.0253734586804618
 50
235.9695460816554942
 51
308.1735827125937135
  0
ARC
  5
32BF0
  8
0
 10
6208.3861980196861623
 20
342.0428611591285062
 30
0.0
 40
0.0207254763170945
 50
138.7943962218155889
 51
237.8469197928839947
  0
LINE
  5
32BF1
  8
0
 10
6208.3252481270674252
 20
342.0780876458965167
 30
0.0
 11
6208.3252481277668267
 21
342.0538888272964755
 31
0.0
  0
ARC
  5
32BF2
  8
0
 10
6208.3852926738773021
 20
342.0544056486108957
 30
0.0
 40
0.0600467702859216
 50
180.4931496824096087
 51
218.5282014186022082
  0
ARC
  5
32BF3
  8
0
 10
6208.3889523131483656
 20
342.0579868596165056
 30
0.0
 40
0.0651425391162149
 50
218.9873276899419068
 51
250.6618081868423928
  0
LINE
  5
32BF4
  8
0
 10
6208.4532008844407756
 20
342.0761766215807143
 30
0.0
 11
6208.45320088376684
 21
342.0528544684964913
 31
0.0
  0
ARC
  5
32BF5
  8
0
 10
6208.3942878494426623
 20
342.053174537819018
 30
0.0
 40
0.0589139037727533
 50
322.4814183338536964
 51
359.688720142970908
  0
ARC
  5
32BF6
  8
0
 10
6208.3916659043316031
 20
342.0554377810869937
 30
0.0
 40
0.062372187580646
 50
289.1571432213340813
 51
322.2992656292831271
  0
ARC
  5
32BF7
  8
0
 10
6208.3897573805816137
 20
342.0592959889327176
 30
0.0
 40
0.0666451987099376
 50
250.3814232749892028
 51
289.6185767250108256
  0
ARC
  5
32BF8
  8
0
 10
6208.3859907026399014
 20
342.0773665979618841
 30
0.0
 40
0.0607468550403033
 50
113.7250068784809969
 51
179.3198993822443867
  0
ARC
  5
32BF9
  8
0
 10
6208.3883246896139099
 20
342.0722502072364932
 30
0.0
 40
0.0663699642005073
 50
66.2075119028654342
 51
113.7924880971345942
  0
ARC
  5
32BFA
  8
0
 10
6208.3905884442201568
 20
342.0753586451136243
 30
0.0
 40
0.0626177830667692
 50
0.7484764007081255
 51
66.9554070814897955
  0
ARC
  5
32BFB
  8
0
 10
6208.5033526309944136
 20
341.6556372320836772
 30
0.0
 40
0.025151831817976
 50
47.0794035234443484
 51
137.2293851009021068
  0
ARC
  5
32BFC
  8
0
 10
6208.5066667835117187
 20
341.6588094356009151
 30
0.0
 40
0.0205736767652026
 50
308.0031433435494819
 51
47.8222354159734593
  0
ARC
  5
32BFD
  8
0
 10
6208.5036521285819617
 20
341.6625449919841913
 30
0.0
 40
0.0253734586804618
 50
235.9695460816554942
 51
308.1735827125937135
  0
ARC
  5
32BFE
  8
0
 10
6208.5004820409003514
 20
341.6590637805572896
 30
0.0
 40
0.0207254763170945
 50
138.7943962218155889
 51
237.8469197928839947
  0
LINE
  5
32BFF
  8
0
 10
6208.4395321482816144
 20
341.6942902673253002
 30
0.0
 11
6208.4395321489819253
 21
341.6700914487253158
 31
0.0
  0
ARC
  5
32C00
  8
0
 10
6208.4995766950924008
 20
341.6706082700396792
 30
0.0
 40
0.0600467702859216
 50
180.4931496824096087
 51
218.5282014186022082
  0
ARC
  5
32C01
  8
0
 10
6208.5032363343625548
 20
341.6741894810452891
 30
0.0
 40
0.0651425391162149
 50
218.9873276899419068
 51
250.6618081868423928
  0
LINE
  5
32C02
  8
0
 10
6208.5674849056567837
 20
341.6923792430094977
 30
0.0
 11
6208.5674849049819386
 21
341.6690570899252748
 31
0.0
  0
ARC
  5
32C03
  8
0
 10
6208.5085718706568514
 20
341.6693771592476878
 30
0.0
 40
0.0589139037727533
 50
322.4814183338536964
 51
359.688720142970908
  0
ARC
  5
32C04
  8
0
 10
6208.5059499255448827
 20
341.6716404025157772
 30
0.0
 40
0.062372187580646
 50
289.1571432213340813
 51
322.2992656292831271
  0
ARC
  5
32C05
  8
0
 10
6208.5040414017958028
 20
341.6754986103615011
 30
0.0
 40
0.0666451987099376
 50
250.3814232749892028
 51
289.6185767250108256
  0
ARC
  5
32C06
  8
0
 10
6208.5002747238540906
 20
341.6935692193907244
 30
0.0
 40
0.0607468550403033
 50
113.7250068784809969
 51
179.3198993822443867
  0
ARC
  5
32C07
  8
0
 10
6208.5026087108290085
 20
341.6884528286652198
 30
0.0
 40
0.0663699642005073
 50
66.2075119028654342
 51
113.7924880971345942
  0
ARC
  5
32C08
  8
0
 10
6208.5048724654334364
 20
341.6915612665424078
 30
0.0
 40
0.0626177830667692
 50
0.7484764007081255
 51
66.9554070814897955
  0
ARC
  5
32C09
  8
0
 10
6207.8861653559461047
 20
341.8874150204641751
 30
0.0
 40
0.025151831817976
 50
47.0794035234443484
 51
137.2293851009021068
  0
ARC
  5
32C0A
  8
0
 10
6207.8894795084615907
 20
341.890587223981413
 30
0.0
 40
0.0205736767652026
 50
308.0031433435494819
 51
47.8222354159734593
  0
ARC
  5
32C0B
  8
0
 10
6207.8864648535327433
 20
341.8943227803648028
 30
0.0
 40
0.0253734586804618
 50
235.9695460816554942
 51
308.1735827125937135
  0
ARC
  5
32C0C
  8
0
 10
6207.883294765851133
 20
341.8908415689377875
 30
0.0
 40
0.0207254763170945
 50
138.7943962218155889
 51
237.8469197928839947
  0
LINE
  5
32C0D
  8
0
 10
6207.8223448732342149
 20
341.9260680557059118
 30
0.0
 11
6207.8223448739336163
 21
341.9018692371058137
 31
0.0
  0
ARC
  5
32C0E
  8
0
 10
6207.8823894200431823
 20
341.9023860584201771
 30
0.0
 40
0.0600467702859216
 50
180.4931496824096087
 51
218.5282014186022082
  0
ARC
  5
32C0F
  8
0
 10
6207.8860490593151553
 20
341.9059672694259007
 30
0.0
 40
0.0651425391162149
 50
218.9873276899419068
 51
250.6618081868423928
  0
LINE
  5
32C10
  8
0
 10
6207.9502976306066557
 20
341.9241570313899956
 30
0.0
 11
6207.9502976299336297
 21
341.9008348783057727
 31
0.0
  0
ARC
  5
32C11
  8
0
 10
6207.8913845956076329
 20
341.9011549476282994
 30
0.0
 40
0.0589139037727533
 50
322.4814183338536964
 51
359.688720142970908
  0
ARC
  5
32C12
  8
0
 10
6207.8887626504965738
 20
341.9034181908963888
 30
0.0
 40
0.062372187580646
 50
289.1571432213340813
 51
322.2992656292831271
  0
ARC
  5
32C13
  8
0
 10
6207.8868541267484034
 20
341.9072763987421126
 30
0.0
 40
0.0666451987099376
 50
250.3814232749892028
 51
289.6185767250108256
  0
ARC
  5
32C14
  8
0
 10
6207.8830874488057816
 20
341.9253470077712223
 30
0.0
 40
0.0607468550403033
 50
113.7250068784809969
 51
179.3198993822443867
  0
ARC
  5
32C15
  8
0
 10
6207.8854214357806995
 20
341.9202306170457746
 30
0.0
 40
0.0663699642005073
 50
66.2075119028654342
 51
113.7924880971345942
  0
ARC
  5
32C16
  8
0
 10
6207.8876851903851275
 20
341.9233390549230194
 30
0.0
 40
0.0626177830667692
 50
0.7484764007081255
 51
66.9554070814897955
  0
ARC
  5
32C17
  8
0
 10
6207.60724909952296
 20
342.2051318981324926
 30
0.0
 40
0.025151831817976
 50
47.0794035234443484
 51
137.2293851009021068
  0
ARC
  5
32C18
  8
0
 10
6207.6105632520393556
 20
342.2083041016496736
 30
0.0
 40
0.0205736767652026
 50
308.0031433435494819
 51
47.8222354159734593
  0
ARC
  5
32C19
  8
0
 10
6207.6075485971095986
 20
342.2120396580331203
 30
0.0
 40
0.0253734586804618
 50
235.9695460816554942
 51
308.1735827125937135
  0
ARC
  5
32C1A
  8
0
 10
6207.6043785094279883
 20
342.2085584466062187
 30
0.0
 40
0.0207254763170945
 50
138.7943962218155889
 51
237.8469197928839947
  0
LINE
  5
32C1B
  8
0
 10
6207.5434286168092513
 20
342.2437849333741724
 30
0.0
 11
6207.5434286175086527
 21
342.2195861147740743
 31
0.0
  0
ARC
  5
32C1C
  8
0
 10
6207.6034731636191282
 20
342.2201029360884945
 30
0.0
 40
0.0600467702859216
 50
180.4931496824096087
 51
218.5282014186022082
  0
ARC
  5
32C1D
  8
0
 10
6207.6071328028901917
 20
342.2236841470942181
 30
0.0
 40
0.0651425391162149
 50
218.9873276899419068
 51
250.6618081868423928
  0
LINE
  5
32C1E
  8
0
 10
6207.6713813741853301
 20
342.2418739090584268
 30
0.0
 11
6207.6713813735095755
 21
342.2185517559740902
 31
0.0
  0
ARC
  5
32C1F
  8
0
 10
6207.6124683391853978
 20
342.2188718252966169
 30
0.0
 40
0.0589139037727533
 50
322.4814183338536964
 51
359.688720142970908
  0
ARC
  5
32C20
  8
0
 10
6207.6098463940743386
 20
342.2211350685647062
 30
0.0
 40
0.062372187580646
 50
289.1571432213340813
 51
322.2992656292831271
  0
ARC
  5
32C21
  8
0
 10
6207.6079378703234397
 20
342.2249932764103733
 30
0.0
 40
0.0666451987099376
 50
250.3814232749892028
 51
289.6185767250108256
  0
ARC
  5
32C22
  8
0
 10
6207.6041711923817275
 20
342.2430638854394829
 30
0.0
 40
0.0607468550403033
 50
113.7250068784809969
 51
179.3198993822443867
  0
ARC
  5
32C23
  8
0
 10
6207.6065051793566454
 20
342.237947494714092
 30
0.0
 40
0.0663699642005073
 50
66.2075119028654342
 51
113.7924880971345942
  0
ARC
  5
32C24
  8
0
 10
6207.6087689339610733
 20
342.24105593259128
 30
0.0
 40
0.0626177830667692
 50
0.7484764007081255
 51
66.9554070814897955
  0
ARC
  5
32C25
  8
0
 10
6207.2616667132106159
 20
341.9777917687929971
 30
0.0
 40
0.025151831817976
 50
47.0794035234443484
 51
137.2293851009021068
  0
ARC
  5
32C26
  8
0
 10
6207.2649808657279209
 20
341.9809639723101782
 30
0.0
 40
0.0205736767652026
 50
308.0031433435494819
 51
47.8222354159734593
  0
ARC
  5
32C27
  8
0
 10
6207.261966210798164
 20
341.9846995286935112
 30
0.0
 40
0.0253734586804618
 50
235.9695460816554942
 51
308.1735827125937135
  0
ARC
  5
32C28
  8
0
 10
6207.2587961231165536
 20
341.9812183172666096
 30
0.0
 40
0.0207254763170945
 50
138.7943962218155889
 51
237.8469197928839947
  0
LINE
  5
32C29
  8
0
 10
6207.1978462304987261
 20
342.0164448040346201
 30
0.0
 11
6207.1978462311981275
 21
341.9922459854345789
 31
0.0
  0
ARC
  5
32C2A
  8
0
 10
6207.2578907773076935
 20
341.9927628067489991
 30
0.0
 40
0.0600467702859216
 50
180.4931496824096087
 51
218.5282014186022082
  0
ARC
  5
32C2B
  8
0
 10
6207.261550416578757
 20
341.996344017754609
 30
0.0
 40
0.0651425391162149
 50
218.9873276899419068
 51
250.6618081868423928
  0
LINE
  5
32C2C
  8
0
 10
6207.3257989878738954
 20
342.0145337797188176
 30
0.0
 11
6207.3257989871990503
 21
341.9912116266345947
 31
0.0
  0
ARC
  5
32C2D
  8
0
 10
6207.2668859528739631
 20
341.9915316959571214
 30
0.0
 40
0.0589139037727533
 50
322.4814183338536964
 51
359.688720142970908
  0
ARC
  5
32C2E
  8
0
 10
6207.2642640077629039
 20
341.9937949392250971
 30
0.0
 40
0.062372187580646
 50
289.1571432213340813
 51
322.2992656292831271
  0
ARC
  5
32C2F
  8
0
 10
6207.262355484012005
 20
341.997653147070821
 30
0.0
 40
0.0666451987099376
 50
250.3814232749892028
 51
289.6185767250108256
  0
ARC
  5
32C30
  8
0
 10
6207.2585888060712023
 20
342.0157237560999874
 30
0.0
 40
0.0607468550403033
 50
113.7250068784809969
 51
179.3198993822443867
  0
ARC
  5
32C31
  8
0
 10
6207.2609227930470297
 20
342.0106073653744829
 30
0.0
 40
0.0663699642005073
 50
66.2075119028654342
 51
113.7924880971345942
  0
ARC
  5
32C32
  8
0
 10
6207.2631865476487292
 20
342.0137158032517277
 30
0.0
 40
0.0626177830667692
 50
0.7484764007081255
 51
66.9554070814897955
  0
ARC
  5
32C33
  8
0
 10
6207.4760349137059166
 20
341.602274347559387
 30
0.0
 40
0.025151831817976
 50
47.0794035234443484
 51
137.2293851009021068
  0
ARC
  5
32C34
  8
0
 10
6207.4793490662232216
 20
341.6054465510766249
 30
0.0
 40
0.0205736767652026
 50
308.0031433435494819
 51
47.8222354159734593
  0
ARC
  5
32C35
  8
0
 10
6207.4763344112925552
 20
341.6091821074597874
 30
0.0
 40
0.0253734586804618
 50
235.9695460816554942
 51
308.1735827125937135
  0
ARC
  5
32C36
  8
0
 10
6207.4731643236118543
 20
341.6057008960329995
 30
0.0
 40
0.0207254763170945
 50
138.7943962218155889
 51
237.8469197928839947
  0
LINE
  5
32C37
  8
0
 10
6207.4122144309931173
 20
341.6409273828008963
 30
0.0
 11
6207.4122144316943377
 21
341.6167285642010256
 31
0.0
  0
ARC
  5
32C38
  8
0
 10
6207.4722589778029942
 20
341.617245385515389
 30
0.0
 40
0.0600467702859216
 50
180.4931496824096087
 51
218.5282014186022082
  0
ARC
  5
32C39
  8
0
 10
6207.4759186170740577
 20
341.6208265965209989
 30
0.0
 40
0.0651425391162149
 50
218.9873276899419068
 51
250.6618081868423928
  0
LINE
  5
32C3A
  8
0
 10
6207.5401671883682866
 20
341.6390163584852075
 30
0.0
 11
6207.540167187694351
 21
341.6156942054009846
 31
0.0
  0
ARC
  5
32C3B
  8
0
 10
6207.4812541533683543
 20
341.6160142747235113
 30
0.0
 40
0.0589139037727533
 50
322.4814183338536964
 51
359.688720142970908
  0
ARC
  5
32C3C
  8
0
 10
6207.4786322082572951
 20
341.618277517991487
 30
0.0
 40
0.062372187580646
 50
289.1571432213340813
 51
322.2992656292831271
  0
ARC
  5
32C3D
  8
0
 10
6207.4767236845073057
 20
341.6221357258372109
 30
0.0
 40
0.0666451987099376
 50
250.3814232749892028
 51
289.6185767250108256
  0
ARC
  5
32C3E
  8
0
 10
6207.472957006564684
 20
341.6402063348663773
 30
0.0
 40
0.0607468550403033
 50
113.7250068784809969
 51
179.3198993822443867
  0
ARC
  5
32C3F
  8
0
 10
6207.4752909935396019
 20
341.6350899441408728
 30
0.0
 40
0.0663699642005073
 50
66.2075119028654342
 51
113.7924880971345942
  0
ARC
  5
32C40
  8
0
 10
6207.4775547481449394
 20
341.6381983820181176
 30
0.0
 40
0.0626177830667692
 50
0.7484764007081255
 51
66.9554070814897955
  0
ARC
  5
32C41
  8
0
 10
6206.9865997789383982
 20
341.6935410762778247
 30
0.0
 40
0.025151831817976
 50
47.0794035234443484
 51
137.2293851009021068
  0
ARC
  5
32C42
  8
0
 10
6206.9899139314547938
 20
341.6967132797950057
 30
0.0
 40
0.0205736767652026
 50
308.0031433435494819
 51
47.8222354159734593
  0
ARC
  5
32C43
  8
0
 10
6206.9868992765250368
 20
341.7004488361782819
 30
0.0
 40
0.0253734586804618
 50
235.9695460816554942
 51
308.1735827125937135
  0
ARC
  5
32C44
  8
0
 10
6206.9837291888434265
 20
341.6969676247513803
 30
0.0
 40
0.0207254763170945
 50
138.7943962218155889
 51
237.8469197928839947
  0
LINE
  5
32C45
  8
0
 10
6206.92277929622378
 20
341.7321941115193908
 30
0.0
 11
6206.9227792969250004
 21
341.7079952929194064
 31
0.0
  0
ARC
  5
32C46
  8
0
 10
6206.9828238430336569
 20
341.7085121142338267
 30
0.0
 40
0.0600467702859216
 50
180.4931496824096087
 51
218.5282014186022082
  0
ARC
  5
32C47
  8
0
 10
6206.9864834823056299
 20
341.7120933252394934
 30
0.0
 40
0.0651425391162149
 50
218.9873276899419068
 51
250.6618081868423928
  0
LINE
  5
32C48
  8
0
 10
6207.0507320535998588
 20
341.7302830872035884
 30
0.0
 11
6207.0507320529250137
 21
341.7069609341194223
 31
0.0
  0
ARC
  5
32C49
  8
0
 10
6206.9918190185999265
 20
341.7072810034418922
 30
0.0
 40
0.0589139037727533
 50
322.4814183338536964
 51
359.688720142970908
  0
ARC
  5
32C4A
  8
0
 10
6206.9891970734897768
 20
341.7095442467099247
 30
0.0
 40
0.062372187580646
 50
289.1571432213340813
 51
322.2992656292831271
  0
ARC
  5
32C4B
  8
0
 10
6206.9872885497388779
 20
341.7134024545557054
 30
0.0
 40
0.0666451987099376
 50
250.3814232749892028
 51
289.6185767250108256
  0
ARC
  5
32C4C
  8
0
 10
6206.9835218717980752
 20
341.731473063584815
 30
0.0
 40
0.0607468550403033
 50
113.7250068784809969
 51
179.3198993822443867
  0
ARC
  5
32C4D
  8
0
 10
6206.9858558587720836
 20
341.7263566728593105
 30
0.0
 40
0.0663699642005073
 50
66.2075119028654342
 51
113.7924880971345942
  0
ARC
  5
32C4E
  8
0
 10
6206.9881196133756021
 20
341.7294651107364984
 30
0.0
 40
0.0626177830667692
 50
0.7484764007081255
 51
66.9554070814897955
  0
ARC
  5
32C4F
  8
0
 10
6206.7944393449533891
 20
341.3645346581524791
 30
0.0
 40
0.025151831817976
 50
47.0794035234443484
 51
137.2293851009021068
  0
ARC
  5
32C50
  8
0
 10
6206.7977534974679656
 20
341.367706861669717
 30
0.0
 40
0.0205736767652026
 50
308.0031433435494819
 51
47.8222354159734593
  0
ARC
  5
32C51
  8
0
 10
6206.7947388425400277
 20
341.3714424180528795
 30
0.0
 40
0.0253734586804618
 50
235.9695460816554942
 51
308.1735827125937135
  0
ARC
  5
32C52
  8
0
 10
6206.7915687548584174
 20
341.3679612066260916
 30
0.0
 40
0.0207254763170945
 50
138.7943962218155889
 51
237.8469197928839947
  0
LINE
  5
32C53
  8
0
 10
6206.7306188622387708
 20
341.4031876933941021
 30
0.0
 11
6206.7306188629399912
 21
341.378988874794004
 31
0.0
  0
ARC
  5
32C54
  8
0
 10
6206.7906634090495572
 20
341.3795056961084811
 30
0.0
 40
0.0600467702859216
 50
180.4931496824096087
 51
218.5282014186022082
  0
ARC
  5
32C55
  8
0
 10
6206.7943230483197112
 20
341.383086907114091
 30
0.0
 40
0.0651425391162149
 50
218.9873276899419068
 51
250.6618081868423928
  0
LINE
  5
32C56
  8
0
 10
6206.8585716196139401
 20
341.4012766690782996
 30
0.0
 11
6206.858571618940914
 21
341.3779545159940767
 31
0.0
  0
ARC
  5
32C57
  8
0
 10
6206.7996585846149173
 20
341.3782745853164897
 30
0.0
 40
0.0589139037727533
 50
322.4814183338536964
 51
359.688720142970908
  0
ARC
  5
32C58
  8
0
 10
6206.7970366395029487
 20
341.3805378285845791
 30
0.0
 40
0.062372187580646
 50
289.1571432213340813
 51
322.2992656292831271
  0
ARC
  5
32C59
  8
0
 10
6206.7951281157538688
 20
341.384396036430303
 30
0.0
 40
0.0666451987099376
 50
250.3814232749892028
 51
289.6185767250108256
  0
ARC
  5
32C5A
  8
0
 10
6206.7913614378121565
 20
341.4024666454595263
 30
0.0
 40
0.0607468550403033
 50
113.7250068784809969
 51
179.3198993822443867
  0
ARC
  5
32C5B
  8
0
 10
6206.7936954247870744
 20
341.3973502547340217
 30
0.0
 40
0.0663699642005073
 50
66.2075119028654342
 51
113.7924880971345942
  0
ARC
  5
32C5C
  8
0
 10
6206.7959591793905929
 20
341.400458692611096
 30
0.0
 40
0.0626177830667692
 50
0.7484764007081255
 51
66.9554070814897955
  0
ARC
  5
32C5D
  8
0
 10
6207.2075259836483383
 20
341.2179785641725971
 30
0.0
 40
0.025151831817976
 50
47.0794035234443484
 51
137.2293851009021068
  0
ARC
  5
32C5E
  8
0
 10
6207.2108401361638244
 20
341.2211507676897781
 30
0.0
 40
0.0205736767652026
 50
308.0031433435494819
 51
47.8222354159734593
  0
ARC
  5
32C5F
  8
0
 10
6207.2078254812349769
 20
341.2248863240732248
 30
0.0
 40
0.0253734586804618
 50
235.9695460816554942
 51
308.1735827125937135
  0
ARC
  5
32C60
  8
0
 10
6207.2046553935533666
 20
341.2214051126463232
 30
0.0
 40
0.0207254763170945
 50
138.7943962218155889
 51
237.8469197928839947
  0
LINE
  5
32C61
  8
0
 10
6207.1437055009364485
 20
341.2566315994142769
 30
0.0
 11
6207.1437055016358499
 21
341.2324327808141788
 31
0.0
  0
ARC
  5
32C62
  8
0
 10
6207.2037500477454159
 20
341.2329496021285991
 30
0.0
 40
0.0600467702859216
 50
180.4931496824096087
 51
218.5282014186022082
  0
ARC
  5
32C63
  8
0
 10
6207.2074096870155699
 20
341.2365308131343227
 30
0.0
 40
0.0651425391162149
 50
218.9873276899419068
 51
250.6618081868423928
  0
LINE
  5
32C64
  8
0
 10
6207.2716582583097988
 20
341.2547205750984745
 30
0.0
 11
6207.2716582576349538
 21
341.2313984220141947
 31
0.0
  0
ARC
  5
32C65
  8
0
 10
6207.2127452233089571
 20
341.2317184913367214
 30
0.0
 40
0.0589139037727533
 50
322.4814183338536964
 51
359.688720142970908
  0
ARC
  5
32C66
  8
0
 10
6207.2101232781988074
 20
341.2339817346048108
 30
0.0
 40
0.062372187580646
 50
289.1571432213340813
 51
322.2992656292831271
  0
ARC
  5
32C67
  8
0
 10
6207.208214754448818
 20
341.2378399424504778
 30
0.0
 40
0.0666451987099376
 50
250.3814232749892028
 51
289.6185767250108256
  0
ARC
  5
32C68
  8
0
 10
6207.2044480765071057
 20
341.2559105514795874
 30
0.0
 40
0.0607468550403033
 50
113.7250068784809969
 51
179.3198993822443867
  0
ARC
  5
32C69
  8
0
 10
6207.2067820634820237
 20
341.2507941607541966
 30
0.0
 40
0.0663699642005073
 50
66.2075119028654342
 51
113.7924880971345942
  0
ARC
  5
32C6A
  8
0
 10
6207.2090458180864516
 20
341.2539025986313845
 30
0.0
 40
0.0626177830667692
 50
0.7484764007081255
 51
66.9554070814897955
  0
ARC
  5
32C6B
  8
0
 10
6207.7862479896430159
 20
341.3112744560783085
 30
0.0
 40
0.025151831817976
 50
47.0794035234443484
 51
137.2293851009021068
  0
ARC
  5
32C6C
  8
0
 10
6207.7895621421603209
 20
341.3144466595953759
 30
0.0
 40
0.0205736767652026
 50
308.0031433435494819
 51
47.8222354159734593
  0
ARC
  5
32C6D
  8
0
 10
6207.7865474872296545
 20
341.3181822159788226
 30
0.0
 40
0.0253734586804618
 50
235.9695460816554942
 51
308.1735827125937135
  0
ARC
  5
32C6E
  8
0
 10
6207.7833773995480442
 20
341.314701004551921
 30
0.0
 40
0.0207254763170945
 50
138.7943962218155889
 51
237.8469197928839947
  0
LINE
  5
32C6F
  8
0
 10
6207.7224275069293071
 20
341.3499274913198747
 30
0.0
 11
6207.7224275076287086
 21
341.3257286727197766
 31
0.0
  0
ARC
  5
32C70
  8
0
 10
6207.7824720537400935
 20
341.3262454940343105
 30
0.0
 40
0.0600467702859216
 50
180.4931496824096087
 51
218.5282014186022082
  0
ARC
  5
32C71
  8
0
 10
6207.7861316930102475
 20
341.3298267050399204
 30
0.0
 40
0.0651425391162149
 50
218.9873276899419068
 51
250.6618081868423928
  0
LINE
  5
32C72
  8
0
 10
6207.8503802643053859
 20
341.3480164670040722
 30
0.0
 11
6207.8503802636296314
 21
341.3246943139199061
 31
0.0
  0
ARC
  5
32C73
  8
0
 10
6207.7914672293054537
 20
341.3250143832423191
 30
0.0
 40
0.0589139037727533
 50
322.4814183338536964
 51
359.688720142970908
  0
ARC
  5
32C74
  8
0
 10
6207.788845284195304
 20
341.3272776265104085
 30
0.0
 40
0.062372187580646
 50
289.1571432213340813
 51
322.2992656292831271
  0
ARC
  5
32C75
  8
0
 10
6207.7869367604425861
 20
341.3311358343560755
 30
0.0
 40
0.0666451987099376
 50
250.3814232749892028
 51
289.6185767250108256
  0
ARC
  5
32C76
  8
0
 10
6207.7831700825017833
 20
341.3492064433852988
 30
0.0
 40
0.0607468550403033
 50
113.7250068784809969
 51
179.3198993822443867
  0
ARC
  5
32C77
  8
0
 10
6207.7855040694767013
 20
341.3440900526597943
 30
0.0
 40
0.0663699642005073
 50
66.2075119028654342
 51
113.7924880971345942
  0
ARC
  5
32C78
  8
0
 10
6207.7877678240811292
 20
341.3471984905369823
 30
0.0
 40
0.0626177830667692
 50
0.7484764007081255
 51
66.9554070814897955
  0
ARC
  5
32C79
  8
0
 10
6207.6327471392869484
 20
341.0896428785659964
 30
0.0
 40
0.025151831817976
 50
47.0794035234443484
 51
137.2293851009021068
  0
ARC
  5
32C7A
  8
0
 10
6207.6360612918042534
 20
341.0928150820831775
 30
0.0
 40
0.0205736767652026
 50
308.0031433435494819
 51
47.8222354159734593
  0
ARC
  5
32C7B
  8
0
 10
6207.633046636875406
 20
341.0965506384665105
 30
0.0
 40
0.0253734586804618
 50
235.9695460816554942
 51
308.1735827125937135
  0
ARC
  5
32C7C
  8
0
 10
6207.6298765491919767
 20
341.0930694270396089
 30
0.0
 40
0.0207254763170945
 50
138.7943962218155889
 51
237.8469197928839947
  0
LINE
  5
32C7D
  8
0
 10
6207.5689266565741491
 20
341.1282959138076194
 30
0.0
 11
6207.5689266572735505
 21
341.1040970952075781
 31
0.0
  0
ARC
  5
32C7E
  8
0
 10
6207.628971203384026
 20
341.1046139165219984
 30
0.0
 40
0.0600467702859216
 50
180.4931496824096087
 51
218.5282014186022082
  0
ARC
  5
32C7F
  8
0
 10
6207.6326308426550895
 20
341.108195127527722
 30
0.0
 40
0.0651425391162149
 50
218.9873276899419068
 51
250.6618081868423928
  0
LINE
  5
32C80
  8
0
 10
6207.6968794139484089
 20
341.1263848894918169
 30
0.0
 11
6207.6968794132735638
 21
341.103062736407594
 31
0.0
  0
ARC
  5
32C81
  8
0
 10
6207.6379663789502956
 20
341.1033828057301207
 30
0.0
 40
0.0589139037727533
 50
322.4814183338536964
 51
359.688720142970908
  0
ARC
  5
32C82
  8
0
 10
6207.6353444338392364
 20
341.1056460489982101
 30
0.0
 40
0.062372187580646
 50
289.1571432213340813
 51
322.2992656292831271
  0
ARC
  5
32C83
  8
0
 10
6207.6334359100883376
 20
341.1095042568438203
 30
0.0
 40
0.0666451987099376
 50
250.3814232749892028
 51
289.6185767250108256
  0
ARC
  5
32C84
  8
0
 10
6207.6296692321466253
 20
341.1275748658729867
 30
0.0
 40
0.0607468550403033
 50
113.7250068784809969
 51
179.3198993822443867
  0
ARC
  5
32C85
  8
0
 10
6207.6320032191224527
 20
341.1224584751474822
 30
0.0
 40
0.0663699642005073
 50
66.2075119028654342
 51
113.7924880971345942
  0
ARC
  5
32C86
  8
0
 10
6207.6342669737259712
 20
341.125566913024727
 30
0.0
 40
0.0626177830667692
 50
0.7484764007081255
 51
66.9554070814897955
  0
ARC
  5
32C87
  8
0
 10
6206.6962870402812769
 20
341.0094127360380867
 30
0.0
 40
0.025151831817976
 50
47.0794035234443484
 51
137.2293851009021068
  0
ARC
  5
32C88
  8
0
 10
6206.6996011927976724
 20
341.0125849395553246
 30
0.0
 40
0.0205736767652026
 50
308.0031433435494819
 51
47.8222354159734593
  0
ARC
  5
32C89
  8
0
 10
6206.696586537868825
 20
341.0163204959384871
 30
0.0
 40
0.0253734586804618
 50
235.9695460816554942
 51
308.1735827125937135
  0
ARC
  5
32C8A
  8
0
 10
6206.6934164501863052
 20
341.0128392845116991
 30
0.0
 40
0.0207254763170945
 50
138.7943962218155889
 51
237.8469197928839947
  0
LINE
  5
32C8B
  8
0
 10
6206.6324665575675681
 20
341.048065771279596
 30
0.0
 11
6206.632466558267879
 21
341.0238669526797253
 31
0.0
  0
ARC
  5
32C8C
  8
0
 10
6206.692511104377445
 20
341.0243837739940886
 30
0.0
 40
0.0600467702859216
 50
180.4931496824096087
 51
218.5282014186022082
  0
ARC
  5
32C8D
  8
0
 10
6206.6961707436503275
 20
341.0279649849996986
 30
0.0
 40
0.0651425391162149
 50
218.9873276899419068
 51
250.6618081868423928
  0
LINE
  5
32C8E
  8
0
 10
6206.7604193149418279
 20
341.0461547469639072
 30
0.0
 11
6206.7604193142669828
 21
341.0228325938796843
 31
0.0
  0
ARC
  5
32C8F
  8
0
 10
6206.7015062799437146
 20
341.023152663202211
 30
0.0
 40
0.0589139037727533
 50
322.4814183338536964
 51
359.688720142970908
  0
ARC
  5
32C90
  8
0
 10
6206.6988843348326554
 20
341.0254159064701867
 30
0.0
 40
0.062372187580646
 50
289.1571432213340813
 51
322.2992656292831271
  0
ARC
  5
32C91
  8
0
 10
6206.6969758110817565
 20
341.0292741143159105
 30
0.0
 40
0.0666451987099376
 50
250.3814232749892028
 51
289.6185767250108256
  0
ARC
  5
32C92
  8
0
 10
6206.6932091331409538
 20
341.047344723345077
 30
0.0
 40
0.0607468550403033
 50
113.7250068784809969
 51
179.3198993822443867
  0
ARC
  5
32C93
  8
0
 10
6206.6955431201149622
 20
341.0422283326195725
 30
0.0
 40
0.0663699642005073
 50
66.2075119028654342
 51
113.7924880971345942
  0
ARC
  5
32C94
  8
0
 10
6206.6978068747202997
 20
341.0453367704968173
 30
0.0
 40
0.0626177830667692
 50
0.7484764007081255
 51
66.9554070814897955
  0
ARC
  5
32C95
  8
0
 10
6206.6963321248704233
 20
340.6444066407693754
 30
0.0
 40
0.025151831817976
 50
47.0794035234443484
 51
137.2293851009021068
  0
ARC
  5
32C96
  8
0
 10
6206.6996462773849998
 20
340.6475788442866133
 30
0.0
 40
0.0205736767652026
 50
308.0031433435494819
 51
47.8222354159734593
  0
ARC
  5
32C97
  8
0
 10
6206.6966316224570619
 20
340.6513144006698894
 30
0.0
 40
0.0253734586804618
 50
235.9695460816554942
 51
308.1735827125937135
  0
ARC
  5
32C98
  8
0
 10
6206.6934615347754516
 20
340.6478331892429878
 30
0.0
 40
0.0207254763170945
 50
138.7943962218155889
 51
237.8469197928839947
  0
LINE
  5
32C99
  8
0
 10
6206.6325116421567145
 20
340.6830596760109984
 30
0.0
 11
6206.6325116428570254
 21
340.6588608574109003
 31
0.0
  0
ARC
  5
32C9A
  8
0
 10
6206.6925561889656819
 20
340.6593776787253773
 30
0.0
 40
0.0600467702859216
 50
180.4931496824096087
 51
218.5282014186022082
  0
ARC
  5
32C9B
  8
0
 10
6206.6962158282367454
 20
340.662958889731101
 30
0.0
 40
0.0651425391162149
 50
218.9873276899419068
 51
250.6618081868423928
  0
LINE
  5
32C9C
  8
0
 10
6206.7604643995309743
 20
340.6811486516951959
 30
0.0
 11
6206.7604643988579483
 21
340.657826498610973
 31
0.0
  0
ARC
  5
32C9D
  8
0
 10
6206.7015513645319515
 20
340.658146567933386
 30
0.0
 40
0.0589139037727533
 50
322.4814183338536964
 51
359.688720142970908
  0
ARC
  5
32C9E
  8
0
 10
6206.6989294194199829
 20
340.660409811201589
 30
0.0
 40
0.062372187580646
 50
289.1571432213340813
 51
322.2992656292831271
  0
ARC
  5
32C9F
  8
0
 10
6206.697020895670903
 20
340.6642680190471992
 30
0.0
 40
0.0666451987099376
 50
250.3814232749892028
 51
289.6185767250108256
  0
ARC
  5
32CA0
  8
0
 10
6206.6932542177291907
 20
340.6823386280763089
 30
0.0
 40
0.0607468550403033
 50
113.7250068784809969
 51
179.3198993822443867
  0
ARC
  5
32CA1
  8
0
 10
6206.6955882047041086
 20
340.677222237350918
 30
0.0
 40
0.0663699642005073
 50
66.2075119028654342
 51
113.7924880971345942
  0
ARC
  5
32CA2
  8
0
 10
6206.6978519593076271
 20
340.680330675228106
 30
0.0
 40
0.0626177830667692
 50
0.7484764007081255
 51
66.9554070814897955
  0
ARC
  5
32CA3
  8
0
 10
6207.1153225904035935
 20
340.7800665470625745
 30
0.0
 40
0.025151831817976
 50
47.0794035234443484
 51
137.2293851009021068
  0
ARC
  5
32CA4
  8
0
 10
6207.1186367429208985
 20
340.7832387505798124
 30
0.0
 40
0.0205736767652026
 50
308.0031433435494819
 51
47.8222354159734593
  0
ARC
  5
32CA5
  8
0
 10
6207.1156220879911416
 20
340.7869743069630886
 30
0.0
 40
0.0253734586804618
 50
235.9695460816554942
 51
308.1735827125937135
  0
ARC
  5
32CA6
  8
0
 10
6207.1124520003086218
 20
340.783493095536187
 30
0.0
 40
0.0207254763170945
 50
138.7943962218155889
 51
237.8469197928839947
  0
LINE
  5
32CA7
  8
0
 10
6207.0515021076917037
 20
340.8187195823041975
 30
0.0
 11
6207.0515021083920146
 21
340.7945207637042131
 31
0.0
  0
ARC
  5
32CA8
  8
0
 10
6207.1115466545006711
 20
340.7950375850185765
 30
0.0
 40
0.0600467702859216
 50
180.4931496824096087
 51
218.5282014186022082
  0
ARC
  5
32CA9
  8
0
 10
6207.1152062937717346
 20
340.7986187960243001
 30
0.0
 40
0.0651425391162149
 50
218.9873276899419068
 51
250.6618081868423928
  0
LINE
  5
32CAA
  8
0
 10
6207.1794548650659635
 20
340.816808557988395
 30
0.0
 11
6207.1794548643911185
 21
340.7934864049041721
 31
0.0
  0
ARC
  5
32CAB
  8
0
 10
6207.1205418300660313
 20
340.7938064742265851
 30
0.0
 40
0.0589139037727533
 50
322.4814183338536964
 51
359.688720142970908
  0
ARC
  5
32CAC
  8
0
 10
6207.1179198849558816
 20
340.7960697174946745
 30
0.0
 40
0.062372187580646
 50
289.1571432213340813
 51
322.2992656292831271
  0
ARC
  5
32CAD
  8
0
 10
6207.1160113612049827
 20
340.7999279253403984
 30
0.0
 40
0.0666451987099376
 50
250.3814232749892028
 51
289.6185767250108256
  0
ARC
  5
32CAE
  8
0
 10
6207.1122446832632704
 20
340.8179985343696217
 30
0.0
 40
0.0607468550403033
 50
113.7250068784809969
 51
179.3198993822443867
  0
ARC
  5
32CAF
  8
0
 10
6207.1145786702381884
 20
340.8128821436441171
 30
0.0
 40
0.0663699642005073
 50
66.2075119028654342
 51
113.7924880971345942
  0
ARC
  5
32CB0
  8
0
 10
6207.1168424248417068
 20
340.8159905815213051
 30
0.0
 40
0.0626177830667692
 50
0.7484764007081255
 51
66.9554070814897955
  0
ARC
  5
32CB1
  8
0
 10
6206.7948252690275694
 20
340.2880924174361894
 30
0.0
 40
0.025151831817976
 50
47.0794035234443484
 51
137.2293851009021068
  0
ARC
  5
32CB2
  8
0
 10
6206.7981394215448745
 20
340.2912646209534273
 30
0.0
 40
0.0205736767652026
 50
308.0031433435494819
 51
47.8222354159734593
  0
ARC
  5
32CB3
  8
0
 10
6206.795124766616027
 20
340.2950001773367035
 30
0.0
 40
0.0253734586804618
 50
235.9695460816554942
 51
308.1735827125937135
  0
ARC
  5
32CB4
  8
0
 10
6206.7919546789344167
 20
340.2915189659099156
 30
0.0
 40
0.0207254763170945
 50
138.7943962218155889
 51
237.8469197928839947
  0
LINE
  5
32CB5
  8
0
 10
6206.7310047863156797
 20
340.3267454526778124
 30
0.0
 11
6206.7310047870159906
 21
340.302546634077828
 31
0.0
  0
ARC
  5
32CB6
  8
0
 10
6206.7910493331246471
 20
340.3030634553921914
 30
0.0
 40
0.0600467702859216
 50
180.4931496824129056
 51
218.5282014186022082
  0
ARC
  5
32CB7
  8
0
 10
6206.7947089723957106
 20
340.306644666397915
 30
0.0
 40
0.0651425391162149
 50
218.9873276899419068
 51
250.6618081868423928
  0
LINE
  5
32CB8
  8
0
 10
6206.8589575436899395
 20
340.3248344283621236
 30
0.0
 11
6206.8589575430150944
 21
340.301512275277787
 31
0.0
  0
ARC
  5
32CB9
  8
0
 10
6206.8000445086909167
 20
340.3018323446003137
 30
0.0
 40
0.0589139037727533
 50
322.4814183338536964
 51
359.688720142970908
  0
ARC
  5
32CBA
  8
0
 10
6206.7974225635798575
 20
340.3040955878684031
 30
0.0
 40
0.062372187580646
 50
289.1571432213340813
 51
322.2992656292831271
  0
ARC
  5
32CBB
  8
0
 10
6206.7955140398280491
 20
340.307953795714127
 30
0.0
 40
0.0666451987099376
 50
250.3814232749892028
 51
289.6185767250108256
  0
ARC
  5
32CBC
  8
0
 10
6206.7917473618881559
 20
340.3260244047431797
 30
0.0
 40
0.0607468550403033
 50
113.7250068784809969
 51
179.3198993822443867
  0
ARC
  5
32CBD
  8
0
 10
6206.7940813488639833
 20
340.3209080140177889
 30
0.0
 40
0.0663699642005073
 50
66.2075119028654342
 51
113.7924880971345942
  0
ARC
  5
32CBE
  8
0
 10
6206.7963451034684113
 20
340.32401645189492
 30
0.0
 40
0.0626177830667692
 50
0.7484764007081255
 51
66.9554070814897955
  0
ARC
  5
32CBF
  8
0
 10
6207.208086835926224
 20
340.3410544454727074
 30
0.0
 40
0.025151831817976
 50
47.0794035234443484
 51
137.2293851009021068
  0
ARC
  5
32CC0
  8
0
 10
6207.2114009884444386
 20
340.3442266489897747
 30
0.0
 40
0.0205736767652026
 50
308.0031433435494819
 51
47.8222354159734593
  0
ARC
  5
32CC1
  8
0
 10
6207.2083863335137721
 20
340.3479622053731077
 30
0.0
 40
0.0253734586804618
 50
235.9695460816554942
 51
308.1735827125937135
  0
ARC
  5
32CC2
  8
0
 10
6207.2052162458312523
 20
340.3444809939462061
 30
0.0
 40
0.0207254763170945
 50
138.7943962218155889
 51
237.8469197928839947
  0
LINE
  5
32CC3
  8
0
 10
6207.1442663532143342
 20
340.3797074807142167
 30
0.0
 11
6207.1442663539137357
 21
340.3555086621142891
 31
0.0
  0
ARC
  5
32CC4
  8
0
 10
6207.2043109000233017
 20
340.3560254834287093
 30
0.0
 40
0.0600467702859216
 50
180.4931496824129056
 51
218.5282014186022082
  0
ARC
  5
32CC5
  8
0
 10
6207.2079705392943652
 20
340.3596066944343193
 30
0.0
 40
0.0651425391162149
 50
218.9873276899419068
 51
250.6618081868423928
  0
LINE
  5
32CC6
  8
0
 10
6207.2722191105876846
 20
340.3777964563985279
 30
0.0
 11
6207.2722191099128395
 21
340.354474303314305
 31
0.0
  0
ARC
  5
32CC7
  8
0
 10
6207.2133060755886618
 20
340.354794372636718
 30
0.0
 40
0.0589139037727533
 50
322.4814183338536964
 51
359.688720142970908
  0
ARC
  5
32CC8
  8
0
 10
6207.2106841304776026
 20
340.3570576159048073
 30
0.0
 40
0.062372187580646
 50
289.1571432213340813
 51
322.2992656292831271
  0
ARC
  5
32CC9
  8
0
 10
6207.2087756067267037
 20
340.3609158237504744
 30
0.0
 40
0.0666451987099376
 50
250.3814232749892028
 51
289.6185767250108256
  0
ARC
  5
32CCA
  8
0
 10
6207.2050089287859009
 20
340.3789864327796977
 30
0.0
 40
0.0607468550403033
 50
113.7250068784809969
 51
179.3198993822443867
  0
ARC
  5
32CCB
  8
0
 10
6207.2073429157608189
 20
340.3738700420541932
 30
0.0
 40
0.0663699642005073
 50
66.2075119028654342
 51
113.7924880971345942
  0
ARC
  5
32CCC
  8
0
 10
6207.2096066703652468
 20
340.3769784799313243
 30
0.0
 40
0.0626177830667692
 50
0.7484764007081255
 51
66.9554070814897955
  0
ARC
  5
32CCD
  8
0
 10
6207.6327624680479857
 20
340.3979308469869238
 30
0.0
 40
0.025151831817976
 50
47.0794035234443484
 51
137.2293851009021068
  0
ARC
  5
32CCE
  8
0
 10
6207.6360766205643813
 20
340.4011030505041049
 30
0.0
 40
0.0205736767652026
 50
308.0031433435494819
 51
47.8222354159734593
  0
ARC
  5
32CCF
  8
0
 10
6207.6330619656337149
 20
340.4048386068874947
 30
0.0
 40
0.0253734586804618
 50
235.9695460816554942
 51
308.1735827125937135
  0
ARC
  5
32CD0
  8
0
 10
6207.6298918779521046
 20
340.4013573954605931
 30
0.0
 40
0.0207254763170945
 50
138.7943962218155889
 51
237.8469197928839947
  0
LINE
  5
32CD1
  8
0
 10
6207.5689419853351865
 20
340.4365838822286037
 30
0.0
 11
6207.5689419860336784
 21
340.4123850636285056
 31
0.0
  0
ARC
  5
32CD2
  8
0
 10
6207.6289865321432444
 20
340.4129018849429258
 30
0.0
 40
0.0600467702859216
 50
180.4931496824129056
 51
218.5282014186022082
  0
ARC
  5
32CD3
  8
0
 10
6207.6326461714152174
 20
340.4164830959485926
 30
0.0
 40
0.0651425391162149
 50
218.9873276899419068
 51
250.6618081868423928
  0
LINE
  5
32CD4
  8
0
 10
6207.6968947427076273
 20
340.4346728579128012
 30
0.0
 11
6207.6968947420336917
 21
340.4113507048285214
 31
0.0
  0
ARC
  5
32CD5
  8
0
 10
6207.6379817077086045
 20
340.4116707741509913
 30
0.0
 40
0.0589139037727533
 50
322.4814183338536964
 51
359.688720142970908
  0
ARC
  5
32CD6
  8
0
 10
6207.6353597625993643
 20
340.4139340174190806
 30
0.0
 40
0.062372187580646
 50
289.1571432213340813
 51
322.2992656292831271
  0
ARC
  5
32CD7
  8
0
 10
6207.6334512388475559
 20
340.4177922252646908
 30
0.0
 40
0.0666451987099376
 50
250.3814232749892028
 51
289.6185767250108256
  0
ARC
  5
32CD8
  8
0
 10
6207.6296845609067532
 20
340.4358628342939141
 30
0.0
 40
0.0607468550403033
 50
113.7250068784809969
 51
179.3198993822443867
  0
ARC
  5
32CD9
  8
0
 10
6207.6320185478816711
 20
340.4307464435685233
 30
0.0
 40
0.0663699642005073
 50
66.2075119028654342
 51
113.7924880971345942
  0
ARC
  5
32CDA
  8
0
 10
6207.6342823024851896
 20
340.4338548814457113
 30
0.0
 40
0.0626177830667692
 50
0.7484764007081255
 51
66.9554070814897955
  0
ARC
  5
32CDB
  8
0
 10
6207.7861564679278672
 20
340.1735740377555999
 30
0.0
 40
0.025151831817976
 50
47.0794035234443484
 51
137.2293851009021068
  0
ARC
  5
32CDC
  8
0
 10
6207.7894706204451722
 20
340.1767462412727241
 30
0.0
 40
0.0205736767652026
 50
308.0031433435494819
 51
47.8222354159734593
  0
ARC
  5
32CDD
  8
0
 10
6207.7864559655154153
 20
340.1804817976560003
 30
0.0
 40
0.0253734586804618
 50
235.9695460816554942
 51
308.1735827125937135
  0
ARC
  5
32CDE
  8
0
 10
6207.783285877833805
 20
340.1770005862290986
 30
0.0
 40
0.0207254763170945
 50
138.7943962218155889
 51
237.8469197928839947
  0
LINE
  5
32CDF
  8
0
 10
6207.7223359852159774
 20
340.2122270729971092
 30
0.0
 11
6207.7223359859153788
 21
340.1880282543971248
 31
0.0
  0
ARC
  5
32CE0
  8
0
 10
6207.7823805320249448
 20
340.1885450757116018
 30
0.0
 40
0.0600467702859216
 50
180.4931496824129056
 51
218.5282014186022082
  0
ARC
  5
32CE1
  8
0
 10
6207.7860401712960083
 20
340.1921262867172118
 30
0.0
 40
0.0651425391162149
 50
218.9873276899419068
 51
250.6618081868423928
  0
LINE
  5
32CE2
  8
0
 10
6207.8502887425911467
 20
340.2103160486813067
 30
0.0
 11
6207.8502887419163017
 21
340.1869938955971975
 31
0.0
  0
ARC
  5
32CE3
  8
0
 10
6207.791375707590305
 20
340.1873139649196105
 30
0.0
 40
0.0589139037727533
 50
322.4814183338536964
 51
359.688720142970908
  0
ARC
  5
32CE4
  8
0
 10
6207.7887537624792458
 20
340.1895772081875862
 30
0.0
 40
0.062372187580646
 50
289.1571432213340813
 51
322.2992656292831271
  0
ARC
  5
32CE5
  8
0
 10
6207.7868452387292564
 20
340.1934354160334237
 30
0.0
 40
0.0666451987099376
 50
250.3814232749892028
 51
289.6185767250108256
  0
ARC
  5
32CE6
  8
0
 10
6207.7830785607884536
 20
340.2115060250625902
 30
0.0
 40
0.0607468550403033
 50
113.7250068784809969
 51
179.3198993822443867
  0
ARC
  5
32CE7
  8
0
 10
6207.7854125477633715
 20
340.2063896343370857
 30
0.0
 40
0.0663699642005073
 50
66.2075119028654342
 51
113.7924880971345942
  0
ARC
  5
32CE8
  8
0
 10
6207.7876763023659805
 20
340.2094980722142168
 30
0.0
 40
0.0626177830667692
 50
0.7484764007081255
 51
66.9554070814897955
  0
ARC
  5
32CE9
  8
0
 10
6207.4759533106016534
 20
339.9503633226403281
 30
0.0
 40
0.025151831817976
 50
47.0794035234443484
 51
137.2293851009021068
  0
ARC
  5
32CEA
  8
0
 10
6207.4792674631180489
 20
339.9535355261575091
 30
0.0
 40
0.0205736767652026
 50
308.0031433435494819
 51
47.8222354159734593
  0
ARC
  5
32CEB
  8
0
 10
6207.476252808188292
 20
339.9572710825407853
 30
0.0
 40
0.0253734586804618
 50
235.9695460816554942
 51
308.1735827125937135
  0
ARC
  5
32CEC
  8
0
 10
6207.4730827205066817
 20
339.9537898711138837
 30
0.0
 40
0.0207254763170945
 50
138.7943962218155889
 51
237.8469197928839947
  0
LINE
  5
32CED
  8
0
 10
6207.4121328278888541
 20
339.9890163578818942
 30
0.0
 11
6207.4121328285882555
 21
339.9648175392819098
 31
0.0
  0
ARC
  5
32CEE
  8
0
 10
6207.4721773746978215
 20
339.9653343605962732
 30
0.0
 40
0.0600467702859216
 50
180.4931496824129056
 51
218.5282014186022082
  0
ARC
  5
32CEF
  8
0
 10
6207.475837013968885
 20
339.9689155716019968
 30
0.0
 40
0.0651425391162149
 50
218.9873276899419068
 51
250.6618081868423928
  0
LINE
  5
32CF0
  8
0
 10
6207.5400855852640234
 20
339.9871053335662054
 30
0.0
 11
6207.5400855845891783
 21
339.9637831804819257
 31
0.0
  0
ARC
  5
32CF1
  8
0
 10
6207.4811725502631816
 20
339.9641032498043955
 30
0.0
 40
0.0589139037727533
 50
322.4814183338536964
 51
359.688720142970908
  0
ARC
  5
32CF2
  8
0
 10
6207.4785506051530319
 20
339.9663664930724849
 30
0.0
 40
0.062372187580646
 50
289.1571432213340813
 51
322.2992656292831271
  0
ARC
  5
32CF3
  8
0
 10
6207.476642081402133
 20
339.9702247009180951
 30
0.0
 40
0.0666451987099376
 50
250.3814232749892028
 51
289.6185767250108256
  0
ARC
  5
32CF4
  8
0
 10
6207.4728754034604208
 20
339.9882953099473184
 30
0.0
 40
0.0607468550403033
 50
113.7250068784809969
 51
179.3198993822443867
  0
ARC
  5
32CF5
  8
0
 10
6207.4752093904362482
 20
339.9831789192219276
 30
0.0
 40
0.0663699642005073
 50
66.2075119028654342
 51
113.7924880971345942
  0
ARC
  5
32CF6
  8
0
 10
6207.4774731450397667
 20
339.9862873570991155
 30
0.0
 40
0.0626177830667692
 50
0.7484764007081255
 51
66.9554070814897955
  0
ARC
  5
32CF7
  8
0
 10
6206.9861719261944017
 20
339.956482406801797
 30
0.0
 40
0.025151831817976
 50
47.0794035234443484
 51
137.2293851009021068
  0
ARC
  5
32CF8
  8
0
 10
6206.9894860787107973
 20
339.959654610318978
 30
0.0
 40
0.0205736767652026
 50
308.0031433435494819
 51
47.8222354159734593
  0
ARC
  5
32CF9
  8
0
 10
6206.9864714237819499
 20
339.9633901667024247
 30
0.0
 40
0.0253734586804618
 50
235.9695460816554942
 51
308.1735827125937135
  0
ARC
  5
32CFA
  8
0
 10
6206.983301336101249
 20
339.9599089552755231
 30
0.0
 40
0.0207254763170945
 50
138.7943962218155889
 51
237.8469197928839947
  0
LINE
  5
32CFB
  8
0
 10
6206.922351443480693
 20
339.9951354420434768
 30
0.0
 11
6206.9223514441819134
 21
339.9709366234433787
 31
0.0
  0
ARC
  5
32CFC
  8
0
 10
6206.9823959902923889
 20
339.9714534447577989
 30
0.0
 40
0.0600467702859216
 50
180.4931496824129056
 51
218.5282014186022082
  0
ARC
  5
32CFD
  8
0
 10
6206.9860556295634524
 20
339.9750346557635226
 30
0.0
 40
0.0651425391162149
 50
218.9873276899419068
 51
250.6618081868423928
  0
LINE
  5
32CFE
  8
0
 10
6207.0503042008567718
 20
339.9932244177276743
 30
0.0
 11
6207.0503042001819267
 21
339.9699022646433946
 31
0.0
  0
ARC
  5
32CFF
  8
0
 10
6206.9913911658568395
 20
339.9702223339659213
 30
0.0
 40
0.0589139037727533
 50
322.4814183338536964
 51
359.688720142970908
  0
ARC
  5
32D00
  8
0
 10
6206.9887692207457803
 20
339.9724855772340106
 30
0.0
 40
0.062372187580646
 50
289.1571432213340813
 51
322.2992656292831271
  0
ARC
  5
32D01
  8
0
 10
6206.9868606969957909
 20
339.9763437850796777
 30
0.0
 40
0.0666451987099376
 50
250.3814232749892028
 51
289.6185767250108256
  0
ARC
  5
32D02
  8
0
 10
6206.9830940190540787
 20
339.9944143941087873
 30
0.0
 40
0.0607468550403033
 50
113.7250068784809969
 51
179.3198993822443867
  0
ARC
  5
32D03
  8
0
 10
6206.9854280060289966
 20
339.9892980033833965
 30
0.0
 40
0.0663699642005073
 50
66.2075119028654342
 51
113.7924880971345942
  0
ARC
  5
32D04
  8
0
 10
6206.9876917606343341
 20
339.9924064412605844
 30
0.0
 40
0.0626177830667692
 50
0.7484764007081255
 51
66.9554070814897955
  0
ARC
  5
32D05
  8
0
 10
6207.2614016158322556
 20
339.6639628150591079
 30
0.0
 40
0.025151831817976
 50
47.0794035234443484
 51
137.2293851009021068
  0
ARC
  5
32D06
  8
0
 10
6207.2647157683486512
 20
339.667135018576289
 30
0.0
 40
0.0205736767652026
 50
308.0031433435494819
 51
47.8222354159734593
  0
ARC
  5
32D07
  8
0
 10
6207.2617011134188942
 20
339.670870574959622
 30
0.0
 40
0.0253734586804618
 50
235.9695460816554942
 51
308.1735827125937135
  0
ARC
  5
32D08
  8
0
 10
6207.2585310257372839
 20
339.6673893635327204
 30
0.0
 40
0.0207254763170945
 50
138.7943962218155889
 51
237.8469197928839947
  0
LINE
  5
32D09
  8
0
 10
6207.1975811331185469
 20
339.7026158503006741
 30
0.0
 11
6207.1975811338188578
 21
339.6784170317006897
 31
0.0
  0
ARC
  5
32D0A
  8
0
 10
6207.2576256799293333
 20
339.6789338530151099
 30
0.0
 40
0.0600467702859216
 50
180.4931496824129056
 51
218.5282014186022082
  0
ARC
  5
32D0B
  8
0
 10
6207.2612853192013063
 20
339.6825150640207767
 30
0.0
 40
0.0651425391162149
 50
218.9873276899419068
 51
250.6618081868423928
  0
LINE
  5
32D0C
  8
0
 10
6207.3255338904928067
 20
339.7007048259848716
 30
0.0
 11
6207.3255338898188711
 21
339.6773826729007055
 31
0.0
  0
ARC
  5
32D0D
  8
0
 10
6207.2666208554946934
 20
339.6777027422231754
 30
0.0
 40
0.0589139037727533
 50
322.4814183338536964
 51
359.688720142970908
  0
ARC
  5
32D0E
  8
0
 10
6207.2639989103836342
 20
339.6799659854913216
 30
0.0
 40
0.062372187580646
 50
289.1571432213340813
 51
322.2992656292831271
  0
ARC
  5
32D0F
  8
0
 10
6207.2620903866327353
 20
339.6838241933369886
 30
0.0
 40
0.0666451987099376
 50
250.3814232749892028
 51
289.6185767250108256
  0
ARC
  5
32D10
  8
0
 10
6207.258323708692842
 20
339.7018948023660982
 30
0.0
 40
0.0607468550403033
 50
113.7250068784809969
 51
179.3198993822443867
  0
ARC
  5
32D11
  8
0
 10
6207.2606576956668505
 20
339.6967784116405937
 30
0.0
 40
0.0663699642005073
 50
66.2075119028654342
 51
113.7924880971345942
  0
ARC
  5
32D12
  8
0
 10
6207.262921450270369
 20
339.6998868495177817
 30
0.0
 40
0.0626177830667692
 50
0.7484764007081255
 51
66.9554070814897955
  0
ARC
  5
32D13
  8
0
 10
6207.606547132482774
 20
339.422734884342276
 30
0.0
 40
0.025151831817976
 50
47.0794035234443484
 51
137.2293851009021068
  0
ARC
  5
32D14
  8
0
 10
6207.6098612850000791
 20
339.4259070878594002
 30
0.0
 40
0.0205736767652026
 50
308.0031433435494819
 51
47.8222354159734593
  0
ARC
  5
32D15
  8
0
 10
6207.6068466300703221
 20
339.4296426442426764
 30
0.0
 40
0.0253734586804618
 50
235.9695460816554942
 51
308.1735827125937135
  0
ARC
  5
32D16
  8
0
 10
6207.6036765423878023
 20
339.4261614328158885
 30
0.0
 40
0.0207254763170945
 50
138.7943962218155889
 51
237.8469197928839947
  0
LINE
  5
32D17
  8
0
 10
6207.5427266497690653
 20
339.4613879195837853
 30
0.0
 11
6207.5427266504693762
 21
339.4371891009839146
 31
0.0
  0
ARC
  5
32D18
  8
0
 10
6207.6027711965789422
 20
339.437705922298278
 30
0.0
 40
0.0600467702859216
 50
180.4931496824129056
 51
218.5282014186022082
  0
ARC
  5
32D19
  8
0
 10
6207.6064308358500057
 20
339.4412871333038879
 30
0.0
 40
0.0651425391162149
 50
218.9873276899419068
 51
250.6618081868423928
  0
LINE
  5
32D1A
  8
0
 10
6207.6706794071442346
 20
339.4594768952680965
 30
0.0
 11
6207.6706794064693895
 21
339.4361547421838736
 31
0.0
  0
ARC
  5
32D1B
  8
0
 10
6207.6117663721452118
 20
339.4364748115064003
 30
0.0
 40
0.0589139037727533
 50
322.4814183338536964
 51
359.688720142970908
  0
ARC
  5
32D1C
  8
0
 10
6207.6091444270341526
 20
339.438738054774376
 30
0.0
 40
0.062372187580646
 50
289.1571432213340813
 51
322.2992656292831271
  0
ARC
  5
32D1D
  8
0
 10
6207.6072359032832537
 20
339.4425962626200999
 30
0.0
 40
0.0666451987099376
 50
250.3814232749892028
 51
289.6185767250108256
  0
ARC
  5
32D1E
  8
0
 10
6207.603469225342451
 20
339.4606668716493232
 30
0.0
 40
0.0607468550403033
 50
113.7250068784809969
 51
179.3198993822443867
  0
ARC
  5
32D1F
  8
0
 10
6207.6058032123182784
 20
339.4555504809238187
 30
0.0
 40
0.0663699642005073
 50
66.2075119028654342
 51
113.7924880971345942
  0
ARC
  5
32D20
  8
0
 10
6207.6080669669208874
 20
339.4586589188008929
 30
0.0
 40
0.0626177830667692
 50
0.7484764007081255
 51
66.9554070814897955
  0
ARC
  5
32D21
  8
0
 10
6207.8857672590311267
 20
339.6523991914468183
 30
0.0
 40
0.025151831817976
 50
47.0794035234443484
 51
137.2293851009021068
  0
ARC
  5
32D22
  8
0
 10
6207.8890814115493413
 20
339.6555713949639994
 30
0.0
 40
0.0205736767652026
 50
308.0031433435494819
 51
47.8222354159734593
  0
ARC
  5
32D23
  8
0
 10
6207.8860667566186748
 20
339.6593069513472756
 30
0.0
 40
0.0253734586804618
 50
235.9695460816554942
 51
308.1735827125937135
  0
ARC
  5
32D24
  8
0
 10
6207.8828966689370645
 20
339.655825739920374
 30
0.0
 40
0.0207254763170945
 50
138.7943962218155889
 51
237.8469197928839947
  0
LINE
  5
32D25
  8
0
 10
6207.8219467763183275
 20
339.6910522266883845
 30
0.0
 11
6207.8219467770186384
 21
339.6668534080884001
 31
0.0
  0
ARC
  5
32D26
  8
0
 10
6207.8819913231282044
 20
339.6673702294028203
 30
0.0
 40
0.0600467702859216
 50
180.4931496824129056
 51
218.5282014186022082
  0
ARC
  5
32D27
  8
0
 10
6207.8856509623992679
 20
339.6709514404083734
 30
0.0
 40
0.0651425391162149
 50
218.9873276899419068
 51
250.6618081868423928
  0
LINE
  5
32D28
  8
0
 10
6207.9498995336925873
 20
339.689141202372582
 30
0.0
 11
6207.9498995330186517
 21
339.665819049288416
 31
0.0
  0
ARC
  5
32D29
  8
0
 10
6207.8909864986935645
 20
339.6661391186108858
 30
0.0
 40
0.0589139037727533
 50
322.4814183338536964
 51
359.688720142970908
  0
ARC
  5
32D2A
  8
0
 10
6207.8883645535815958
 20
339.6684023618789183
 30
0.0
 40
0.062372187580646
 50
289.1571432213340813
 51
322.2992656292831271
  0
ARC
  5
32D2B
  8
0
 10
6207.8864560298316064
 20
339.6722605697246991
 30
0.0
 40
0.0666451987099376
 50
250.3814232749892028
 51
289.6185767250108256
  0
ARC
  5
32D2C
  8
0
 10
6207.8826893518898942
 20
339.6903311787538087
 30
0.0
 40
0.0607468550403033
 50
113.7250068784809969
 51
179.3198993822443867
  0
ARC
  5
32D2D
  8
0
 10
6207.8850233388657216
 20
339.6852147880284178
 30
0.0
 40
0.0663699642005073
 50
66.2075119028654342
 51
113.7924880971345942
  0
ARC
  5
32D2E
  8
0
 10
6207.8872870934701496
 20
339.6883232259054921
 30
0.0
 40
0.0626177830667692
 50
0.7484764007081255
 51
66.9554070814897955
  0
ARC
  5
32D2F
  8
0
 10
6208.5034062816539517
 20
339.8166824231067267
 30
0.0
 40
0.025151831817976
 50
47.0794035234443484
 51
137.2293851009021068
  0
ARC
  5
32D30
  8
0
 10
6208.5067204341712568
 20
339.8198546266239077
 30
0.0
 40
0.0205736767652026
 50
308.0031433435494819
 51
47.8222354159734593
  0
ARC
  5
32D31
  8
0
 10
6208.5037057792433188
 20
339.8235901830071839
 30
0.0
 40
0.0253734586804618
 50
235.9695460816554942
 51
308.1735827125937135
  0
ARC
  5
32D32
  8
0
 10
6208.5005356915598895
 20
339.8201089715802823
 30
0.0
 40
0.0207254763170945
 50
138.7943962218155889
 51
237.8469197928839947
  0
LINE
  5
32D33
  8
0
 10
6208.439585798942062
 20
339.8553354583484065
 30
0.0
 11
6208.4395857996405539
 21
339.8311366397483084
 31
0.0
  0
ARC
  5
32D34
  8
0
 10
6208.4996303457510294
 20
339.8316534610626718
 30
0.0
 40
0.0600467702859216
 50
180.4931496824129056
 51
218.5282014186022082
  0
ARC
  5
32D35
  8
0
 10
6208.5032899850230024
 20
339.8352346720683954
 30
0.0
 40
0.0651425391162149
 50
218.9873276899419068
 51
250.6618081868423928
  0
LINE
  5
32D36
  8
0
 10
6208.5675385563163218
 20
339.8534244340324904
 30
0.0
 11
6208.5675385556405672
 21
339.8301022809483243
 31
0.0
  0
ARC
  5
32D37
  8
0
 10
6208.5086255213182085
 20
339.8304223502707941
 30
0.0
 40
0.0589139037727533
 50
322.4814183338536964
 51
359.688720142970908
  0
ARC
  5
32D38
  8
0
 10
6208.5060035762062398
 20
339.8326855935388835
 30
0.0
 40
0.062372187580646
 50
289.1571432213340813
 51
322.2992656292831271
  0
ARC
  5
32D39
  8
0
 10
6208.5040950524562504
 20
339.8365438013846074
 30
0.0
 40
0.0666451987099376
 50
250.3814232749892028
 51
289.6185767250108256
  0
ARC
  5
32D3A
  8
0
 10
6208.5003283745154476
 20
339.854614410413717
 30
0.0
 40
0.0607468550403033
 50
113.7250068784809969
 51
179.3198993822443867
  0
ARC
  5
32D3B
  8
0
 10
6208.5026623614885466
 20
339.8494980196883262
 30
0.0
 40
0.0663699642005073
 50
66.2075119028654342
 51
113.7924880971345942
  0
ARC
  5
32D3C
  8
0
 10
6208.5049261160929746
 20
339.8526064575654004
 30
0.0
 40
0.0626177830667692
 50
0.7484764007081255
 51
66.9554070814897955
  0
ARC
  5
32D3D
  8
0
 10
6208.388881057891922
 20
339.487599388076319
 30
0.0
 40
0.025151831817976
 50
47.0794035234443484
 51
137.2293851009021068
  0
ARC
  5
32D3E
  8
0
 10
6208.392195210411046
 20
339.4907715915935
 30
0.0
 40
0.0205736767652026
 50
308.0031433435494819
 51
47.8222354159734593
  0
ARC
  5
32D3F
  8
0
 10
6208.389180555481289
 20
339.4945071479767762
 30
0.0
 40
0.0253734586804618
 50
235.9695460816554942
 51
308.1735827125937135
  0
ARC
  5
32D40
  8
0
 10
6208.3860104677987692
 20
339.4910259365498746
 30
0.0
 40
0.0207254763170945
 50
138.7943962218155889
 51
237.8469197928839947
  0
LINE
  5
32D41
  8
0
 10
6208.3250605751800322
 20
339.5262524233178851
 30
0.0
 11
6208.3250605758803431
 21
339.5020536047179007
 31
0.0
  0
ARC
  5
32D42
  8
0
 10
6208.3851051219899091
 20
339.5025704260323209
 30
0.0
 40
0.0600467702859216
 50
180.4931496824129056
 51
218.5282014186022082
  0
ARC
  5
32D43
  8
0
 10
6208.3887647612609726
 20
339.5061516370379877
 30
0.0
 40
0.0651425391162149
 50
218.9873276899419068
 51
250.6618081868423928
  0
LINE
  5
32D44
  8
0
 10
6208.4530133325552015
 20
339.5243413990021963
 30
0.0
 11
6208.4530133318803564
 21
339.5010192459179166
 31
0.0
  0
ARC
  5
32D45
  8
0
 10
6208.3941002975561787
 20
339.5013393152403864
 30
0.0
 40
0.0589139037727533
 50
322.4814183338536964
 51
359.688720142970908
  0
ARC
  5
32D46
  8
0
 10
6208.39147835244421
 20
339.5036025585084758
 30
0.0
 40
0.062372187580646
 50
289.1571432213340813
 51
322.2992656292831271
  0
ARC
  5
32D47
  8
0
 10
6208.3895698286942206
 20
339.507460766354086
 30
0.0
 40
0.0666451987099376
 50
250.3814232749892028
 51
289.6185767250108256
  0
ARC
  5
32D48
  8
0
 10
6208.3858031507515989
 20
339.5255313753833093
 30
0.0
 40
0.0607468550403033
 50
113.7250068784809969
 51
179.3198993822443867
  0
ARC
  5
32D49
  8
0
 10
6208.3881371377283358
 20
339.5204149846579185
 30
0.0
 40
0.0663699642005073
 50
66.2075119028654342
 51
113.7924880971345942
  0
ARC
  5
32D4A
  8
0
 10
6208.3904008923318543
 20
339.5235234225351064
 30
0.0
 40
0.0626177830667692
 50
0.7484764007081255
 51
66.9554070814897955
  0
ARC
  5
32D4B
  8
0
 10
6208.1000433451490608
 20
341.5345418938796911
 30
0.0
 40
0.062124754371658
 50
63.5796317346450266
 51
114.5175343971990003
  0
ARC
  5
32D4C
  8
0
 10
6208.1039128902330049
 20
341.5412615924504962
 30
0.0
 40
0.0543872140183422
 50
25.7427375196917083
 51
64.0804949395578802
  0
ARC
  5
32D4D
  8
0
 10
6208.1142226488209417
 20
341.5467601430844979
 30
0.0
 40
0.0427151144803728
 50
328.5955310525901041
 51
25.1055994729131804
  0
ARC
  5
32D4E
  8
0
 10
6208.107913983756589
 20
341.5514252547775982
 30
0.0
 40
0.0505352742961977
 50
288.8481718402932188
 51
327.8081825660775053
  0
ARC
  5
32D4F
  8
0
 10
6208.1036890849063639
 20
341.5625406676288094
 30
0.0
 40
0.0624208877554951
 50
242.631760601184908
 51
289.2221149819602033
  0
ARC
  5
32D50
  8
0
 10
6208.0989681994033162
 20
341.5547723404436056
 30
0.0
 40
0.0533554576207541
 50
204.1078580954381039
 51
243.2989799780577869
  0
ARC
  5
32D51
  8
0
 10
6208.0893457636739186
 20
341.550063510292091
 30
0.0
 40
0.0426505458171667
 50
144.8731802985060142
 51
203.6137858440980892
  0
ARC
  5
32D52
  8
0
 10
6208.0952007816513287
 20
341.5457404868229219
 30
0.0
 40
0.0499269458574633
 50
114.7942988284874986
 51
144.6817518285743915
  0
ARC
  5
32D53
  8
0
 10
6208.1022371188410034
 20
341.5491744286550215
 30
0.0
 40
0.1427795134926038
 50
64.4812564527517083
 51
115.0549819921421033
  0
ARC
  5
32D54
  8
0
 10
6208.1127593476849142
 20
341.5667549141480208
 30
0.0
 40
0.1223961505890889
 50
25.5590957076707603
 51
65.3809880332431561
  0
ARC
  5
32D55
  8
0
 10
6208.1327205286797835
 20
341.5768306696020886
 30
0.0
 40
0.1000423936036564
 50
325.6303991549200987
 51
25.2855306087136107
  0
ARC
  5
32D56
  8
0
 10
6208.1035563719324273
 20
341.6001838129029125
 30
0.0
 40
0.1373271943605248
 50
295.803597691865491
 51
324.4571024754588962
  0
ARC
  5
32D57
  8
0
 10
6208.1072458587923393
 20
341.5969561810226764
 30
0.0
 40
0.1328292260330097
 50
237.9132737931755912
 51
294.9768170086873056
  0
ARC
  5
32D58
  8
0
 10
6208.1064577877796182
 20
341.5952124450419092
 30
0.0
 40
0.1309334846328058
 50
201.4027645186789073
 51
237.8001173034421925
  0
ARC
  5
32D59
  8
0
 10
6208.077511675376627
 20
341.5828563053672724
 30
0.0
 40
0.0994789748259903
 50
160.8214071571024135
 51
200.860794633980106
  0
ARC
  5
32D5A
  8
0
 10
6208.0897441920460551
 20
341.5757769827728225
 30
0.0
 40
0.1133896212727653
 50
115.0289546728980952
 51
159.4732109443037871
  0
ARC
  5
32D5B
  8
0
 10
6207.5440110599129184
 20
340.7320455694114116
 30
0.0
 40
0.062124754371658
 50
63.5796317346450266
 51
114.5175343971990003
  0
ARC
  5
32D5C
  8
0
 10
6207.5478806049950435
 20
340.7387652679822168
 30
0.0
 40
0.0543872140183422
 50
25.7427375196917083
 51
64.0804949395578802
  0
ARC
  5
32D5D
  8
0
 10
6207.5581903635847993
 20
340.7442638186162185
 30
0.0
 40
0.0427151144803728
 50
328.5955310525901041
 51
25.1055994729131804
  0
ARC
  5
32D5E
  8
0
 10
6207.5518816985213562
 20
340.7489289303093187
 30
0.0
 40
0.0505352742961977
 50
288.8481718402932188
 51
327.8081825660775053
  0
ARC
  5
32D5F
  8
0
 10
6207.5476567996702215
 20
340.7600443431605868
 30
0.0
 40
0.0624208877554951
 50
242.631760601184908
 51
289.2221149819602033
  0
ARC
  5
32D60
  8
0
 10
6207.5429359141671739
 20
340.7522760159753261
 30
0.0
 40
0.0533554576207541
 50
204.1078580954381039
 51
243.2989799780577869
  0
ARC
  5
32D61
  8
0
 10
6207.5333134784377762
 20
340.7475671858238115
 30
0.0
 40
0.0426505458171667
 50
144.8731802985060142
 51
203.6137858440980892
  0
ARC
  5
32D62
  8
0
 10
6207.5391684964142769
 20
340.7432441623545856
 30
0.0
 40
0.0499269458574633
 50
114.7942988284874986
 51
144.6817518285743915
  0
ARC
  5
32D63
  8
0
 10
6207.5462048336048611
 20
340.7466781041866852
 30
0.0
 40
0.1427795134926038
 50
64.4812564527517083
 51
115.0549819921421033
  0
ARC
  5
32D64
  8
0
 10
6207.5567270624505909
 20
340.7642585896796845
 30
0.0
 40
0.1223961505890889
 50
25.5590957076707603
 51
65.3809880332431561
  0
ARC
  5
32D65
  8
0
 10
6207.5766882434427316
 20
340.7743343451338092
 30
0.0
 40
0.1000423936036564
 50
325.6303991549200987
 51
25.2855306087136107
  0
ARC
  5
32D66
  8
0
 10
6207.5475240866962849
 20
340.7976874884345762
 30
0.0
 40
0.1373271943605248
 50
295.803597691865491
 51
324.4571024754588962
  0
ARC
  5
32D67
  8
0
 10
6207.5512135735561969
 20
340.7944598565545107
 30
0.0
 40
0.1328292260330097
 50
237.9132737931755912
 51
294.9768170086873056
  0
ARC
  5
32D68
  8
0
 10
6207.5504255025425664
 20
340.7927161205735729
 30
0.0
 40
0.1309334846328058
 50
201.4027645186789073
 51
237.8001173034421925
  0
ARC
  5
32D69
  8
0
 10
6207.5214793901413941
 20
340.7803599808989929
 30
0.0
 40
0.0994789748259903
 50
160.8214071571024135
 51
200.860794633980106
  0
ARC
  5
32D6A
  8
0
 10
6207.5337119068099128
 20
340.7732806583044862
 30
0.0
 40
0.1133896212727653
 50
115.0289546728980952
 51
159.4732109443037871
  0
ARC
  5
32D6B
  8
0
 10
6208.1000681416717271
 20
339.9178003979881169
 30
0.0
 40
0.062124754371658
 50
63.5796317346450266
 51
114.5175343971990003
  0
ARC
  5
32D6C
  8
0
 10
6208.1039376867556712
 20
339.924520096558922
 30
0.0
 40
0.0543872140183422
 50
25.7427375196917083
 51
64.0804949395578802
  0
ARC
  5
32D6D
  8
0
 10
6208.114247445343608
 20
339.9300186471929237
 30
0.0
 40
0.0427151144803728
 50
328.5955310525901041
 51
25.1055994729131804
  0
ARC
  5
32D6E
  8
0
 10
6208.1079387802801648
 20
339.934683758886024
 30
0.0
 40
0.0505352742961977
 50
288.8481718402932188
 51
327.8081825660775053
  0
ARC
  5
32D6F
  8
0
 10
6208.1037138814299396
 20
339.945799171737292
 30
0.0
 40
0.0624208877554951
 50
242.631760601184908
 51
289.2221149819602033
  0
ARC
  5
32D70
  8
0
 10
6208.098992995926892
 20
339.9380308445519745
 30
0.0
 40
0.0533554576207541
 50
204.1078580954381039
 51
243.2989799780577869
  0
ARC
  5
32D71
  8
0
 10
6208.0893705601965848
 20
339.9333220144005168
 30
0.0
 40
0.0426505458171667
 50
144.8731802985060142
 51
203.6137858440980892
  0
ARC
  5
32D72
  8
0
 10
6208.095225578173995
 20
339.9289989909312908
 30
0.0
 40
0.0499269458574633
 50
114.7942988284874986
 51
144.6817518285743915
  0
ARC
  5
32D73
  8
0
 10
6208.1022619153645792
 20
339.9324329327633905
 30
0.0
 40
0.1427795134926038
 50
64.4812564527517083
 51
115.0549819921421033
  0
ARC
  5
32D74
  8
0
 10
6208.1127841442093995
 20
339.9500134182563897
 30
0.0
 40
0.1223961505890889
 50
25.5590957076707603
 51
65.3809880332431561
  0
ARC
  5
32D75
  8
0
 10
6208.1327453252042687
 20
339.9600891737105144
 30
0.0
 40
0.1000423936036564
 50
325.6303991549200987
 51
25.2855306087136107
  0
ARC
  5
32D76
  8
0
 10
6208.1035811684560031
 20
339.9834423170112814
 30
0.0
 40
0.1373271943605248
 50
295.803597691865491
 51
324.4571024754588962
  0
ARC
  5
32D77
  8
0
 10
6208.1072706553150056
 20
339.9802146851312159
 30
0.0
 40
0.1328292260330097
 50
237.9132737931755912
 51
294.9768170086873056
  0
ARC
  5
32D78
  8
0
 10
6208.106482584303194
 20
339.9784709491502781
 30
0.0
 40
0.1309334846328058
 50
201.4027645186789073
 51
237.8001173034421925
  0
ARC
  5
32D79
  8
0
 10
6208.0775364719002027
 20
339.9661148094758119
 30
0.0
 40
0.0994789748259903
 50
160.8214071571024135
 51
200.860794633980106
  0
ARC
  5
32D7A
  8
0
 10
6208.0897689885687214
 20
339.9590354868811914
 30
0.0
 40
0.1133896212727653
 50
115.0289546728980952
 51
159.4732109443037871
  0
ARC
  5
32D7B
  8
0
 10
6208.3593377682491337
 20
340.7529821215708807
 30
0.0
 40
0.5574172510717667
 50
94.5322119830570671
 51
114.9383087447571938
  0
ARC
  5
32D7C
  8
0
 10
6208.3101668934914414
 20
340.8505054993660224
 30
0.0
 40
0.4482676159636749
 50
114.4952523838934013
 51
147.192519716860005
  0
ARC
  5
32D7D
  8
0
 10
6208.2420486388064091
 20
340.8984833916163097
 30
0.0
 40
0.365035219071202
 50
147.7289412932493917
 51
172.5852493951520046
  0
ARC
  5
32D7E
  8
0
 10
6209.2766196616194065
 20
340.7667658416301038
 30
0.0
 40
1.407956375972734
 50
172.7031079455408076
 51
187.2695952413563134
  0
ARC
  5
32D7F
  8
0
 10
6208.2498665066614194
 20
340.6390710868810174
 30
0.0
 40
0.3733124632295825
 50
187.7692101894072039
 51
211.9441175798997108
  0
ARC
  5
32D80
  8
0
 10
6208.3195041787239461
 20
340.6850473662104832
 30
0.0
 40
0.4567353494010437
 50
212.216225926670603
 51
237.296048160571786
  0
ARC
  5
32D81
  8
0
 10
6208.3804744400968048
 20
340.7800436568915075
 30
0.0
 40
0.5696143449890617
 50
237.2982087442694876
 51
263.4208119953593155
  0
ARC
  5
32D82
  8
0
 10
6208.6199410743211047
 20
340.9527697916262241
 30
0.0
 40
0.1060693012394716
 50
150.8668504357954134
 51
209.1331495642045866
  0
ARC
  5
32D83
  8
0
 10
6208.6337097154182629
 20
340.944424100251922
 30
0.0
 40
0.1221605136412346
 50
129.866577504029209
 51
150.5916530170891008
  0
ARC
  5
32D84
  8
0
 10
6208.652551669215427
 20
340.9194622266479087
 30
0.0
 40
0.1534051771225456
 50
107.0255157792846035
 51
129.2918840695820961
  0
ARC
  5
32D85
  8
0
 10
6208.6540771485606456
 20
340.9684169951382273
 30
0.0
 40
0.0550447620361031
 50
112.8433927367970995
 51
153.542952688611706
  0
ARC
  5
32D86
  8
0
 10
6208.648647744695154
 20
340.9715374220854756
 30
0.0
 40
0.048795191899232
 50
153.9829044848547142
 51
205.9247104153058103
  0
ARC
  5
32D87
  8
0
 10
6208.6541367870968315
 20
340.974699128761074
 30
0.0
 40
0.0551159205118547
 50
206.3860565735236037
 51
248.2108557541444895
  0
LINE
  5
32D88
  8
0
 10
6208.5703269530285979
 20
340.9826012413333274
 30
0.0
 11
6208.5703234386292024
 21
340.974603944133321
 31
0.0
  0
ARC
  5
32D89
  8
0
 10
6208.6460557193458953
 20
340.9747331124250991
 30
0.0
 40
0.0757323908702301
 50
180.0977230676735132
 51
204.9314981136369056
  0
ARC
  5
32D8A
  8
0
 10
6208.6505428240589026
 20
340.9770467391001034
 30
0.0
 40
0.08077689044177
 50
205.0780106176262905
 51
228.3302431870810949
  0
ARC
  5
32D8B
  8
0
 10
6208.6552997044891526
 20
340.9825137657779806
 30
0.0
 40
0.0880232840828994
 50
228.3831878116822907
 51
250.0335831217385021
  0
ARC
  5
32D8C
  8
0
 10
6208.6440885413830983
 20
340.9825994102773166
 30
0.0
 40
0.0737615883763215
 50
163.8858347860764013
 51
179.9985776909024935
  0
ARC
  5
32D8D
  8
0
 10
6208.6476383222188815
 20
340.9815738678935872
 30
0.0
 40
0.0774565418495243
 50
130.8619649129701088
 51
163.8858347860764013
  0
ARC
  5
32D8E
  8
0
 10
6208.6554059029313066
 20
340.9734520219096225
 30
0.0
 40
0.088682623363702
 50
106.4013155534659063
 51
131.2243517806026034
  0
ARC
  5
32D8F
  8
0
 10
6208.6433630124311094
 20
340.966627481488274
 30
0.0
 40
0.1332764834397318
 50
209.4348590498325109
 51
247.029660709543009
  0
ARC
  5
32D90
  8
0
 10
6208.6476952577495467
 20
341.0075003790485084
 30
0.0
 40
0.1389309508299623
 50
225.646400890854494
 51
253.6117507544549881
  0
ARC
  5
32D91
  8
0
 10
6208.6257211398069558
 20
340.9851593389058735
 30
0.0
 40
0.1075945102913982
 50
203.8184990971496973
 51
225.6964989091700886
  0
ARC
  5
32D92
  8
0
 10
6208.6143566853379525
 20
340.9802956975594839
 30
0.0
 40
0.0952339407287921
 50
182.8275725088878971
 51
203.9027440671495128
  0
ARC
  5
32D93
  8
0
 10
6208.6128058882932237
 20
340.9713499030344224
 30
0.0
 40
0.0936635725780998
 50
167.066929101471402
 51
204.0759416031702074
  0
ARC
  5
32D94
  8
0
 10
6208.6319365714598462
 20
340.9807324134716282
 30
0.0
 40
0.1149600860283962
 50
204.4557115036182893
 51
234.0114873786974101
  0
ARC
  5
32D95
  8
0
 10
6208.6495453339621236
 20
341.0028916979856035
 30
0.0
 40
0.1432425008226891
 50
233.5208690921037089
 51
252.7833482724514909
  0
ARC
  5
32D96
  8
0
 10
6208.6939337444382545
 20
340.9527697916262241
 30
0.0
 40
0.1060693012394716
 50
330.8668504357954134
 51
29.1331495642046114
  0
ARC
  5
32D97
  8
0
 10
6208.6801651033410963
 20
340.944424100251922
 30
0.0
 40
0.1221605136412346
 50
29.4083469829108992
 51
50.1334224959707626
  0
ARC
  5
32D98
  8
0
 10
6208.6613231495448417
 20
340.9194622266479087
 30
0.0
 40
0.1534051771225456
 50
50.708115930417847
 51
72.9744842207153965
  0
ARC
  5
32D99
  8
0
 10
6208.6597976701987136
 20
340.9684169951382273
 30
0.0
 40
0.0550447620361031
 50
26.4570473113882692
 51
67.1566072632028295
  0
ARC
  5
32D9A
  8
0
 10
6208.6652270740642052
 20
340.9715374220854756
 30
0.0
 40
0.048795191899232
 50
334.075289584694076
 51
26.0170955151452183
  0
ARC
  5
32D9B
  8
0
 10
6208.6597380316616182
 20
340.974699128761074
 30
0.0
 40
0.0551159205118547
 50
291.7891442458555957
 51
333.6139434264763963
  0
LINE
  5
32D9C
  8
0
 10
6208.7435478657289423
 20
340.9826012413333274
 30
0.0
 11
6208.7435513801301568
 21
340.974603944133321
 31
0.0
  0
ARC
  5
32D9D
  8
0
 10
6208.6678190994143733
 20
340.9747331124250991
 30
0.0
 40
0.0757323908702301
 50
335.0685018863630944
 51
359.9022769323231046
  0
ARC
  5
32D9E
  8
0
 10
6208.6633319946995471
 20
340.9770467391001034
 30
0.0
 40
0.08077689044177
 50
311.6697568129188767
 51
334.9219893823736243
  0
ARC
  5
32D9F
  8
0
 10
6208.6585751142702065
 20
340.9825137657779806
 30
0.0
 40
0.0880232840828994
 50
289.9664168782614979
 51
311.6168121883176809
  0
ARC
  5
32DA0
  8
0
 10
6208.6697862773762608
 20
340.9825994102773166
 30
0.0
 40
0.0737615883763215
 50
0.0014223091007749
 51
16.1141652139235809
  0
ARC
  5
32DA1
  8
0
 10
6208.6662364965395682
 20
340.9815738678935872
 30
0.0
 40
0.0774565418495243
 50
16.1141652139235809
 51
49.1380350870298699
  0
ARC
  5
32DA2
  8
0
 10
6208.6584689158271431
 20
340.9734520219096225
 30
0.0
 40
0.088682623363702
 50
48.7756482193973895
 51
73.5986844465340511
  0
ARC
  5
32DA3
  8
0
 10
6208.6705118063273403
 20
340.966627481488274
 30
0.0
 40
0.1332764834397318
 50
292.970339290456991
 51
330.5651409501675175
  0
ARC
  5
32DA4
  8
0
 10
6208.6661795610098125
 20
341.0075003790485084
 30
0.0
 40
0.1389309508299623
 50
286.3882492455450119
 51
314.3535991091454775
  0
ARC
  5
32DA5
  8
0
 10
6208.6881536789524034
 20
340.9851593389058735
 30
0.0
 40
0.1075945102913982
 50
314.3035010908299114
 51
336.1815009028504164
  0
ARC
  5
32DA6
  8
0
 10
6208.6995181334214067
 20
340.9802956975594839
 30
0.0
 40
0.0952339407287921
 50
336.0972559328503735
 51
357.1724274911121029
  0
ARC
  5
32DA7
  8
0
 10
6208.7010689304661355
 20
340.9713499030344224
 30
0.0
 40
0.0936635725780998
 50
335.9240583968297074
 51
12.9330708985285607
  0
ARC
  5
32DA8
  8
0
 10
6208.681938247297694
 20
340.9807324134716282
 30
0.0
 40
0.1149600860283962
 50
305.9885126213026183
 51
335.5442884963816255
  0
ARC
  5
32DA9
  8
0
 10
6208.6643294847972356
 20
341.0028916979856035
 30
0.0
 40
0.1432425008226891
 50
287.2166517275484807
 51
306.4791309078963195
  0
ARC
  5
32DAA
  8
0
 10
6208.6569374093787701
 20
340.9036290998224104
 30
0.0
 40
0.1698291187002861
 50
73.1237274733941405
 51
106.8762725266058027
  0
ARC
  5
32DAB
  8
0
 10
6208.6569374093787701
 20
340.9687230080576228
 30
0.0
 40
0.0936517389758302
 50
73.5167742139460074
 51
106.4832257860540068
  0
ARC
  5
32DAC
  8
0
 10
6208.6569374093787701
 20
340.9625731950613954
 30
0.0
 40
0.0615417176722133
 50
66.8146594034470382
 51
113.1853405965530044
  0
ARC
  5
32DAD
  8
0
 10
6208.6569374093787701
 20
340.9805334327153901
 30
0.0
 40
0.0615745035825526
 50
247.8061835011781113
 51
292.1938164988205813
  0
ARC
  5
32DAE
  8
0
 10
6208.6569374093787701
 20
340.987127406167474
 30
0.0
 40
0.0929188450344729
 50
250.0558735614353054
 51
289.9441264385646946
  0
ARC
  5
32DAF
  8
0
 10
6208.6569374093787701
 20
341.0332924545718924
 30
0.0
 40
0.1662903638953251
 50
253.0640544529559861
 51
286.9359455470449234
  0
ARC
  5
32DB0
  8
0
 10
6208.6569374093787701
 20
341.0246341372665029
 30
0.0
 40
0.1661998382333987
 50
252.5677459107724019
 51
287.4322540892276265
  0
ARC
  5
32DB1
  8
0
 10
6208.6569374093787701
 20
340.99425311581291
 30
0.0
 40
0.1640180560800118
 50
246.4298524626003939
 51
293.5701475373995777
  0
ARC
  5
32DB2
  8
0
 10
6208.1463325388258454
 20
340.9527697916262241
 30
0.0
 40
0.1060693012394716
 50
150.8668504357954134
 51
209.1331495642045866
  0
ARC
  5
32DB3
  8
0
 10
6208.1601011799239132
 20
340.944424100251922
 30
0.0
 40
0.1221605136412346
 50
129.866577504029209
 51
150.5916530170891008
  0
ARC
  5
32DB4
  8
0
 10
6208.1789431337201677
 20
340.9194622266479087
 30
0.0
 40
0.1534051771225456
 50
107.0255157792846035
 51
129.2918840695820961
  0
ARC
  5
32DB5
  8
0
 10
6208.1804686130672053
 20
340.9684169951382273
 30
0.0
 40
0.0550447620361031
 50
112.8433927367970995
 51
153.542952688611706
  0
ARC
  5
32DB6
  8
0
 10
6208.1750392092008042
 20
340.9715374220854756
 30
0.0
 40
0.048795191899232
 50
153.9829044848547142
 51
205.9247104153058103
  0
ARC
  5
32DB7
  8
0
 10
6208.1805282516033913
 20
340.974699128761074
 30
0.0
 40
0.0551159205118547
 50
206.3860565735236037
 51
248.2108557541444895
  0
LINE
  5
32DB8
  8
0
 10
6208.0967184175351576
 20
340.9826012413333274
 30
0.0
 11
6208.0967149031357621
 21
340.974603944133321
 31
0.0
  0
ARC
  5
32DB9
  8
0
 10
6208.1724471838506361
 20
340.9747331124250991
 30
0.0
 40
0.0757323908702301
 50
180.0977230676735132
 51
204.9314981136369056
  0
ARC
  5
32DBA
  8
0
 10
6208.1769342885645528
 20
340.9770467391001034
 30
0.0
 40
0.08077689044177
 50
205.0780106176262905
 51
228.3302431870810949
  0
ARC
  5
32DBB
  8
0
 10
6208.1816911689948029
 20
340.9825137657779806
 30
0.0
 40
0.0880232840828994
 50
228.3831878116822907
 51
250.0335831217385021
  0
ARC
  5
32DBC
  8
0
 10
6208.1704800058887486
 20
340.9825994102773166
 30
0.0
 40
0.0737615883763215
 50
163.8858347860764013
 51
179.9985776909024935
  0
ARC
  5
32DBD
  8
0
 10
6208.1740297867254412
 20
340.9815738678935872
 30
0.0
 40
0.0774565418495243
 50
130.8619649129701088
 51
163.8858347860764013
  0
ARC
  5
32DBE
  8
0
 10
6208.1817973674378663
 20
340.9734520219096225
 30
0.0
 40
0.088682623363702
 50
106.4013155534659063
 51
131.2243517806026034
  0
ARC
  5
32DBF
  8
0
 10
6208.1697544769367596
 20
340.966627481488274
 30
0.0
 40
0.1332764834397318
 50
209.4348590498325109
 51
247.029660709543009
  0
ARC
  5
32DC0
  8
0
 10
6208.1740867222551969
 20
341.0075003790485084
 30
0.0
 40
0.1389309508299623
 50
225.646400890854494
 51
253.6117507544549881
  0
ARC
  5
32DC1
  8
0
 10
6208.152112604312606
 20
340.9851593389058735
 30
0.0
 40
0.1075945102913982
 50
203.8184990971496973
 51
225.6964989091700886
  0
ARC
  5
32DC2
  8
0
 10
6208.1407481498436027
 20
340.9802956975594839
 30
0.0
 40
0.0952339407287921
 50
182.8275725088878971
 51
203.9027440671495128
  0
ARC
  5
32DC3
  8
0
 10
6208.1391973527988739
 20
340.9713499030344224
 30
0.0
 40
0.0936635725780998
 50
167.066929101471402
 51
204.0759416031702074
  0
ARC
  5
32DC4
  8
0
 10
6208.1583280359673154
 20
340.9807324134716282
 30
0.0
 40
0.1149600860283962
 50
204.4557115036182893
 51
234.0114873786974101
  0
ARC
  5
32DC5
  8
0
 10
6208.1759367984677738
 20
341.0028916979856035
 30
0.0
 40
0.1432425008226891
 50
233.5208690921037089
 51
252.7833482724514909
  0
ARC
  5
32DC6
  8
0
 10
6208.2203252089439047
 20
340.9527697916262241
 30
0.0
 40
0.1060693012394716
 50
330.8668504357954134
 51
29.1331495642046114
  0
ARC
  5
32DC7
  8
0
 10
6208.2065565678467465
 20
340.944424100251922
 30
0.0
 40
0.1221605136412346
 50
29.4083469829108992
 51
50.1334224959707626
  0
ARC
  5
32DC8
  8
0
 10
6208.1877146140514014
 20
340.9194622266479087
 30
0.0
 40
0.1534051771225456
 50
50.708115930417847
 51
72.9744842207153965
  0
ARC
  5
32DC9
  8
0
 10
6208.1861891347043638
 20
340.9684169951382273
 30
0.0
 40
0.0550447620361031
 50
26.4570473113882692
 51
67.1566072632028295
  0
ARC
  5
32DCA
  8
0
 10
6208.1916185385698554
 20
340.9715374220854756
 30
0.0
 40
0.048795191899232
 50
334.075289584694076
 51
26.0170955151452183
  0
ARC
  5
32DCB
  8
0
 10
6208.1861294961681779
 20
340.974699128761074
 30
0.0
 40
0.0551159205118547
 50
291.7891442458555957
 51
333.6139434264763963
  0
LINE
  5
32DCC
  8
0
 10
6208.2699393302364115
 20
340.9826012413333274
 30
0.0
 11
6208.269942844635807
 21
340.974603944133321
 31
0.0
  0
ARC
  5
32DCD
  8
0
 10
6208.1942105639191141
 20
340.9747331124250991
 30
0.0
 40
0.0757323908702301
 50
335.0685018863630944
 51
359.9022769323231046
  0
ARC
  5
32DCE
  8
0
 10
6208.1897234592061068
 20
340.9770467391001034
 30
0.0
 40
0.08077689044177
 50
311.6697568129188767
 51
334.9219893823736243
  0
ARC
  5
32DCF
  8
0
 10
6208.1849665787767663
 20
340.9825137657779806
 30
0.0
 40
0.0880232840828994
 50
289.9664168782614979
 51
311.6168121883176809
  0
ARC
  5
32DD0
  8
0
 10
6208.1961777418819111
 20
340.9825994102773166
 30
0.0
 40
0.0737615883763215
 50
0.0014223091007749
 51
16.1141652139235809
  0
ARC
  5
32DD1
  8
0
 10
6208.1926279610461279
 20
340.9815738678935872
 30
0.0
 40
0.0774565418495243
 50
16.1141652139235809
 51
49.1380350870298699
  0
ARC
  5
32DD2
  8
0
 10
6208.1848603803327933
 20
340.9734520219096225
 30
0.0
 40
0.088682623363702
 50
48.7756482193973895
 51
73.5986844465340511
  0
ARC
  5
32DD3
  8
0
 10
6208.1969032708348095
 20
340.966627481488274
 30
0.0
 40
0.1332764834397318
 50
292.970339290456991
 51
330.5651409501675175
  0
ARC
  5
32DD4
  8
0
 10
6208.1925710255163722
 20
341.0075003790485084
 30
0.0
 40
0.1389309508299623
 50
286.3882492455450119
 51
314.3535991091454775
  0
ARC
  5
32DD5
  8
0
 10
6208.2145451434589631
 20
340.9851593389058735
 30
0.0
 40
0.1075945102913982
 50
314.3035010908299114
 51
336.1815009028504164
  0
ARC
  5
32DD6
  8
0
 10
6208.2259095979261474
 20
340.9802956975594839
 30
0.0
 40
0.0952339407287921
 50
336.0972559328503735
 51
357.1724274911121029
  0
ARC
  5
32DD7
  8
0
 10
6208.2274603949717857
 20
340.9713499030344224
 30
0.0
 40
0.0936635725780998
 50
335.9240583968297074
 51
12.9330708985285607
  0
ARC
  5
32DD8
  8
0
 10
6208.2083297118051632
 20
340.9807324134716282
 30
0.0
 40
0.1149600860283962
 50
305.9885126213026183
 51
335.5442884963816255
  0
ARC
  5
32DD9
  8
0
 10
6208.1907209493028859
 20
341.0028916979856035
 30
0.0
 40
0.1432425008226891
 50
287.2166517275484807
 51
306.4791309078963195
  0
ARC
  5
32DDA
  8
0
 10
6208.1833288738862393
 20
340.9036290998224104
 30
0.0
 40
0.1698291187002861
 50
73.1237274733941405
 51
106.8762725266058027
  0
ARC
  5
32DDB
  8
0
 10
6208.1833288738862393
 20
340.9687230080576228
 30
0.0
 40
0.0936517389758302
 50
73.5167742139460074
 51
106.4832257860540068
  0
ARC
  5
32DDC
  8
0
 10
6208.1833288738862393
 20
340.9625731950613954
 30
0.0
 40
0.0615417176722133
 50
66.8146594034470382
 51
113.1853405965530044
  0
ARC
  5
32DDD
  8
0
 10
6208.1833288738862393
 20
340.9805334327153901
 30
0.0
 40
0.0615745035825526
 50
247.8061835011781113
 51
292.1938164988205813
  0
ARC
  5
32DDE
  8
0
 10
6208.1833288738862393
 20
340.987127406167474
 30
0.0
 40
0.0929188450344729
 50
250.0558735614353054
 51
289.9441264385646946
  0
ARC
  5
32DDF
  8
0
 10
6208.1833288738862393
 20
341.0332924545718924
 30
0.0
 40
0.1662903638953251
 50
253.0640544529559861
 51
286.9359455470449234
  0
ARC
  5
32DE0
  8
0
 10
6208.1833288738862393
 20
341.0246341372665029
 30
0.0
 40
0.1661998382333987
 50
252.5677459107724019
 51
287.4322540892276265
  0
ARC
  5
32DE1
  8
0
 10
6208.1833288738862393
 20
340.99425311581291
 30
0.0
 40
0.1640180560800118
 50
246.4298524626003939
 51
293.5701475373995777
  0
ARC
  5
32DE2
  8
0
 10
6208.6199410743211047
 20
340.5645827196162827
 30
0.0
 40
0.1060693012394716
 50
150.8668504357954134
 51
209.1331495642045866
  0
ARC
  5
32DE3
  8
0
 10
6208.6337097154182629
 20
340.5562370282420943
 30
0.0
 40
0.1221605136412346
 50
129.866577504029209
 51
150.5916530170891008
  0
ARC
  5
32DE4
  8
0
 10
6208.652551669215427
 20
340.5312751546380241
 30
0.0
 40
0.1534051771225456
 50
107.0255157792846035
 51
129.2918840695820961
  0
ARC
  5
32DE5
  8
0
 10
6208.6540771485606456
 20
340.5802299231282859
 30
0.0
 40
0.0550447620361031
 50
112.8433927367970995
 51
153.542952688611706
  0
ARC
  5
32DE6
  8
0
 10
6208.648647744695154
 20
340.583350350075591
 30
0.0
 40
0.048795191899232
 50
153.9829044848547142
 51
205.9247104153058103
  0
ARC
  5
32DE7
  8
0
 10
6208.6541367870968315
 20
340.5865120567511894
 30
0.0
 40
0.0551159205118547
 50
206.3860565735236037
 51
248.2108557541444895
  0
LINE
  5
32DE8
  8
0
 10
6208.5703269530285979
 20
340.594414169323386
 30
0.0
 11
6208.5703234386292024
 21
340.5864168721233796
 31
0.0
  0
ARC
  5
32DE9
  8
0
 10
6208.6460557193458953
 20
340.5865460404152145
 30
0.0
 40
0.0757323908702301
 50
180.0977230676735132
 51
204.9314981136369056
  0
ARC
  5
32DEA
  8
0
 10
6208.6505428240589026
 20
340.5888596670902189
 30
0.0
 40
0.08077689044177
 50
205.0780106176262905
 51
228.3302431870810949
  0
ARC
  5
32DEB
  8
0
 10
6208.6552997044891526
 20
340.5943266937682097
 30
0.0
 40
0.0880232840828994
 50
228.3831878116822907
 51
250.0335831217385021
  0
ARC
  5
32DEC
  8
0
 10
6208.6440885413830983
 20
340.5944123382674888
 30
0.0
 40
0.0737615883763215
 50
163.8858347860764013
 51
179.9985776909024935
  0
ARC
  5
32DED
  8
0
 10
6208.6476383222188815
 20
340.5933867958838164
 30
0.0
 40
0.0774565418495243
 50
130.8619649129701088
 51
163.8858347860764013
  0
ARC
  5
32DEE
  8
0
 10
6208.6554059029313066
 20
340.5852649498997948
 30
0.0
 40
0.088682623363702
 50
106.4013155534659063
 51
131.2243517806026034
  0
ARC
  5
32DEF
  8
0
 10
6208.6433630124311094
 20
340.5784404094783895
 30
0.0
 40
0.1332764834397318
 50
209.4348590498325109
 51
247.029660709543009
  0
ARC
  5
32DF0
  8
0
 10
6208.6476952577495467
 20
340.6193133070386239
 30
0.0
 40
0.1389309508299623
 50
225.646400890854494
 51
253.6117507544549881
  0
ARC
  5
32DF1
  8
0
 10
6208.6257211398069558
 20
340.5969722668959889
 30
0.0
 40
0.1075945102913982
 50
203.8184990971496973
 51
225.6964989091700886
  0
ARC
  5
32DF2
  8
0
 10
6208.6143566853379525
 20
340.5921086255495993
 30
0.0
 40
0.0952339407287921
 50
182.8275725088878971
 51
203.9027440671495128
  0
ARC
  5
32DF3
  8
0
 10
6208.6128058882932237
 20
340.583162831024481
 30
0.0
 40
0.0936635725780998
 50
167.066929101471402
 51
204.0759416031702074
  0
ARC
  5
32DF4
  8
0
 10
6208.6319365714598462
 20
340.5925453414616868
 30
0.0
 40
0.1149600860283962
 50
204.4557115036182893
 51
234.0114873786974101
  0
ARC
  5
32DF5
  8
0
 10
6208.6495453339621236
 20
340.614704625975719
 30
0.0
 40
0.1432425008226891
 50
233.5208690921037089
 51
252.7833482724514909
  0
ARC
  5
32DF6
  8
0
 10
6208.6939337444382545
 20
340.5645827196162827
 30
0.0
 40
0.1060693012394716
 50
330.8668504357954134
 51
29.1331495642046114
  0
ARC
  5
32DF7
  8
0
 10
6208.6801651033410963
 20
340.5562370282420943
 30
0.0
 40
0.1221605136412346
 50
29.4083469829108992
 51
50.1334224959707626
  0
ARC
  5
32DF8
  8
0
 10
6208.6613231495448417
 20
340.5312751546380241
 30
0.0
 40
0.1534051771225456
 50
50.708115930417847
 51
72.9744842207153965
  0
ARC
  5
32DF9
  8
0
 10
6208.6597976701987136
 20
340.5802299231282859
 30
0.0
 40
0.0550447620361031
 50
26.4570473113882692
 51
67.1566072632028295
  0
ARC
  5
32DFA
  8
0
 10
6208.6652270740642052
 20
340.583350350075591
 30
0.0
 40
0.048795191899232
 50
334.075289584694076
 51
26.0170955151452183
  0
ARC
  5
32DFB
  8
0
 10
6208.6597380316616182
 20
340.5865120567511894
 30
0.0
 40
0.0551159205118547
 50
291.7891442458555957
 51
333.6139434264763963
  0
LINE
  5
32DFC
  8
0
 10
6208.7435478657289423
 20
340.594414169323386
 30
0.0
 11
6208.7435513801301568
 21
340.5864168721233796
 31
0.0
  0
ARC
  5
32DFD
  8
0
 10
6208.6678190994143733
 20
340.5865460404152145
 30
0.0
 40
0.0757323908702301
 50
335.0685018863630944
 51
359.9022769323231046
  0
ARC
  5
32DFE
  8
0
 10
6208.6633319946995471
 20
340.5888596670902189
 30
0.0
 40
0.08077689044177
 50
311.6697568129188767
 51
334.9219893823736243
  0
ARC
  5
32DFF
  8
0
 10
6208.6585751142702065
 20
340.5943266937682097
 30
0.0
 40
0.0880232840828994
 50
289.9664168782614979
 51
311.6168121883176809
  0
ARC
  5
32E00
  8
0
 10
6208.6697862773762608
 20
340.5944123382674888
 30
0.0
 40
0.0737615883763215
 50
0.0014223091007749
 51
16.1141652139235809
  0
ARC
  5
32E01
  8
0
 10
6208.6662364965395682
 20
340.5933867958838164
 30
0.0
 40
0.0774565418495243
 50
16.1141652139235809
 51
49.1380350870298699
  0
ARC
  5
32E02
  8
0
 10
6208.6584689158271431
 20
340.5852649498997948
 30
0.0
 40
0.088682623363702
 50
48.7756482193973895
 51
73.5986844465340511
  0
ARC
  5
32E03
  8
0
 10
6208.6705118063273403
 20
340.5784404094783895
 30
0.0
 40
0.1332764834397318
 50
292.970339290456991
 51
330.5651409501675175
  0
ARC
  5
32E04
  8
0
 10
6208.6661795610098125
 20
340.6193133070386239
 30
0.0
 40
0.1389309508299623
 50
286.3882492455450119
 51
314.3535991091454775
  0
ARC
  5
32E05
  8
0
 10
6208.6881536789524034
 20
340.5969722668959889
 30
0.0
 40
0.1075945102913982
 50
314.3035010908299114
 51
336.1815009028504164
  0
ARC
  5
32E06
  8
0
 10
6208.6995181334214067
 20
340.5921086255495993
 30
0.0
 40
0.0952339407287921
 50
336.0972559328503735
 51
357.1724274911121029
  0
ARC
  5
32E07
  8
0
 10
6208.7010689304661355
 20
340.583162831024481
 30
0.0
 40
0.0936635725780998
 50
335.9240583968297074
 51
12.9330708985285607
  0
ARC
  5
32E08
  8
0
 10
6208.681938247297694
 20
340.5925453414616868
 30
0.0
 40
0.1149600860283962
 50
305.9885126213026183
 51
335.5442884963816255
  0
ARC
  5
32E09
  8
0
 10
6208.6643294847972356
 20
340.614704625975719
 30
0.0
 40
0.1432425008226891
 50
287.2166517275484807
 51
306.4791309078963195
  0
ARC
  5
32E0A
  8
0
 10
6208.6569374093787701
 20
340.5154420278125826
 30
0.0
 40
0.1698291187002861
 50
73.1237274733941405
 51
106.8762725266058027
  0
ARC
  5
32E0B
  8
0
 10
6208.6569374093787701
 20
340.5805359360477951
 30
0.0
 40
0.0936517389758302
 50
73.5167742139460074
 51
106.4832257860540068
  0
ARC
  5
32E0C
  8
0
 10
6208.6569374093787701
 20
340.5743861230515108
 30
0.0
 40
0.0615417176722133
 50
66.8146594034470382
 51
113.1853405965530044
  0
ARC
  5
32E0D
  8
0
 10
6208.6569374093787701
 20
340.5923463607056192
 30
0.0
 40
0.0615745035825526
 50
247.8061835011781113
 51
292.1938164988205813
  0
ARC
  5
32E0E
  8
0
 10
6208.6569374093787701
 20
340.5989403341575894
 30
0.0
 40
0.0929188450344729
 50
250.0558735614353054
 51
289.9441264385646946
  0
ARC
  5
32E0F
  8
0
 10
6208.6569374093787701
 20
340.6451053825620079
 30
0.0
 40
0.1662903638953251
 50
253.0640544529559861
 51
286.9359455470449234
  0
ARC
  5
32E10
  8
0
 10
6208.6569374093787701
 20
340.6364470652566752
 30
0.0
 40
0.1661998382333987
 50
252.5677459107724019
 51
287.4322540892276265
  0
ARC
  5
32E11
  8
0
 10
6208.6569374093787701
 20
340.6060660438030254
 30
0.0
 40
0.1640180560800118
 50
246.4298524626003939
 51
293.5701475373995777
  0
ARC
  5
32E12
  8
0
 10
6208.1463325388258454
 20
340.5653568949686019
 30
0.0
 40
0.1060693012394716
 50
150.8668504357954134
 51
209.1331495642045866
  0
ARC
  5
32E13
  8
0
 10
6208.1601011799239132
 20
340.5570112035944135
 30
0.0
 40
0.1221605136412346
 50
129.866577504029209
 51
150.5916530170891008
  0
ARC
  5
32E14
  8
0
 10
6208.1789431337201677
 20
340.5320493299901727
 30
0.0
 40
0.1534051771225456
 50
107.0255157792846035
 51
129.2918840695820961
  0
ARC
  5
32E15
  8
0
 10
6208.1804686130672053
 20
340.5810040984806051
 30
0.0
 40
0.0550447620361031
 50
112.8433927367970995
 51
153.542952688611706
  0
ARC
  5
32E16
  8
0
 10
6208.1750392092008042
 20
340.5841245254279102
 30
0.0
 40
0.048795191899232
 50
153.9829044848547142
 51
205.9247104153058103
  0
ARC
  5
32E17
  8
0
 10
6208.1805282516033913
 20
340.5872862321035086
 30
0.0
 40
0.0551159205118547
 50
206.3860565735236037
 51
248.2108557541444895
  0
LINE
  5
32E18
  8
0
 10
6208.0967184175351576
 20
340.5951883446757051
 30
0.0
 11
6208.0967149031357621
 21
340.587191047475585
 31
0.0
  0
ARC
  5
32E19
  8
0
 10
6208.1724471838506361
 20
340.5873202157674768
 30
0.0
 40
0.0757323908702301
 50
180.0977230676735132
 51
204.9314981136369056
  0
ARC
  5
32E1A
  8
0
 10
6208.1769342885645528
 20
340.5896338424424812
 30
0.0
 40
0.08077689044177
 50
205.0780106176262905
 51
228.3302431870810949
  0
ARC
  5
32E1B
  8
0
 10
6208.1816911689948029
 20
340.595100869120472
 30
0.0
 40
0.0880232840828994
 50
228.3831878116822907
 51
250.0335831217385021
  0
ARC
  5
32E1C
  8
0
 10
6208.1704800058887486
 20
340.5951865136196943
 30
0.0
 40
0.0737615883763215
 50
163.8858347860764013
 51
179.9985776909024935
  0
ARC
  5
32E1D
  8
0
 10
6208.1740297867254412
 20
340.5941609712360219
 30
0.0
 40
0.0774565418495243
 50
130.8619649129701088
 51
163.8858347860764013
  0
ARC
  5
32E1E
  8
0
 10
6208.1817973674378663
 20
340.5860391252520003
 30
0.0
 40
0.088682623363702
 50
106.4013155534659063
 51
131.2243517806026034
  0
ARC
  5
32E1F
  8
0
 10
6208.1697544769367596
 20
340.5792145848307086
 30
0.0
 40
0.1332764834397318
 50
209.4348590498325109
 51
247.029660709543009
  0
ARC
  5
32E20
  8
0
 10
6208.1740867222551969
 20
340.6200874823908862
 30
0.0
 40
0.1389309508299623
 50
225.646400890854494
 51
253.6117507544549881
  0
ARC
  5
32E21
  8
0
 10
6208.152112604312606
 20
340.5977464422483081
 30
0.0
 40
0.1075945102913982
 50
203.8184990971496973
 51
225.6964989091700886
  0
ARC
  5
32E22
  8
0
 10
6208.1407481498436027
 20
340.5928828009018048
 30
0.0
 40
0.0952339407287921
 50
182.8275725088878971
 51
203.9027440671495128
  0
ARC
  5
32E23
  8
0
 10
6208.1391973527988739
 20
340.5839370063766864
 30
0.0
 40
0.0936635725780998
 50
167.066929101471402
 51
204.0759416031702074
  0
ARC
  5
32E24
  8
0
 10
6208.1583280359673154
 20
340.5933195168138923
 30
0.0
 40
0.1149600860283962
 50
204.4557115036182893
 51
234.0114873786974101
  0
ARC
  5
32E25
  8
0
 10
6208.1759367984677738
 20
340.6154788013279813
 30
0.0
 40
0.1432425008226891
 50
233.5208690921037089
 51
252.7833482724514909
  0
ARC
  5
32E26
  8
0
 10
6208.2203252089439047
 20
340.5653568949686019
 30
0.0
 40
0.1060693012394716
 50
330.8668504357954134
 51
29.1331495642046114
  0
ARC
  5
32E27
  8
0
 10
6208.2065565678467465
 20
340.5570112035944135
 30
0.0
 40
0.1221605136412346
 50
29.4083469829108992
 51
50.1334224959707626
  0
ARC
  5
32E28
  8
0
 10
6208.1877146140514014
 20
340.5320493299901727
 30
0.0
 40
0.1534051771225456
 50
50.708115930417847
 51
72.9744842207153965
  0
ARC
  5
32E29
  8
0
 10
6208.1861891347043638
 20
340.5810040984806051
 30
0.0
 40
0.0550447620361031
 50
26.4570473113882692
 51
67.1566072632028295
  0
ARC
  5
32E2A
  8
0
 10
6208.1916185385698554
 20
340.5841245254279102
 30
0.0
 40
0.048795191899232
 50
334.075289584694076
 51
26.0170955151452183
  0
ARC
  5
32E2B
  8
0
 10
6208.1861294961681779
 20
340.5872862321035086
 30
0.0
 40
0.0551159205118547
 50
291.7891442458555957
 51
333.6139434264763963
  0
LINE
  5
32E2C
  8
0
 10
6208.2699393302364115
 20
340.5951883446757051
 30
0.0
 11
6208.269942844635807
 21
340.587191047475585
 31
0.0
  0
ARC
  5
32E2D
  8
0
 10
6208.1942105639191141
 20
340.5873202157674768
 30
0.0
 40
0.0757323908702301
 50
335.0685018863630944
 51
359.9022769323231046
  0
ARC
  5
32E2E
  8
0
 10
6208.1897234592061068
 20
340.5896338424424812
 30
0.0
 40
0.08077689044177
 50
311.6697568129188767
 51
334.9219893823736243
  0
ARC
  5
32E2F
  8
0
 10
6208.1849665787767663
 20
340.595100869120472
 30
0.0
 40
0.0880232840828994
 50
289.9664168782614979
 51
311.6168121883176809
  0
ARC
  5
32E30
  8
0
 10
6208.1961777418819111
 20
340.5951865136196943
 30
0.0
 40
0.0737615883763215
 50
0.0014223091007749
 51
16.1141652139235809
  0
ARC
  5
32E31
  8
0
 10
6208.1926279610461279
 20
340.5941609712360219
 30
0.0
 40
0.0774565418495243
 50
16.1141652139235809
 51
49.1380350870298699
  0
ARC
  5
32E32
  8
0
 10
6208.1848603803327933
 20
340.5860391252520003
 30
0.0
 40
0.088682623363702
 50
48.7756482193973895
 51
73.5986844465340511
  0
ARC
  5
32E33
  8
0
 10
6208.1969032708348095
 20
340.5792145848307086
 30
0.0
 40
0.1332764834397318
 50
292.970339290456991
 51
330.5651409501675175
  0
ARC
  5
32E34
  8
0
 10
6208.1925710255163722
 20
340.6200874823908862
 30
0.0
 40
0.1389309508299623
 50
286.3882492455450119
 51
314.3535991091454775
  0
ARC
  5
32E35
  8
0
 10
6208.2145451434589631
 20
340.5977464422483081
 30
0.0
 40
0.1075945102913982
 50
314.3035010908299114
 51
336.1815009028504164
  0
ARC
  5
32E36
  8
0
 10
6208.2259095979261474
 20
340.5928828009018048
 30
0.0
 40
0.0952339407287921
 50
336.0972559328503735
 51
357.1724274911121029
  0
ARC
  5
32E37
  8
0
 10
6208.2274603949717857
 20
340.5839370063766864
 30
0.0
 40
0.0936635725780998
 50
335.9240583968297074
 51
12.9330708985285607
  0
ARC
  5
32E38
  8
0
 10
6208.2083297118051632
 20
340.5933195168138923
 30
0.0
 40
0.1149600860283962
 50
305.9885126213026183
 51
335.5442884963816255
  0
ARC
  5
32E39
  8
0
 10
6208.1907209493028859
 20
340.6154788013279813
 30
0.0
 40
0.1432425008226891
 50
287.2166517275484807
 51
306.4791309078963195
  0
ARC
  5
32E3A
  8
0
 10
6208.1833288738862393
 20
340.5162162031647881
 30
0.0
 40
0.1698291187002861
 50
73.1237274733941405
 51
106.8762725266058027
  0
ARC
  5
32E3B
  8
0
 10
6208.1833288738862393
 20
340.5813101114000006
 30
0.0
 40
0.0936517389758302
 50
73.5167742139460074
 51
106.4832257860540068
  0
ARC
  5
32E3C
  8
0
 10
6208.1833288738862393
 20
340.5751602984037731
 30
0.0
 40
0.0615417176722133
 50
66.8146594034470382
 51
113.1853405965530044
  0
ARC
  5
32E3D
  8
0
 10
6208.1833288738862393
 20
340.5931205360578815
 30
0.0
 40
0.0615745035825526
 50
247.8061835011781113
 51
292.1938164988205813
  0
ARC
  5
32E3E
  8
0
 10
6208.1833288738862393
 20
340.5997145095099086
 30
0.0
 40
0.0929188450344729
 50
250.0558735614353054
 51
289.9441264385646946
  0
ARC
  5
32E3F
  8
0
 10
6208.1833288738862393
 20
340.6458795579143271
 30
0.0
 40
0.1662903638953251
 50
253.0640544529559861
 51
286.9359455470449234
  0
ARC
  5
32E40
  8
0
 10
6208.1833288738862393
 20
340.6372212406088806
 30
0.0
 40
0.1661998382333987
 50
252.5677459107724019
 51
287.4322540892276265
  0
ARC
  5
32E41
  8
0
 10
6208.1833288738862393
 20
340.6068402191551741
 30
0.0
 40
0.1640180560800118
 50
246.4298524626003939
 51
293.5701475373995777
  0
ARC
  5
32E42
  8
0
 10
6208.1339284944579049
 20
339.0488992729287929
 30
0.0
 40
0.1701987779937487
 50
131.3239575636721952
 51
160.0458924922511983
  0
ARC
  5
32E43
  8
0
 10
6208.1933362269091958
 20
338.9771423518852771
 30
0.0
 40
0.2633297779316901
 50
105.4489605264725043
 51
130.7217398146055132
  0
ARC
  5
32E44
  8
0
 10
6208.222506110755603
 20
338.8731282863490719
 30
0.0
 40
0.3713561151162638
 50
77.2187246491773465
 51
105.5120132448815014
  0
ARC
  5
32E45
  8
0
 10
6208.2337865798490384
 20
338.9107500232482266
 30
0.0
 40
0.3321817990171794
 50
50.6553184237220222
 51
77.6806239586475442
  0
ARC
  5
32E46
  8
0
 10
6208.3044169858103487
 20
339.0012957383851244
 30
0.0
 40
0.2173978822824257
 50
17.0596655967310404
 51
49.9218831881046228
  0
ARC
  5
32E47
  8
0
 10
6208.342267261530651
 20
339.0205467571186091
 30
0.0
 40
0.1757171043359876
 50
311.0981058513011135
 51
14.6787037598388306
  0
ARC
  5
32E48
  8
0
 10
6208.2925077349700587
 20
339.0706111167323229
 30
0.0
 40
0.2461970598759009
 50
289.0190800308853909
 51
312.1659520909237813
  0
ARC
  5
32E49
  8
0
 10
6208.2716743040573419
 20
339.1630764032636876
 30
0.0
 40
0.3405638938611023
 50
247.2852333202642967
 51
287.2629509203931093
  0
ARC
  5
32E4A
  8
0
 10
6208.2646279427190166
 20
339.1584637752021081
 30
0.0
 40
0.3336214909841216
 50
227.1984990328180061
 51
248.0956442271109097
  0
ARC
  5
32E4B
  8
0
 10
6208.1929050470562288
 20
339.0871063991303913
 30
0.0
 40
0.232569688004971
 50
203.2415474036108947
 51
228.2183421774809915
  0
ARC
  5
32E4C
  8
0
 10
6208.1242165405892592
 20
339.0581144884920946
 30
0.0
 40
0.1580155305876829
 50
161.985287364911386
 51
203.4104645775067013
  0
ARC
  5
32E4D
  8
0
 10
6208.558947160491698
 20
338.5609377640021762
 30
0.0
 40
0.1781166307892857
 50
151.4067240540256876
 51
208.5932759459741987
  0
ARC
  5
32E4E
  8
0
 10
6208.5852608162877004
 20
338.5401176637881804
 30
0.0
 40
0.2112618883184254
 50
125.9051345079133029
 51
149.8640616304296032
  0
ARC
  5
32E4F
  8
0
 10
6208.6322878419523477
 20
338.4743074554726832
 30
0.0
 40
0.2921466330435327
 50
106.6431179694048978
 51
125.8065476517908934
  0
ARC
  5
32E50
  8
0
 10
6208.6465044430724447
 20
338.6035083411846927
 30
0.0
 40
0.2754063356703984
 50
207.6517855015059126
 51
243.5672852183031978
  0
ARC
  5
32E51
  8
0
 10
6208.6213777802313416
 20
340.1691034119518235
 30
0.0
 40
2.7203022712758709
 50
105.9676537434905015
 51
113.3904889528648994
  0
ARC
  5
32E52
  8
0
 10
6208.5218373181633069
 20
340.4013223351918214
 30
0.0
 40
2.4676499940149741
 50
113.4097511450675029
 51
123.3585249045181058
  0
ARC
  5
32E53
  8
0
 10
6207.8988466003629583
 20
340.9400423547547803
 30
0.0
 40
1.623435298827504
 50
157.0858064002989067
 51
202.9141935997010933
  0
ARC
  5
32E54
  8
0
 10
6208.0859724268111677
 20
340.8654166263735874
 30
0.0
 40
1.824855175632951
 50
143.6419356510425018
 51
157.2151923626663006
  0
ARC
  5
32E55
  8
0
 10
6208.2661542056212056
 20
340.7290125031727257
 30
0.0
 40
2.0508272380807839
 50
132.3606350182218137
 51
143.5572013033971928
  0
ARC
  5
32E56
  8
0
 10
6208.4716716308221294
 20
340.4908133341108964
 30
0.0
 40
2.3653293533985371
 50
123.5355549239531996
 51
132.1514247620698086
  0
ARC
  5
32E57
  8
0
 10
6207.9064537348758677
 20
340.9345579545188798
 30
0.0
 40
1.6160149945465661
 50
158.4388238139150076
 51
201.5611761860849924
  0
LINE
  5
32E58
  8
0
 10
6206.2904387403295914
 20
340.9345579545188798
 30
0.0
 11
6206.2904387403295914
 21
341.0273075898825255
 31
0.0
  0
ARC
  5
32E59
  8
0
 10
6207.8864214264267503
 20
341.0271566261760086
 30
0.0
 40
1.595982693237084
 50
171.5385572079107988
 51
179.994580402919496
  0
ARC
  5
32E5A
  8
0
 10
6208.0624741884275863
 20
341.0002621177976039
 30
0.0
 40
1.797616450912545
 50
202.6515259613398996
 51
212.1036178121916009
  0
ARC
  5
32E5B
  8
0
 10
6208.3017223803108209
 20
341.1639784804908118
 30
0.0
 40
2.0873200735459281
 50
212.420201562442287
 51
231.6522573748829927
  0
ARC
  5
32E5C
  8
0
 10
6195.1222854052657567
 20
324.2605221294841158
 30
0.0
 40
19.3469251254911789
 50
49.4569074635011035
 51
52.1005048540312004
  0
ARC
  5
32E5D
  8
0
 10
6206.0692375313738012
 20
337.0181379066200975
 30
0.0
 40
2.5365909530534698
 50
46.4551344946371003
 51
50.0459099299269567
  0
ARC
  5
32E5E
  8
0
 10
6207.0545009855541139
 20
338.0641195889713799
 30
0.0
 40
1.0996755447717259
 50
20.3994434748256204
 51
46.1192482916746371
  0
ARC
  5
32E5F
  8
0
 10
6208.7434191473057581
 20
338.7000977114515194
 30
0.0
 40
0.7050399765722576
 50
201.0007178983553899
 51
239.8048097619042949
  0
ARC
  5
32E60
  8
0
 10
6208.7232045832834046
 20
338.6827338390260138
 30
0.0
 40
0.6691454196597978
 50
202.3131501640162924
 51
242.4628370456412085
  0
LINE
  5
32E61
  8
0
 10
6208.1041630304298451
 20
338.4286804027332209
 30
0.0
 11
6208.0886483464291814
 21
338.4693005444332243
 31
0.0
  0
ARC
  5
32E62
  8
0
 10
6207.0832620599239817
 20
338.0638382425001964
 30
0.0
 40
1.0840670013344189
 50
21.9637308465907495
 51
38.737490199079609
  0
ARC
  5
32E63
  8
0
 10
6206.8915221506431408
 20
337.9008855322445015
 30
0.0
 40
1.33561536109685
 50
39.0431299219497703
 51
48.5572185676194223
  0
ARC
  5
32E64
  8
0
 10
6198.585045431562321
 20
328.3800830256942049
 30
0.0
 40
13.9705945814712198
 50
48.8642895639365804
 51
49.4286574331691781
  0
ARC
  5
32E65
  8
0
 10
6194.5899065255252935
 20
323.6379830436953853
 30
0.0
 40
20.1711548196926493
 50
49.5693772345692381
 51
51.9663029900587574
  0
ARC
  5
32E66
  8
0
 10
6208.4930168556802528
 20
341.346476587826487
 30
0.0
 40
2.3433089414710588
 50
222.317351060377689
 51
230.9852374411262872
  0
ARC
  5
32E67
  8
0
 10
6208.2311582342126712
 20
341.0954678530233082
 30
0.0
 40
1.9807171867914819
 50
212.0255475869992097
 51
222.0480438627265016
  0
ARC
  5
32E68
  8
0
 10
6208.1114195232548809
 20
341.0129189495989976
 30
0.0
 40
1.8354373089795619
 50
201.4848192768197066
 51
211.8229898321777114
  0
ARC
  5
32E69
  8
0
 10
6208.0678212515467749
 20
340.8742160538678831
 30
0.0
 40
1.7882690793449809
 50
144.9479593113337046
 51
158.5407792221714942
  0
ARC
  5
32E6A
  8
0
 10
6208.3027374548992157
 20
340.7007445797095784
 30
0.0
 40
2.0802189685307062
 50
125.9532320360369937
 51
144.7526241586463982
  0
ARC
  5
32E6B
  8
0
 10
6208.5000166652107509
 20
340.4435864052389888
 30
0.0
 40
2.4042308961296168
 50
116.3719026730588979
 51
126.160872035154398
  0
ARC
  5
32E6C
  8
0
 10
6208.6069887782496153
 20
340.2238136270074733
 30
0.0
 40
2.6486490263262672
 50
104.8119167118278057
 51
116.3333398359570054
  0
ARC
  5
32E6D
  8
0
 10
6208.6569374093787701
 20
338.149214524257502
 30
0.0
 40
3.122062616011068
 50
268.080675038327513
 51
271.9193249616723733
  0
ARC
  5
32E6E
  8
0
 10
6208.8779259015163916
 20
342.4449173378916953
 30
0.0
 40
0.025151831817976
 50
42.7706148990978505
 51
132.9205964765556018
  0
ARC
  5
32E6F
  8
0
 10
6208.8746117489999961
 20
342.4480895414088195
 30
0.0
 40
0.0205736767652026
 50
132.1777645840265052
 51
231.9968566564504897
  0
ARC
  5
32E70
  8
0
 10
6208.8776264039288435
 20
342.4518250977920957
 30
0.0
 40
0.0253734586804618
 50
231.8264172874064002
 51
304.0304539183445058
  0
ARC
  5
32E71
  8
0
 10
6208.8807964916113633
 20
342.4483438863651941
 30
0.0
 40
0.0207254763170945
 50
302.1530802071159201
 51
41.2056037781844111
  0
LINE
  5
32E72
  8
0
 10
6208.9417463842301004
 20
342.4835703731333183
 30
0.0
 11
6208.9417463835297895
 21
342.4593715545332202
 31
0.0
  0
ARC
  5
32E73
  8
0
 10
6208.8817018374202235
 20
342.4598883758476973
 30
0.0
 40
0.0600467702859216
 50
321.4717985813978203
 51
359.5068503175871228
  0
ARC
  5
32E74
  8
0
 10
6208.87804219814916
 20
342.4634695868533072
 30
0.0
 40
0.0651425391162149
 50
289.3381918131576072
 51
321.0126723100581216
  0
LINE
  5
32E75
  8
0
 10
6208.8137936268549311
 20
342.4816593488174021
 30
0.0
 11
6208.8137936275297761
 21
342.4583371957332929
 31
0.0
  0
ARC
  5
32E76
  8
0
 10
6208.8727066618548633
 20
342.4586572650557059
 30
0.0
 40
0.0589139037727533
 50
180.3112798570259088
 51
217.5185816661463036
  0
ARC
  5
32E77
  8
0
 10
6208.875328606965013
 20
342.4609205083237953
 30
0.0
 40
0.062372187580646
 50
217.7007343707169014
 51
250.8428567786658903
  0
ARC
  5
32E78
  8
0
 10
6208.8772371307159119
 20
342.4647787161695192
 30
0.0
 40
0.0666451987099376
 50
250.3814232749892028
 51
289.6185767250108256
  0
ARC
  5
32E79
  8
0
 10
6208.8810038086567147
 20
342.4828493251986856
 30
0.0
 40
0.0607468550403033
 50
0.6801006177555813
 51
66.2749931215189605
  0
ARC
  5
32E7A
  8
0
 10
6208.8786698216817967
 20
342.4777329344731811
 30
0.0
 40
0.0663699642005073
 50
66.2075119028654342
 51
113.7924880971345942
  0
ARC
  5
32E7B
  8
0
 10
6208.8764060670782783
 20
342.4808413723504259
 30
0.0
 40
0.0626177830667692
 50
113.0445929185102045
 51
179.2515235992950977
  0
ARC
  5
32E7C
  8
0
 10
6209.3083664999439861
 20
342.3636497076851128
 30
0.0
 40
0.025151831817976
 50
42.7706148990978505
 51
132.9205964765556018
  0
ARC
  5
32E7D
  8
0
 10
6209.3050523474275906
 20
342.3668219112022939
 30
0.0
 40
0.0205736767652026
 50
132.1777645840265052
 51
231.9968566564504897
  0
ARC
  5
32E7E
  8
0
 10
6209.3080670023573475
 20
342.3705574675856269
 30
0.0
 40
0.0253734586804618
 50
231.8264172874064002
 51
304.0304539183445058
  0
ARC
  5
32E7F
  8
0
 10
6209.3112370900389578
 20
342.3670762561587253
 30
0.0
 40
0.0207254763170945
 50
302.1530802071159201
 51
41.2056037781844111
  0
LINE
  5
32E80
  8
0
 10
6209.3721869826567854
 20
342.402302742926679
 30
0.0
 11
6209.3721869819582935
 21
342.3781039243266946
 31
0.0
  0
ARC
  5
32E81
  8
0
 10
6209.312142435847818
 20
342.3786207456411148
 30
0.0
 40
0.0600467702859216
 50
321.4717985813978203
 51
359.5068503175871228
  0
ARC
  5
32E82
  8
0
 10
6209.308482796575845
 20
342.3822019566467816
 30
0.0
 40
0.0651425391162149
 50
289.3381918131576072
 51
321.0126723100581216
  0
LINE
  5
32E83
  8
0
 10
6209.2442342252816161
 20
342.4003917186108765
 30
0.0
 11
6209.2442342259573707
 21
342.3770695655267104
 31
0.0
  0
ARC
  5
32E84
  8
0
 10
6209.3031472602815484
 20
342.3773896348491803
 30
0.0
 40
0.0589139037727533
 50
180.3112798570259088
 51
217.5185816661463036
  0
ARC
  5
32E85
  8
0
 10
6209.3057692053926075
 20
342.3796528781173265
 30
0.0
 40
0.062372187580646
 50
217.7007343707169014
 51
250.8428567786658903
  0
ARC
  5
32E86
  8
0
 10
6209.3076777291425969
 20
342.3835110859628799
 30
0.0
 40
0.0666451987099376
 50
250.3814232749892028
 51
289.6185767250108256
  0
ARC
  5
32E87
  8
0
 10
6209.3114444070852187
 20
342.4015816949921032
 30
0.0
 40
0.0607468550403033
 50
0.6801006177555813
 51
66.2749931215189605
  0
ARC
  5
32E88
  8
0
 10
6209.3091104201093913
 20
342.3964653042667123
 30
0.0
 40
0.0663699642005073
 50
66.2075119028654342
 51
113.7924880971345942
  0
ARC
  5
32E89
  8
0
 10
6209.3068466655058728
 20
342.3995737421439003
 30
0.0
 40
0.0626177830667692
 50
113.0445929185102045
 51
179.2515235992950977
  0
ARC
  5
32E8A
  8
0
 10
6208.9248062089791347
 20
342.0394346106548937
 30
0.0
 40
0.025151831817976
 50
42.7706148990978505
 51
132.9205964765556018
  0
ARC
  5
32E8B
  8
0
 10
6208.9214920564618296
 20
342.0426068141720748
 30
0.0
 40
0.0205736767652026
 50
132.1777645840265052
 51
231.9968566564504897
  0
ARC
  5
32E8C
  8
0
 10
6208.9245067113906771
 20
342.0463423705554078
 30
0.0
 40
0.0253734586804618
 50
231.8264172874064002
 51
304.0304539183445058
  0
ARC
  5
32E8D
  8
0
 10
6208.9276767990731969
 20
342.0428611591285062
 30
0.0
 40
0.0207254763170945
 50
302.1530802071159201
 51
41.2056037781844111
  0
LINE
  5
32E8E
  8
0
 10
6208.988626691691934
 20
342.0780876458965167
 30
0.0
 11
6208.988626690991623
 21
342.0538888272964755
 31
0.0
  0
ARC
  5
32E8F
  8
0
 10
6208.9285821448811475
 20
342.0544056486108957
 30
0.0
 40
0.0600467702859216
 50
321.4717985813978203
 51
359.5068503175871228
  0
ARC
  5
32E90
  8
0
 10
6208.924922505611903
 20
342.0579868596165056
 30
0.0
 40
0.0651425391162149
 50
289.3381918131576072
 51
321.0126723100581216
  0
LINE
  5
32E91
  8
0
 10
6208.8606739343167646
 20
342.0761766215807143
 30
0.0
 11
6208.8606739349916097
 21
342.0528544684964913
 31
0.0
  0
ARC
  5
32E92
  8
0
 10
6208.9195869693166969
 20
342.053174537819018
 30
0.0
 40
0.0589139037727533
 50
180.3112798570259088
 51
217.5185816661463036
  0
ARC
  5
32E93
  8
0
 10
6208.9222089144268466
 20
342.0554377810869937
 30
0.0
 40
0.062372187580646
 50
217.7007343707169014
 51
250.8428567786658903
  0
ARC
  5
32E94
  8
0
 10
6208.924117438176836
 20
342.0592959889327176
 30
0.0
 40
0.0666451987099376
 50
250.3814232749892028
 51
289.6185767250108256
  0
ARC
  5
32E95
  8
0
 10
6208.9278841161185483
 20
342.0773665979618841
 30
0.0
 40
0.0607468550403033
 50
0.6801006177555813
 51
66.2749931215189605
  0
ARC
  5
32E96
  8
0
 10
6208.9255501291436303
 20
342.0722502072364932
 30
0.0
 40
0.0663699642005073
 50
66.2075119028654342
 51
113.7924880971345942
  0
ARC
  5
32E97
  8
0
 10
6208.9232863745401119
 20
342.0753586451136243
 30
0.0
 40
0.0626177830667692
 50
113.0445929185102045
 51
179.2515235992950977
  0
ARC
  5
32E98
  8
0
 10
6208.8105221877640361
 20
341.6556372320836772
 30
0.0
 40
0.025151831817976
 50
42.7706148990978505
 51
132.9205964765556018
  0
ARC
  5
32E99
  8
0
 10
6208.807208035246731
 20
341.6588094356009151
 30
0.0
 40
0.0205736767652026
 50
132.1777645840265052
 51
231.9968566564504897
  0
ARC
  5
32E9A
  8
0
 10
6208.8102226901783069
 20
341.6625449919841913
 30
0.0
 40
0.0253734586804618
 50
231.8264172874064002
 51
304.0304539183445058
  0
ARC
  5
32E9B
  8
0
 10
6208.8133927778590078
 20
341.6590637805572896
 30
0.0
 40
0.0207254763170945
 50
302.1530802071159201
 51
41.2056037781844111
  0
LINE
  5
32E9C
  8
0
 10
6208.8743426704759258
 20
341.6942902673253002
 30
0.0
 11
6208.8743426697774339
 21
341.6700914487253158
 31
0.0
  0
ARC
  5
32E9D
  8
0
 10
6208.8142981236678679
 20
341.6706082700396792
 30
0.0
 40
0.0600467702859216
 50
321.4717985813978203
 51
359.5068503175871228
  0
ARC
  5
32E9E
  8
0
 10
6208.8106384843968044
 20
341.6741894810452891
 30
0.0
 40
0.0651425391162149
 50
289.3381918131576072
 51
321.0126723100581216
  0
LINE
  5
32E9F
  8
0
 10
6208.7463899131025755
 20
341.6923792430094977
 30
0.0
 11
6208.7463899137774206
 21
341.6690570899252748
 31
0.0
  0
ARC
  5
32EA0
  8
0
 10
6208.8053029481015983
 20
341.6693771592476878
 30
0.0
 40
0.0589139037727533
 50
180.3112798570259088
 51
217.5185816661463036
  0
ARC
  5
32EA1
  8
0
 10
6208.807924893211748
 20
341.6716404025157772
 30
0.0
 40
0.062372187580646
 50
217.7007343707169014
 51
250.8428567786658903
  0
ARC
  5
32EA2
  8
0
 10
6208.8098334169635564
 20
341.6754986103615011
 30
0.0
 40
0.0666451987099376
 50
250.3814232749892028
 51
289.6185767250108256
  0
ARC
  5
32EA3
  8
0
 10
6208.8136000949043591
 20
341.6935692193907244
 30
0.0
 40
0.0607468550403033
 50
0.6801006177555813
 51
66.2749931215189605
  0
ARC
  5
32EA4
  8
0
 10
6208.8112661079294412
 20
341.6884528286652198
 30
0.0
 40
0.0663699642005073
 50
66.2075119028654342
 51
113.7924880971345942
  0
ARC
  5
32EA5
  8
0
 10
6208.8090023533259227
 20
341.6915612665424078
 30
0.0
 40
0.0626177830667692
 50
113.0445929185102045
 51
179.2515235992950977
  0
ARC
  5
32EA6
  8
0
 10
6209.427709462812345
 20
341.8874150204641751
 30
0.0
 40
0.025151831817976
 50
42.7706148990978505
 51
132.9205964765556018
  0
ARC
  5
32EA7
  8
0
 10
6209.4243953102959495
 20
341.890587223981413
 30
0.0
 40
0.0205736767652026
 50
132.1777645840265052
 51
231.9968566564504897
  0
ARC
  5
32EA8
  8
0
 10
6209.4274099652257064
 20
341.8943227803648028
 30
0.0
 40
0.0253734586804618
 50
231.8264172874064002
 51
304.0304539183445058
  0
ARC
  5
32EA9
  8
0
 10
6209.4305800529082262
 20
341.8908415689377875
 30
0.0
 40
0.0207254763170945
 50
302.1530802071159201
 51
41.2056037781844111
  0
LINE
  5
32EAA
  8
0
 10
6209.4915299455260538
 20
341.9260680557059118
 30
0.0
 11
6209.4915299448257429
 21
341.9018692371058137
 31
0.0
  0
ARC
  5
32EAB
  8
0
 10
6209.4314853987170864
 20
341.9023860584201771
 30
0.0
 40
0.0600467702859216
 50
321.4717985813978203
 51
359.5068503175871228
  0
ARC
  5
32EAC
  8
0
 10
6209.4278257594451134
 20
341.9059672694259007
 30
0.0
 40
0.0651425391162149
 50
289.3381918131576072
 51
321.0126723100581216
  0
LINE
  5
32EAD
  8
0
 10
6209.3635771881508845
 20
341.9241570313899956
 30
0.0
 11
6209.3635771888257295
 21
341.9008348783057727
 31
0.0
  0
ARC
  5
32EAE
  8
0
 10
6209.4224902231499073
 20
341.9011549476282994
 30
0.0
 40
0.0589139037727533
 50
180.3112798570259088
 51
217.5185816661463036
  0
ARC
  5
32EAF
  8
0
 10
6209.4251121682609664
 20
341.9034181908963888
 30
0.0
 40
0.062372187580646
 50
217.7007343707169014
 51
250.8428567786658903
  0
ARC
  5
32EB0
  8
0
 10
6209.4270206920118653
 20
341.9072763987421126
 30
0.0
 40
0.0666451987099376
 50
250.3814232749892028
 51
289.6185767250108256
  0
ARC
  5
32EB1
  8
0
 10
6209.4307873699526681
 20
341.9253470077712223
 30
0.0
 40
0.0607468550403033
 50
0.6801006177555813
 51
66.2749931215189605
  0
ARC
  5
32EB2
  8
0
 10
6209.4284533829786596
 20
341.9202306170457746
 30
0.0
 40
0.0663699642005073
 50
66.2075119028654342
 51
113.7924880971345942
  0
ARC
  5
32EB3
  8
0
 10
6209.4261896283742317
 20
341.9233390549230194
 30
0.0
 40
0.0626177830667692
 50
113.0445929185102045
 51
179.2515235992950977
  0
ARC
  5
32EB4
  8
0
 10
6209.7066257192373087
 20
342.2051318981324926
 30
0.0
 40
0.025151831817976
 50
42.7706148990978505
 51
132.9205964765556018
  0
ARC
  5
32EB5
  8
0
 10
6209.7033115667200036
 20
342.2083041016496736
 30
0.0
 40
0.0205736767652026
 50
132.1777645840265052
 51
231.9968566564504897
  0
ARC
  5
32EB6
  8
0
 10
6209.7063262216488511
 20
342.2120396580331203
 30
0.0
 40
0.0253734586804618
 50
231.8264172874064002
 51
304.0304539183445058
  0
ARC
  5
32EB7
  8
0
 10
6209.7094963093313709
 20
342.2085584466062187
 30
0.0
 40
0.0207254763170945
 50
302.1530802071159201
 51
41.2056037781844111
  0
LINE
  5
32EB8
  8
0
 10
6209.7704462019491984
 20
342.2437849333741724
 30
0.0
 11
6209.7704462012488875
 21
342.2195861147740743
 31
0.0
  0
ARC
  5
32EB9
  8
0
 10
6209.710401655140231
 20
342.2201029360884945
 30
0.0
 40
0.0600467702859216
 50
321.4717985813978203
 51
359.5068503175871228
  0
ARC
  5
32EBA
  8
0
 10
6209.706742015868258
 20
342.2236841470942181
 30
0.0
 40
0.0651425391162149
 50
289.3381918131576072
 51
321.0126723100581216
  0
LINE
  5
32EBB
  8
0
 10
6209.6424934445749386
 20
342.2418739090584268
 30
0.0
 11
6209.6424934452488742
 21
342.2185517559740902
 31
0.0
  0
ARC
  5
32EBC
  8
0
 10
6209.7014064795739614
 20
342.2188718252966169
 30
0.0
 40
0.0589139037727533
 50
180.3112798570259088
 51
217.5185816661463036
  0
ARC
  5
32EBD
  8
0
 10
6209.7040284246850206
 20
342.2211350685647062
 30
0.0
 40
0.062372187580646
 50
217.7007343707169014
 51
250.8428567786658903
  0
ARC
  5
32EBE
  8
0
 10
6209.7059369484359195
 20
342.2249932764103733
 30
0.0
 40
0.0666451987099376
 50
250.3814232749892028
 51
289.6185767250108256
  0
ARC
  5
32EBF
  8
0
 10
6209.7097036263758127
 20
342.2430638854394829
 30
0.0
 40
0.0607468550403033
 50
0.6801006177555813
 51
66.2749931215189605
  0
ARC
  5
32EC0
  8
0
 10
6209.7073696394018043
 20
342.237947494714092
 30
0.0
 40
0.0663699642005073
 50
66.2075119028654342
 51
113.7924880971345942
  0
ARC
  5
32EC1
  8
0
 10
6209.7051058847973763
 20
342.24105593259128
 30
0.0
 40
0.0626177830667692
 50
113.0445929185102045
 51
179.2515235992950977
  0
ARC
  5
32EC2
  8
0
 10
6210.0522081055478338
 20
341.9777917687929971
 30
0.0
 40
0.025151831817976
 50
42.7706148990978505
 51
132.9205964765556018
  0
ARC
  5
32EC3
  8
0
 10
6210.0488939530314383
 20
341.9809639723101782
 30
0.0
 40
0.0205736767652026
 50
132.1777645840265052
 51
231.9968566564504897
  0
ARC
  5
32EC4
  8
0
 10
6210.0519086079611952
 20
341.9846995286935112
 30
0.0
 40
0.0253734586804618
 50
231.8264172874064002
 51
304.0304539183445058
  0
ARC
  5
32EC5
  8
0
 10
6210.055078695641896
 20
341.9812183172666096
 30
0.0
 40
0.0207254763170945
 50
302.1530802071159201
 51
41.2056037781844111
  0
LINE
  5
32EC6
  8
0
 10
6210.1160285882597236
 20
342.0164448040346201
 30
0.0
 11
6210.1160285875603222
 21
341.9922459854345789
 31
0.0
  0
ARC
  5
32EC7
  8
0
 10
6210.0559840414507562
 20
341.9927628067489991
 30
0.0
 40
0.0600467702859216
 50
321.4717985813978203
 51
359.5068503175871228
  0
ARC
  5
32EC8
  8
0
 10
6210.0523244021796927
 20
341.996344017754609
 30
0.0
 40
0.0651425391162149
 50
289.3381918131576072
 51
321.0126723100581216
  0
LINE
  5
32EC9
  8
0
 10
6209.9880758308845543
 20
342.0145337797188176
 30
0.0
 11
6209.9880758315603089
 21
341.9912116266345947
 31
0.0
  0
ARC
  5
32ECA
  8
0
 10
6210.0469888658863056
 20
341.9915316959571214
 30
0.0
 40
0.0589139037727533
 50
180.3112798570259088
 51
217.5185816661463036
  0
ARC
  5
32ECB
  8
0
 10
6210.0496108109973648
 20
341.9937949392250971
 30
0.0
 40
0.062372187580646
 50
217.7007343707169014
 51
250.8428567786658903
  0
ARC
  5
32ECC
  8
0
 10
6210.0515193347473542
 20
341.997653147070821
 30
0.0
 40
0.0666451987099376
 50
250.3814232749892028
 51
289.6185767250108256
  0
ARC
  5
32ECD
  8
0
 10
6210.0552860126881569
 20
342.0157237560999874
 30
0.0
 40
0.0607468550403033
 50
0.6801006177555813
 51
66.2749931215189605
  0
ARC
  5
32ECE
  8
0
 10
6210.052952025713239
 20
342.0106073653744829
 30
0.0
 40
0.0663699642005073
 50
66.2075119028654342
 51
113.7924880971345942
  0
ARC
  5
32ECF
  8
0
 10
6210.050688271108811
 20
342.0137158032517277
 30
0.0
 40
0.0626177830667692
 50
113.0445929185102045
 51
179.2515235992950977
  0
ARC
  5
32ED0
  8
0
 10
6209.8378399050516236
 20
341.602274347559387
 30
0.0
 40
0.025151831817976
 50
42.7706148990978505
 51
132.9205964765556018
  0
ARC
  5
32ED1
  8
0
 10
6209.8345257525361376
 20
341.6054465510766249
 30
0.0
 40
0.0205736767652026
 50
132.1777645840265052
 51
231.9968566564504897
  0
ARC
  5
32ED2
  8
0
 10
6209.8375404074658945
 20
341.6091821074597874
 30
0.0
 40
0.0253734586804618
 50
231.8264172874064002
 51
304.0304539183445058
  0
ARC
  5
32ED3
  8
0
 10
6209.8407104951465953
 20
341.6057008960329995
 30
0.0
 40
0.0207254763170945
 50
302.1530802071159201
 51
41.2056037781844111
  0
LINE
  5
32ED4
  8
0
 10
6209.9016603877662419
 20
341.6409273828008963
 30
0.0
 11
6209.901660387065931
 21
341.6167285642010256
 31
0.0
  0
ARC
  5
32ED5
  8
0
 10
6209.841615840956365
 20
341.617245385515389
 30
0.0
 40
0.0600467702859216
 50
321.4717985813978203
 51
359.5068503175871228
  0
ARC
  5
32ED6
  8
0
 10
6209.8379562016853015
 20
341.6208265965209989
 30
0.0
 40
0.0651425391162149
 50
289.3381918131576072
 51
321.0126723100581216
  0
LINE
  5
32ED7
  8
0
 10
6209.7737076303910726
 20
341.6390163584852075
 30
0.0
 11
6209.7737076310650082
 21
341.6156942054009846
 31
0.0
  0
ARC
  5
32ED8
  8
0
 10
6209.8326206653910049
 20
341.6160142747235113
 30
0.0
 40
0.0589139037727533
 50
180.3112798570259088
 51
217.5185816661463036
  0
ARC
  5
32ED9
  8
0
 10
6209.8352426105020641
 20
341.618277517991487
 30
0.0
 40
0.062372187580646
 50
217.7007343707169014
 51
250.8428567786658903
  0
ARC
  5
32EDA
  8
0
 10
6209.8371511342520535
 20
341.6221357258372109
 30
0.0
 40
0.0666451987099376
 50
250.3814232749892028
 51
289.6185767250108256
  0
ARC
  5
32EDB
  8
0
 10
6209.8409178121937657
 20
341.6402063348663773
 30
0.0
 40
0.0607468550403033
 50
0.6801006177555813
 51
66.2749931215189605
  0
ARC
  5
32EDC
  8
0
 10
6209.8385838252170288
 20
341.6350899441408728
 30
0.0
 40
0.0663699642005073
 50
66.2075119028654342
 51
113.7924880971345942
  0
ARC
  5
32EDD
  8
0
 10
6209.8363200706144198
 20
341.6381983820181176
 30
0.0
 40
0.0626177830667692
 50
113.0445929185102045
 51
179.2515235992950977
  0
ARC
  5
32EDE
  8
0
 10
6210.327275039820961
 20
341.6935410762778247
 30
0.0
 40
0.025151831817976
 50
42.7706148990978505
 51
132.9205964765556018
  0
ARC
  5
32EDF
  8
0
 10
6210.3239608873036559
 20
341.6967132797950057
 30
0.0
 40
0.0205736767652026
 50
132.1777645840265052
 51
231.9968566564504897
  0
ARC
  5
32EE0
  8
0
 10
6210.3269755422343223
 20
341.7004488361782819
 30
0.0
 40
0.0253734586804618
 50
231.8264172874064002
 51
304.0304539183445058
  0
ARC
  5
32EE1
  8
0
 10
6210.3301456299159327
 20
341.6969676247513803
 30
0.0
 40
0.0207254763170945
 50
302.1530802071159201
 51
41.2056037781844111
  0
LINE
  5
32EE2
  8
0
 10
6210.3910955225337602
 20
341.7321941115193908
 30
0.0
 11
6210.3910955218352683
 21
341.7079952929194064
 31
0.0
  0
ARC
  5
32EE3
  8
0
 10
6210.3310509757247928
 20
341.7085121142338267
 30
0.0
 40
0.0600467702859216
 50
321.4717985813978203
 51
359.5068503175871228
  0
ARC
  5
32EE4
  8
0
 10
6210.3273913364537293
 20
341.7120933252394934
 30
0.0
 40
0.0651425391162149
 50
289.3381918131576072
 51
321.0126723100581216
  0
LINE
  5
32EE5
  8
0
 10
6210.2631427651604099
 20
341.7302830872035884
 30
0.0
 11
6210.263142765835255
 21
341.7069609341194223
 31
0.0
  0
ARC
  5
32EE6
  8
0
 10
6210.3220558001594327
 20
341.7072810034418922
 30
0.0
 40
0.0589139037727533
 50
180.3112798570259088
 51
217.5185816661463036
  0
ARC
  5
32EE7
  8
0
 10
6210.3246777452686729
 20
341.7095442467099247
 30
0.0
 40
0.062372187580646
 50
217.7007343707169014
 51
250.8428567786658903
  0
ARC
  5
32EE8
  8
0
 10
6210.3265862690213908
 20
341.7134024545557054
 30
0.0
 40
0.0666451987099376
 50
250.3814232749892028
 51
289.6185767250108256
  0
ARC
  5
32EE9
  8
0
 10
6210.3303529469621935
 20
341.731473063584815
 30
0.0
 40
0.0607468550403033
 50
0.6801006177555813
 51
66.2749931215189605
  0
ARC
  5
32EEA
  8
0
 10
6210.3280189599863661
 20
341.7263566728593105
 30
0.0
 40
0.0663699642005073
 50
66.2075119028654342
 51
113.7924880971345942
  0
ARC
  5
32EEB
  8
0
 10
6210.3257552053828476
 20
341.7294651107364984
 30
0.0
 40
0.0626177830667692
 50
113.0445929185102045
 51
179.2515235992950977
  0
ARC
  5
32EEC
  8
0
 10
6210.5194354738059701
 20
341.3645346581524791
 30
0.0
 40
0.025151831817976
 50
42.7706148990978505
 51
132.9205964765556018
  0
ARC
  5
32EED
  8
0
 10
6210.5161213212895746
 20
341.367706861669717
 30
0.0
 40
0.0205736767652026
 50
132.1777645840265052
 51
231.9968566564504897
  0
ARC
  5
32EEE
  8
0
 10
6210.519135976220241
 20
341.3714424180528795
 30
0.0
 40
0.0253734586804618
 50
231.8264172874064002
 51
304.0304539183445058
  0
ARC
  5
32EEF
  8
0
 10
6210.5223060639009418
 20
341.3679612066260916
 30
0.0
 40
0.0207254763170945
 50
302.1530802071159201
 51
41.2056037781844111
  0
LINE
  5
32EF0
  8
0
 10
6210.5832559565196789
 20
341.4031876933941021
 30
0.0
 11
6210.583255955819368
 21
341.378988874794004
 31
0.0
  0
ARC
  5
32EF1
  8
0
 10
6210.523211409709802
 20
341.3795056961084811
 30
0.0
 40
0.0600467702859216
 50
321.4717985813978203
 51
359.5068503175871228
  0
ARC
  5
32EF2
  8
0
 10
6210.519551770437829
 20
341.383086907114091
 30
0.0
 40
0.0651425391162149
 50
289.3381918131576072
 51
321.0126723100581216
  0
LINE
  5
32EF3
  8
0
 10
6210.4553031991436001
 20
341.4012766690782996
 30
0.0
 11
6210.4553031998193546
 21
341.3779545159940767
 31
0.0
  0
ARC
  5
32EF4
  8
0
 10
6210.5142162341453513
 20
341.3782745853164897
 30
0.0
 40
0.0589139037727533
 50
180.3112798570259088
 51
217.5185816661463036
  0
ARC
  5
32EF5
  8
0
 10
6210.5168381792545915
 20
341.3805378285845791
 30
0.0
 40
0.062372187580646
 50
217.7007343707169014
 51
250.8428567786658903
  0
ARC
  5
32EF6
  8
0
 10
6210.5187467030045809
 20
341.384396036430303
 30
0.0
 40
0.0666451987099376
 50
250.3814232749892028
 51
289.6185767250108256
  0
ARC
  5
32EF7
  8
0
 10
6210.5225133809472027
 20
341.4024666454595263
 30
0.0
 40
0.0607468550403033
 50
0.6801006177555813
 51
66.2749931215189605
  0
ARC
  5
32EF8
  8
0
 10
6210.5201793939731942
 20
341.3973502547340217
 30
0.0
 40
0.0663699642005073
 50
66.2075119028654342
 51
113.7924880971345942
  0
ARC
  5
32EF9
  8
0
 10
6210.5179156393678568
 20
341.400458692611096
 30
0.0
 40
0.0626177830667692
 50
113.0445929185102045
 51
179.2515235992950977
  0
ARC
  5
32EFA
  8
0
 10
6210.1063488351110209
 20
341.2179785641725971
 30
0.0
 40
0.025151831817976
 50
42.7706148990978505
 51
132.9205964765556018
  0
ARC
  5
32EFB
  8
0
 10
6210.1030346825946253
 20
341.2211507676897781
 30
0.0
 40
0.0205736767652026
 50
132.1777645840265052
 51
231.9968566564504897
  0
ARC
  5
32EFC
  8
0
 10
6210.1060493375225633
 20
341.2248863240732248
 30
0.0
 40
0.0253734586804618
 50
231.8264172874064002
 51
304.0304539183445058
  0
ARC
  5
32EFD
  8
0
 10
6210.1092194252059926
 20
341.2214051126463232
 30
0.0
 40
0.0207254763170945
 50
302.1530802071159201
 51
41.2056037781844111
  0
LINE
  5
32EFE
  8
0
 10
6210.1701693178238202
 20
341.2566315994142769
 30
0.0
 11
6210.1701693171225998
 21
341.2324327808141788
 31
0.0
  0
ARC
  5
32EFF
  8
0
 10
6210.1101247710139432
 20
341.2329496021285991
 30
0.0
 40
0.0600467702859216
 50
321.4717985813978203
 51
359.5068503175871228
  0
ARC
  5
32F00
  8
0
 10
6210.1064651317428797
 20
341.2365308131343227
 30
0.0
 40
0.0651425391162149
 50
289.3381918131576072
 51
321.0126723100581216
  0
LINE
  5
32F01
  8
0
 10
6210.0422165604495603
 20
341.2547205750984745
 30
0.0
 11
6210.0422165611244054
 21
341.2313984220141947
 31
0.0
  0
ARC
  5
32F02
  8
0
 10
6210.1011295954476736
 20
341.2317184913367214
 30
0.0
 40
0.0589139037727533
 50
180.3112798570259088
 51
217.5185816661463036
  0
ARC
  5
32F03
  8
0
 10
6210.1037515405596423
 20
341.2339817346048108
 30
0.0
 40
0.062372187580646
 50
217.7007343707169014
 51
250.8428567786658903
  0
ARC
  5
32F04
  8
0
 10
6210.1056600643096317
 20
341.2378399424504778
 30
0.0
 40
0.0666451987099376
 50
250.3814232749892028
 51
289.6185767250108256
  0
ARC
  5
32F05
  8
0
 10
6210.1094267422522535
 20
341.2559105514795874
 30
0.0
 40
0.0607468550403033
 50
0.6801006177555813
 51
66.2749931215189605
  0
ARC
  5
32F06
  8
0
 10
6210.1070927552773355
 20
341.2507941607541966
 30
0.0
 40
0.0663699642005073
 50
66.2075119028654342
 51
113.7924880971345942
  0
ARC
  5
32F07
  8
0
 10
6210.1048290006719981
 20
341.2539025986313845
 30
0.0
 40
0.0626177830667692
 50
113.0445929185102045
 51
179.2515235992950977
  0
ARC
  5
32F08
  8
0
 10
6209.5276268291172528
 20
341.3112744560783085
 30
0.0
 40
0.025151831817976
 50
42.7706148990978505
 51
132.9205964765556018
  0
ARC
  5
32F09
  8
0
 10
6209.5243126765999477
 20
341.3144466595953759
 30
0.0
 40
0.0205736767652026
 50
132.1777645840265052
 51
231.9968566564504897
  0
ARC
  5
32F0A
  8
0
 10
6209.5273273315287952
 20
341.3181822159788226
 30
0.0
 40
0.0253734586804618
 50
231.8264172874064002
 51
304.0304539183445058
  0
ARC
  5
32F0B
  8
0
 10
6209.5304974192122245
 20
341.314701004551921
 30
0.0
 40
0.0207254763170945
 50
302.1530802071159201
 51
41.2056037781844111
  0
LINE
  5
32F0C
  8
0
 10
6209.5914473118291426
 20
341.3499274913198747
 30
0.0
 11
6209.5914473111288316
 21
341.3257286727197766
 31
0.0
  0
ARC
  5
32F0D
  8
0
 10
6209.5314027650201751
 20
341.3262454940343105
 30
0.0
 40
0.0600467702859216
 50
321.4717985813978203
 51
359.5068503175871228
  0
ARC
  5
32F0E
  8
0
 10
6209.5277431257482021
 20
341.3298267050399204
 30
0.0
 40
0.0651425391162149
 50
289.3381918131576072
 51
321.0126723100581216
  0
LINE
  5
32F0F
  8
0
 10
6209.4634945544548827
 20
341.3480164670040722
 30
0.0
 11
6209.4634945551297278
 21
341.3246943139199061
 31
0.0
  0
ARC
  5
32F10
  8
0
 10
6209.5224075894539055
 20
341.3250143832423191
 30
0.0
 40
0.0589139037727533
 50
180.3112798570259088
 51
217.5185816661463036
  0
ARC
  5
32F11
  8
0
 10
6209.5250295345649647
 20
341.3272776265104085
 30
0.0
 40
0.062372187580646
 50
217.7007343707169014
 51
250.8428567786658903
  0
ARC
  5
32F12
  8
0
 10
6209.5269380583158636
 20
341.3311358343560755
 30
0.0
 40
0.0666451987099376
 50
250.3814232749892028
 51
289.6185767250108256
  0
ARC
  5
32F13
  8
0
 10
6209.5307047362557569
 20
341.3492064433852988
 30
0.0
 40
0.0607468550403033
 50
0.6801006177555813
 51
66.2749931215189605
  0
ARC
  5
32F14
  8
0
 10
6209.5283707492817484
 20
341.3440900526597943
 30
0.0
 40
0.0663699642005073
 50
66.2075119028654342
 51
113.7924880971345942
  0
ARC
  5
32F15
  8
0
 10
6209.5261069946791395
 20
341.3471984905369823
 30
0.0
 40
0.0626177830667692
 50
113.0445929185102045
 51
179.2515235992950977
  0
ARC
  5
32F16
  8
0
 10
6209.6811276794724108
 20
341.0896428785659964
 30
0.0
 40
0.025151831817976
 50
42.7706148990978505
 51
132.9205964765556018
  0
ARC
  5
32F17
  8
0
 10
6209.6778135269551058
 20
341.0928150820831775
 30
0.0
 40
0.0205736767652026
 50
132.1777645840265052
 51
231.9968566564504897
  0
ARC
  5
32F18
  8
0
 10
6209.6808281818848627
 20
341.0965506384665105
 30
0.0
 40
0.0253734586804618
 50
231.8264172874064002
 51
304.0304539183445058
  0
ARC
  5
32F19
  8
0
 10
6209.6839982695655635
 20
341.0930694270396089
 30
0.0
 40
0.0207254763170945
 50
302.1530802071159201
 51
41.2056037781844111
  0
LINE
  5
32F1A
  8
0
 10
6209.7449481621852101
 20
341.1282959138076194
 30
0.0
 11
6209.7449481614848992
 21
341.1040970952075781
 31
0.0
  0
ARC
  5
32F1B
  8
0
 10
6209.6849036153753332
 20
341.1046139165219984
 30
0.0
 40
0.0600467702859216
 50
321.4717985813978203
 51
359.5068503175871228
  0
ARC
  5
32F1C
  8
0
 10
6209.6812439761042697
 20
341.108195127527722
 30
0.0
 40
0.0651425391162149
 50
289.3381918131576072
 51
321.0126723100581216
  0
LINE
  5
32F1D
  8
0
 10
6209.6169954048100408
 20
341.1263848894918169
 30
0.0
 11
6209.6169954054848859
 21
341.103062736407594
 31
0.0
  0
ARC
  5
32F1E
  8
0
 10
6209.6759084398099731
 20
341.1033828057301207
 30
0.0
 40
0.0589139037727533
 50
180.3112798570259088
 51
217.5185816661463036
  0
ARC
  5
32F1F
  8
0
 10
6209.6785303849210322
 20
341.1056460489982101
 30
0.0
 40
0.062372187580646
 50
217.7007343707169014
 51
250.8428567786658903
  0
ARC
  5
32F20
  8
0
 10
6209.6804389086710216
 20
341.1095042568438203
 30
0.0
 40
0.0666451987099376
 50
250.3814232749892028
 51
289.6185767250108256
  0
ARC
  5
32F21
  8
0
 10
6209.6842055866118244
 20
341.1275748658729867
 30
0.0
 40
0.0607468550403033
 50
0.6801006177555813
 51
66.2749931215189605
  0
ARC
  5
32F22
  8
0
 10
6209.681871599637816
 20
341.1224584751474822
 30
0.0
 40
0.0663699642005073
 50
66.2075119028654342
 51
113.7924880971345942
  0
ARC
  5
32F23
  8
0
 10
6209.679607845033388
 20
341.125566913024727
 30
0.0
 40
0.0626177830667692
 50
113.0445929185102045
 51
179.2515235992950977
  0
ARC
  5
32F24
  8
0
 10
6210.6175877784789918
 20
341.0094127360380867
 30
0.0
 40
0.025151831817976
 50
42.7706148990978505
 51
132.9205964765556018
  0
ARC
  5
32F25
  8
0
 10
6210.6142736259598678
 20
341.0125849395553246
 30
0.0
 40
0.0205736767652026
 50
132.1777645840265052
 51
231.9968566564504897
  0
ARC
  5
32F26
  8
0
 10
6210.6172882808896247
 20
341.0163204959384871
 30
0.0
 40
0.0253734586804618
 50
231.8264172874064002
 51
304.0304539183445058
  0
ARC
  5
32F27
  8
0
 10
6210.6204583685721445
 20
341.0128392845116991
 30
0.0
 40
0.0207254763170945
 50
302.1530802071159201
 51
41.2056037781844111
  0
LINE
  5
32F28
  8
0
 10
6210.6814082611908816
 20
341.048065771279596
 30
0.0
 11
6210.6814082604905707
 21
341.0238669526797253
 31
0.0
  0
ARC
  5
32F29
  8
0
 10
6210.6213637143810047
 20
341.0243837739940886
 30
0.0
 40
0.0600467702859216
 50
321.4717985813978203
 51
359.5068503175871228
  0
ARC
  5
32F2A
  8
0
 10
6210.6177040751099412
 20
341.0279649849996986
 30
0.0
 40
0.0651425391162149
 50
289.3381918131576072
 51
321.0126723100581216
  0
LINE
  5
32F2B
  8
0
 10
6210.5534555038157123
 20
341.0461547469639072
 30
0.0
 11
6210.5534555044905574
 21
341.0228325938796843
 31
0.0
  0
ARC
  5
32F2C
  8
0
 10
6210.6123685388147351
 20
341.023152663202211
 30
0.0
 40
0.0589139037727533
 50
180.3112798570259088
 51
217.5185816661463036
  0
ARC
  5
32F2D
  8
0
 10
6210.6149904839267037
 20
341.0254159064701867
 30
0.0
 40
0.062372187580646
 50
217.7007343707169014
 51
250.8428567786658903
  0
ARC
  5
32F2E
  8
0
 10
6210.6168990076766931
 20
341.0292741143159105
 30
0.0
 40
0.0666451987099376
 50
250.3814232749892028
 51
289.6185767250108256
  0
ARC
  5
32F2F
  8
0
 10
6210.6206656856193149
 20
341.047344723345077
 30
0.0
 40
0.0607468550403033
 50
0.6801006177555813
 51
66.2749931215189605
  0
ARC
  5
32F30
  8
0
 10
6210.618331698642578
 20
341.0422283326195725
 30
0.0
 40
0.0663699642005073
 50
66.2075119028654342
 51
113.7924880971345942
  0
ARC
  5
32F31
  8
0
 10
6210.6160679440390595
 20
341.0453367704968173
 30
0.0
 40
0.0626177830667692
 50
113.0445929185102045
 51
179.2515235992950977
  0
ARC
  5
32F32
  8
0
 10
6210.6175426938880264
 20
340.6444066407693754
 30
0.0
 40
0.025151831817976
 50
42.7706148990978505
 51
132.9205964765556018
  0
ARC
  5
32F33
  8
0
 10
6210.6142285413734498
 20
340.6475788442866133
 30
0.0
 40
0.0205736767652026
 50
132.1777645840265052
 51
231.9968566564504897
  0
ARC
  5
32F34
  8
0
 10
6210.6172431963032068
 20
340.6513144006698894
 30
0.0
 40
0.0253734586804618
 50
231.8264172874064002
 51
304.0304539183445058
  0
ARC
  5
32F35
  8
0
 10
6210.6204132839839076
 20
340.6478331892429878
 30
0.0
 40
0.0207254763170945
 50
302.1530802071159201
 51
41.2056037781844111
  0
LINE
  5
32F36
  8
0
 10
6210.6813631766026447
 20
340.6830596760109984
 30
0.0
 11
6210.6813631759023338
 21
340.6588608574109003
 31
0.0
  0
ARC
  5
32F37
  8
0
 10
6210.6213186297927678
 20
340.6593776787253773
 30
0.0
 40
0.0600467702859216
 50
321.4717985813978203
 51
359.5068503175871228
  0
ARC
  5
32F38
  8
0
 10
6210.6176589905207948
 20
340.662958889731101
 30
0.0
 40
0.0651425391162149
 50
289.3381918131576072
 51
321.0126723100581216
  0
LINE
  5
32F39
  8
0
 10
6210.5534104192265659
 20
340.6811486516951959
 30
0.0
 11
6210.5534104199023204
 21
340.657826498610973
 31
0.0
  0
ARC
  5
32F3A
  8
0
 10
6210.6123234542283171
 20
340.658146567933386
 30
0.0
 40
0.0589139037727533
 50
180.3112798570259088
 51
217.5185816661463036
  0
ARC
  5
32F3B
  8
0
 10
6210.6149453993375573
 20
340.660409811201589
 30
0.0
 40
0.062372187580646
 50
217.7007343707169014
 51
250.8428567786658903
  0
ARC
  5
32F3C
  8
0
 10
6210.6168539230875467
 20
340.6642680190471992
 30
0.0
 40
0.0666451987099376
 50
250.3814232749892028
 51
289.6185767250108256
  0
ARC
  5
32F3D
  8
0
 10
6210.6206206010301685
 20
340.6823386280763089
 30
0.0
 40
0.0607468550403033
 50
0.6801006177555813
 51
66.2749931215189605
  0
ARC
  5
32F3E
  8
0
 10
6210.61828661405616
 20
340.677222237350918
 30
0.0
 40
0.0663699642005073
 50
66.2075119028654342
 51
113.7924880971345942
  0
ARC
  5
32F3F
  8
0
 10
6210.6160228594508226
 20
340.680330675228106
 30
0.0
 40
0.0626177830667692
 50
113.0445929185102045
 51
179.2515235992950977
  0
ARC
  5
32F40
  8
0
 10
6210.1985522283548562
 20
340.7800665470625745
 30
0.0
 40
0.025151831817976
 50
42.7706148990978505
 51
132.9205964765556018
  0
ARC
  5
32F41
  8
0
 10
6210.1952380758375512
 20
340.7832387505798124
 30
0.0
 40
0.0205736767652026
 50
132.1777645840265052
 51
231.9968566564504897
  0
ARC
  5
32F42
  8
0
 10
6210.1982527307673081
 20
340.7869743069630886
 30
0.0
 40
0.0253734586804618
 50
231.8264172874064002
 51
304.0304539183445058
  0
ARC
  5
32F43
  8
0
 10
6210.2014228184498279
 20
340.783493095536187
 30
0.0
 40
0.0207254763170945
 50
302.1530802071159201
 51
41.2056037781844111
  0
LINE
  5
32F44
  8
0
 10
6210.262372711066746
 20
340.8187195823041975
 30
0.0
 11
6210.2623727103673446
 21
340.7945207637042131
 31
0.0
  0
ARC
  5
32F45
  8
0
 10
6210.2023281642577786
 20
340.7950375850185765
 30
0.0
 40
0.0600467702859216
 50
321.4717985813978203
 51
359.5068503175871228
  0
ARC
  5
32F46
  8
0
 10
6210.1986685249867151
 20
340.7986187960243001
 30
0.0
 40
0.0651425391162149
 50
289.3381918131576072
 51
321.0126723100581216
  0
LINE
  5
32F47
  8
0
 10
6210.1344199536933957
 20
340.816808557988395
 30
0.0
 11
6210.1344199543682407
 21
340.7934864049041721
 31
0.0
  0
ARC
  5
32F48
  8
0
 10
6210.1933329886924184
 20
340.7938064742265851
 30
0.0
 40
0.0589139037727533
 50
180.3112798570259088
 51
217.5185816661463036
  0
ARC
  5
32F49
  8
0
 10
6210.1959549338025681
 20
340.7960697174946745
 30
0.0
 40
0.062372187580646
 50
217.7007343707169014
 51
250.8428567786658903
  0
ARC
  5
32F4A
  8
0
 10
6210.1978634575543765
 20
340.7999279253403984
 30
0.0
 40
0.0666451987099376
 50
250.3814232749892028
 51
289.6185767250108256
  0
ARC
  5
32F4B
  8
0
 10
6210.2016301354951793
 20
340.8179985343696217
 30
0.0
 40
0.0607468550403033
 50
0.6801006177555813
 51
66.2749931215189605
  0
ARC
  5
32F4C
  8
0
 10
6210.1992961485202613
 20
340.8128821436441171
 30
0.0
 40
0.0663699642005073
 50
66.2075119028654342
 51
113.7924880971345942
  0
ARC
  5
32F4D
  8
0
 10
6210.1970323939158334
 20
340.8159905815213051
 30
0.0
 40
0.0626177830667692
 50
113.0445929185102045
 51
179.2515235992950977
  0
ARC
  5
32F4E
  8
0
 10
6210.5190495497308802
 20
340.2880924174361894
 30
0.0
 40
0.025151831817976
 50
42.7706148990978505
 51
132.9205964765556018
  0
ARC
  5
32F4F
  8
0
 10
6210.5157353972135752
 20
340.2912646209534273
 30
0.0
 40
0.0205736767652026
 50
132.1777645840265052
 51
231.9968566564504897
  0
ARC
  5
32F50
  8
0
 10
6210.5187500521433321
 20
340.2950001773367035
 30
0.0
 40
0.0253734586804618
 50
231.8264172874064002
 51
304.0304539183445058
  0
ARC
  5
32F51
  8
0
 10
6210.5219201398249425
 20
340.2915189659099156
 30
0.0
 40
0.0207254763170945
 50
302.1530802071159201
 51
41.2056037781844111
  0
LINE
  5
32F52
  8
0
 10
6210.58287003244277
 20
340.3267454526778124
 30
0.0
 11
6210.5828700317442781
 21
340.302546634077828
 31
0.0
  0
ARC
  5
32F53
  8
0
 10
6210.5228254856338026
 20
340.3030634553921914
 30
0.0
 40
0.0600467702859216
 50
321.4717985813978203
 51
359.5068503175871228
  0
ARC
  5
32F54
  8
0
 10
6210.5191658463627391
 20
340.306644666397915
 30
0.0
 40
0.0651425391162149
 50
289.3381918131576072
 51
321.0126723100581216
  0
LINE
  5
32F55
  8
0
 10
6210.4549172750676007
 20
340.3248344283621236
 30
0.0
 11
6210.4549172757433553
 21
340.301512275277787
 31
0.0
  0
ARC
  5
32F56
  8
0
 10
6210.513830310069352
 20
340.3018323446003137
 30
0.0
 40
0.0589139037727533
 50
180.3112798570259088
 51
217.5185816661463036
  0
ARC
  5
32F57
  8
0
 10
6210.5164522551804112
 20
340.3040955878684031
 30
0.0
 40
0.062372187580646
 50
217.7007343707169014
 51
250.8428567786658903
  0
ARC
  5
32F58
  8
0
 10
6210.5183607789285816
 20
340.307953795714127
 30
0.0
 40
0.0666451987099376
 50
250.3814232749892028
 51
289.6185767250108256
  0
ARC
  5
32F59
  8
0
 10
6210.5221274568712033
 20
340.3260244047431797
 30
0.0
 40
0.0607468550403033
 50
0.6801006177555813
 51
66.2749931215189605
  0
ARC
  5
32F5A
  8
0
 10
6210.5197934698962854
 20
340.3209080140177889
 30
0.0
 40
0.0663699642005073
 50
66.2075119028654342
 51
113.7924880971345942
  0
ARC
  5
32F5B
  8
0
 10
6210.5175297152918574
 20
340.32401645189492
 30
0.0
 40
0.0626177830667692
 50
113.0445929185102045
 51
179.2515235992950977
  0
ARC
  5
32F5C
  8
0
 10
6210.1057879828331352
 20
340.3410544454727074
 30
0.0
 40
0.025151831817976
 50
42.7706148990978505
 51
132.9205964765556018
  0
ARC
  5
32F5D
  8
0
 10
6210.1024738303158301
 20
340.3442266489897747
 30
0.0
 40
0.0205736767652026
 50
132.1777645840265052
 51
231.9968566564504897
  0
ARC
  5
32F5E
  8
0
 10
6210.1054884852455871
 20
340.3479622053731077
 30
0.0
 40
0.0253734586804618
 50
231.8264172874064002
 51
304.0304539183445058
  0
ARC
  5
32F5F
  8
0
 10
6210.1086585729271974
 20
340.3444809939462061
 30
0.0
 40
0.0207254763170945
 50
302.1530802071159201
 51
41.2056037781844111
  0
LINE
  5
32F60
  8
0
 10
6210.169608465545025
 20
340.3797074807142167
 30
0.0
 11
6210.1696084648456235
 21
340.3555086621142891
 31
0.0
  0
ARC
  5
32F61
  8
0
 10
6210.1095639187360575
 20
340.3560254834287093
 30
0.0
 40
0.0600467702859216
 50
321.4717985813978203
 51
359.5068503175871228
  0
ARC
  5
32F62
  8
0
 10
6210.105904279464994
 20
340.3596066944343193
 30
0.0
 40
0.0651425391162149
 50
289.3381918131576072
 51
321.0126723100581216
  0
LINE
  5
32F63
  8
0
 10
6210.0416557081698556
 20
340.3777964563985279
 30
0.0
 11
6210.0416557088447007
 21
340.354474303314305
 31
0.0
  0
ARC
  5
32F64
  8
0
 10
6210.1005687431706974
 20
340.354794372636718
 30
0.0
 40
0.0589139037727533
 50
180.3112798570259088
 51
217.5185816661463036
  0
ARC
  5
32F65
  8
0
 10
6210.1031906882808471
 20
340.3570576159048073
 30
0.0
 40
0.062372187580646
 50
217.7007343707169014
 51
250.8428567786658903
  0
ARC
  5
32F66
  8
0
 10
6210.105099212031746
 20
340.3609158237504744
 30
0.0
 40
0.0666451987099376
 50
250.3814232749892028
 51
289.6185767250108256
  0
ARC
  5
32F67
  8
0
 10
6210.1088658899725488
 20
340.3789864327796977
 30
0.0
 40
0.0607468550403033
 50
0.6801006177555813
 51
66.2749931215189605
  0
ARC
  5
32F68
  8
0
 10
6210.1065319029967213
 20
340.3738700420541932
 30
0.0
 40
0.0663699642005073
 50
66.2075119028654342
 51
113.7924880971345942
  0
ARC
  5
32F69
  8
0
 10
6210.1042681483941124
 20
340.3769784799313243
 30
0.0
 40
0.0626177830667692
 50
113.0445929185102045
 51
179.2515235992950977
  0
ARC
  5
32F6A
  8
0
 10
6209.6811123507122829
 20
340.3979308469869238
 30
0.0
 40
0.025151831817976
 50
42.7706148990978505
 51
132.9205964765556018
  0
ARC
  5
32F6B
  8
0
 10
6209.6777981981949779
 20
340.4011030505041049
 30
0.0
 40
0.0205736767652026
 50
132.1777645840265052
 51
231.9968566564504897
  0
ARC
  5
32F6C
  8
0
 10
6209.6808128531247348
 20
340.4048386068874947
 30
0.0
 40
0.0253734586804618
 50
231.8264172874064002
 51
304.0304539183445058
  0
ARC
  5
32F6D
  8
0
 10
6209.6839829408063451
 20
340.4013573954605931
 30
0.0
 40
0.0207254763170945
 50
302.1530802071159201
 51
41.2056037781844111
  0
LINE
  5
32F6E
  8
0
 10
6209.7449328334250822
 20
340.4365838822286037
 30
0.0
 11
6209.7449328327247713
 21
340.4123850636285056
 31
0.0
  0
ARC
  5
32F6F
  8
0
 10
6209.6848882866161148
 20
340.4129018849429258
 30
0.0
 40
0.0600467702859216
 50
321.4717985813978203
 51
359.5068503175871228
  0
ARC
  5
32F70
  8
0
 10
6209.6812286473441418
 20
340.4164830959485926
 30
0.0
 40
0.0651425391162149
 50
289.3381918131576072
 51
321.0126723100581216
  0
LINE
  5
32F71
  8
0
 10
6209.6169800760499129
 20
340.4346728579128012
 30
0.0
 11
6209.616980076724758
 21
340.4113507048285214
 31
0.0
  0
ARC
  5
32F72
  8
0
 10
6209.6758931110498452
 20
340.4116707741509913
 30
0.0
 40
0.0589139037727533
 50
180.3112798570259088
 51
217.5185816661463036
  0
ARC
  5
32F73
  8
0
 10
6209.6785150561609044
 20
340.4139340174190806
 30
0.0
 40
0.062372187580646
 50
217.7007343707169014
 51
250.8428567786658903
  0
ARC
  5
32F74
  8
0
 10
6209.6804235799108937
 20
340.4177922252646908
 30
0.0
 40
0.0666451987099376
 50
250.3814232749892028
 51
289.6185767250108256
  0
ARC
  5
32F75
  8
0
 10
6209.684190257852606
 20
340.4358628342939141
 30
0.0
 40
0.0607468550403033
 50
0.6801006177555813
 51
66.2749931215189605
  0
ARC
  5
32F76
  8
0
 10
6209.6818562708767786
 20
340.4307464435685233
 30
0.0
 40
0.0663699642005073
 50
66.2075119028654342
 51
113.7924880971345942
  0
ARC
  5
32F77
  8
0
 10
6209.6795925162732601
 20
340.4338548814457113
 30
0.0
 40
0.0626177830667692
 50
113.0445929185102045
 51
179.2515235992950977
  0
ARC
  5
32F78
  8
0
 10
6209.527718350829673
 20
340.1735740377555999
 30
0.0
 40
0.025151831817976
 50
42.7706148990978505
 51
132.9205964765556018
  0
ARC
  5
32F79
  8
0
 10
6209.5244041983141869
 20
340.1767462412727241
 30
0.0
 40
0.0205736767652026
 50
132.1777645840265052
 51
231.9968566564504897
  0
ARC
  5
32F7A
  8
0
 10
6209.5274188532439439
 20
340.1804817976560003
 30
0.0
 40
0.0253734586804618
 50
231.8264172874064002
 51
304.0304539183445058
  0
ARC
  5
32F7B
  8
0
 10
6209.5305889409246447
 20
340.1770005862290986
 30
0.0
 40
0.0207254763170945
 50
302.1530802071159201
 51
41.2056037781844111
  0
LINE
  5
32F7C
  8
0
 10
6209.5915388335433818
 20
340.2122270729971092
 30
0.0
 11
6209.5915388328439803
 21
340.1880282543971248
 31
0.0
  0
ARC
  5
32F7D
  8
0
 10
6209.5314942867353238
 20
340.1885450757116018
 30
0.0
 40
0.0600467702859216
 50
321.4717985813978203
 51
359.5068503175871228
  0
ARC
  5
32F7E
  8
0
 10
6209.5278346474633508
 20
340.1921262867172118
 30
0.0
 40
0.0651425391162149
 50
289.3381918131576072
 51
321.0126723100581216
  0
LINE
  5
32F7F
  8
0
 10
6209.463586076169122
 20
340.2103160486813067
 30
0.0
 11
6209.463586076843967
 21
340.1869938955971975
 31
0.0
  0
ARC
  5
32F80
  8
0
 10
6209.5224991111690542
 20
340.1873139649196105
 30
0.0
 40
0.0589139037727533
 50
180.3112798570259088
 51
217.5185816661463036
  0
ARC
  5
32F81
  8
0
 10
6209.5251210562792039
 20
340.1895772081875862
 30
0.0
 40
0.062372187580646
 50
217.7007343707169014
 51
250.8428567786658903
  0
ARC
  5
32F82
  8
0
 10
6209.5270295800301028
 20
340.1934354160334237
 30
0.0
 40
0.0666451987099376
 50
250.3814232749892028
 51
289.6185767250108256
  0
ARC
  5
32F83
  8
0
 10
6209.5307962579709056
 20
340.2115060250625902
 30
0.0
 40
0.0607468550403033
 50
0.6801006177555813
 51
66.2749931215189605
  0
ARC
  5
32F84
  8
0
 10
6209.5284622709959876
 20
340.2063896343370857
 30
0.0
 40
0.0663699642005073
 50
66.2075119028654342
 51
113.7924880971345942
  0
ARC
  5
32F85
  8
0
 10
6209.5261985163915597
 20
340.2094980722142168
 30
0.0
 40
0.0626177830667692
 50
113.0445929185102045
 51
179.2515235992950977
  0
ARC
  5
32F86
  8
0
 10
6209.8379215081577058
 20
339.9503633226403281
 30
0.0
 40
0.025151831817976
 50
42.7706148990978505
 51
132.9205964765556018
  0
ARC
  5
32F87
  8
0
 10
6209.8346073556422198
 20
339.9535355261575091
 30
0.0
 40
0.0205736767652026
 50
132.1777645840265052
 51
231.9968566564504897
  0
ARC
  5
32F88
  8
0
 10
6209.8376220105710672
 20
339.9572710825407853
 30
0.0
 40
0.0253734586804618
 50
231.8264172874064002
 51
304.0304539183445058
  0
ARC
  5
32F89
  8
0
 10
6209.8407920982526775
 20
339.9537898711138837
 30
0.0
 40
0.0207254763170945
 50
302.1530802071159201
 51
41.2056037781844111
  0
LINE
  5
32F8A
  8
0
 10
6209.9017419908695956
 20
339.9890163578818942
 30
0.0
 11
6209.9017419901701942
 21
339.9648175392819098
 31
0.0
  0
ARC
  5
32F8B
  8
0
 10
6209.8416974440606282
 20
339.9653343605962732
 30
0.0
 40
0.0600467702859216
 50
321.4717985813978203
 51
359.5068503175871228
  0
ARC
  5
32F8C
  8
0
 10
6209.8380378047886552
 20
339.9689155716019968
 30
0.0
 40
0.0651425391162149
 50
289.3381918131576072
 51
321.0126723100581216
  0
LINE
  5
32F8D
  8
0
 10
6209.7737892334962453
 20
339.9871053335662054
 30
0.0
 11
6209.7737892341701809
 21
339.9637831804819257
 31
0.0
  0
ARC
  5
32F8E
  8
0
 10
6209.8327022684961776
 20
339.9641032498043955
 30
0.0
 40
0.0589139037727533
 50
180.3112798570259088
 51
217.5185816661463036
  0
ARC
  5
32F8F
  8
0
 10
6209.8353242136072367
 20
339.9663664930724849
 30
0.0
 40
0.062372187580646
 50
217.7007343707169014
 51
250.8428567786658903
  0
ARC
  5
32F90
  8
0
 10
6209.8372327373563166
 20
339.9702247009180951
 30
0.0
 40
0.0666451987099376
 50
250.3814232749892028
 51
289.6185767250108256
  0
ARC
  5
32F91
  8
0
 10
6209.8409994152980289
 20
339.9882953099473184
 30
0.0
 40
0.0607468550403033
 50
0.6801006177555813
 51
66.2749931215189605
  0
ARC
  5
32F92
  8
0
 10
6209.838665428323111
 20
339.9831789192219276
 30
0.0
 40
0.0663699642005073
 50
66.2075119028654342
 51
113.7924880971345942
  0
ARC
  5
32F93
  8
0
 10
6209.836401673718683
 20
339.9862873570991155
 30
0.0
 40
0.0626177830667692
 50
113.0445929185102045
 51
179.2515235992950977
  0
ARC
  5
32F94
  8
0
 10
6210.3277028925640479
 20
339.956482406801797
 30
0.0
 40
0.025151831817976
 50
42.7706148990978505
 51
132.9205964765556018
  0
ARC
  5
32F95
  8
0
 10
6210.3243887400476524
 20
339.959654610318978
 30
0.0
 40
0.0205736767652026
 50
132.1777645840265052
 51
231.9968566564504897
  0
ARC
  5
32F96
  8
0
 10
6210.3274033949774093
 20
339.9633901667024247
 30
0.0
 40
0.0253734586804618
 50
231.8264172874064002
 51
304.0304539183445058
  0
ARC
  5
32F97
  8
0
 10
6210.3305734826590196
 20
339.9599089552755231
 30
0.0
 40
0.0207254763170945
 50
302.1530802071159201
 51
41.2056037781844111
  0
LINE
  5
32F98
  8
0
 10
6210.3915233752768472
 20
339.9951354420434768
 30
0.0
 11
6210.3915233745774458
 21
339.9709366234433787
 31
0.0
  0
ARC
  5
32F99
  8
0
 10
6210.3314788284678798
 20
339.9714534447577989
 30
0.0
 40
0.0600467702859216
 50
321.4717985813978203
 51
359.5068503175871228
  0
ARC
  5
32F9A
  8
0
 10
6210.3278191891959068
 20
339.9750346557635226
 30
0.0
 40
0.0651425391162149
 50
289.3381918131576072
 51
321.0126723100581216
  0
LINE
  5
32F9B
  8
0
 10
6210.2635706179025874
 20
339.9932244177276743
 30
0.0
 11
6210.2635706185774325
 21
339.9699022646433946
 31
0.0
  0
ARC
  5
32F9C
  8
0
 10
6210.3224836529034292
 20
339.9702223339659213
 30
0.0
 40
0.0589139037727533
 50
180.3112798570259088
 51
217.5185816661463036
  0
ARC
  5
32F9D
  8
0
 10
6210.3251055980126694
 20
339.9724855772340106
 30
0.0
 40
0.062372187580646
 50
217.7007343707169014
 51
250.8428567786658903
  0
ARC
  5
32F9E
  8
0
 10
6210.3270141217626588
 20
339.9763437850796777
 30
0.0
 40
0.0666451987099376
 50
250.3814232749892028
 51
289.6185767250108256
  0
ARC
  5
32F9F
  8
0
 10
6210.3307807997052805
 20
339.9944143941087873
 30
0.0
 40
0.0607468550403033
 50
0.6801006177555813
 51
66.2749931215189605
  0
ARC
  5
32FA0
  8
0
 10
6210.3284468127303626
 20
339.9892980033833965
 30
0.0
 40
0.0663699642005073
 50
66.2075119028654342
 51
113.7924880971345942
  0
ARC
  5
32FA1
  8
0
 10
6210.3261830581259346
 20
339.9924064412605844
 30
0.0
 40
0.0626177830667692
 50
113.0445929185102045
 51
179.2515235992950977
  0
ARC
  5
32FA2
  8
0
 10
6210.0524732029271036
 20
339.6639628150591079
 30
0.0
 40
0.025151831817976
 50
42.7706148990978505
 51
132.9205964765556018
  0
ARC
  5
32FA3
  8
0
 10
6210.049159050408889
 20
339.667135018576289
 30
0.0
 40
0.0205736767652026
 50
132.1777645840265052
 51
231.9968566564504897
  0
ARC
  5
32FA4
  8
0
 10
6210.0521737053395555
 20
339.670870574959622
 30
0.0
 40
0.0253734586804618
 50
231.8264172874064002
 51
304.0304539183445058
  0
ARC
  5
32FA5
  8
0
 10
6210.0553437930220753
 20
339.6673893635327204
 30
0.0
 40
0.0207254763170945
 50
302.1530802071159201
 51
41.2056037781844111
  0
LINE
  5
32FA6
  8
0
 10
6210.1162936856399028
 20
339.7026158503006741
 30
0.0
 11
6210.1162936849395919
 21
339.6784170317006897
 31
0.0
  0
ARC
  5
32FA7
  8
0
 10
6210.0562491388300259
 20
339.6789338530151099
 30
0.0
 40
0.0600467702859216
 50
321.4717985813978203
 51
359.5068503175871228
  0
ARC
  5
32FA8
  8
0
 10
6210.0525894995589624
 20
339.6825150640207767
 30
0.0
 40
0.0651425391162149
 50
289.3381918131576072
 51
321.0126723100581216
  0
LINE
  5
32FA9
  8
0
 10
6209.9883409282647335
 20
339.7007048259848716
 30
0.0
 11
6209.9883409289395786
 21
339.6773826729007055
 31
0.0
  0
ARC
  5
32FAA
  8
0
 10
6210.0472539632637563
 20
339.6777027422231754
 30
0.0
 40
0.0589139037727533
 50
180.3112798570259088
 51
217.5185816661463036
  0
ARC
  5
32FAB
  8
0
 10
6210.0498759083748155
 20
339.6799659854913216
 30
0.0
 40
0.062372187580646
 50
217.7007343707169014
 51
250.8428567786658903
  0
ARC
  5
32FAC
  8
0
 10
6210.0517844321257144
 20
339.6838241933369886
 30
0.0
 40
0.0666451987099376
 50
250.3814232749892028
 51
289.6185767250108256
  0
ARC
  5
32FAD
  8
0
 10
6210.0555511100674266
 20
339.7018948023660982
 30
0.0
 40
0.0607468550403033
 50
0.6801006177555813
 51
66.2749931215189605
  0
ARC
  5
32FAE
  8
0
 10
6210.0532171230934182
 20
339.6967784116405937
 30
0.0
 40
0.0663699642005073
 50
66.2075119028654342
 51
113.7924880971345942
  0
ARC
  5
32FAF
  8
0
 10
6210.0509533684880807
 20
339.6998868495177817
 30
0.0
 40
0.0626177830667692
 50
113.0445929185102045
 51
179.2515235992950977
  0
ARC
  5
32FB0
  8
0
 10
6209.7073276862765852
 20
339.422734884342276
 30
0.0
 40
0.025151831817976
 50
42.7706148990978505
 51
132.9205964765556018
  0
ARC
  5
32FB1
  8
0
 10
6209.7040135337592801
 20
339.4259070878594002
 30
0.0
 40
0.0205736767652026
 50
132.1777645840265052
 51
231.9968566564504897
  0
ARC
  5
32FB2
  8
0
 10
6209.7070281886890371
 20
339.4296426442426764
 30
0.0
 40
0.0253734586804618
 50
231.8264172874064002
 51
304.0304539183445058
  0
ARC
  5
32FB3
  8
0
 10
6209.7101982763706474
 20
339.4261614328158885
 30
0.0
 40
0.0207254763170945
 50
302.1530802071159201
 51
41.2056037781844111
  0
LINE
  5
32FB4
  8
0
 10
6209.7711481689893844
 20
339.4613879195837853
 30
0.0
 11
6209.771148168289983
 21
339.4371891009839146
 31
0.0
  0
ARC
  5
32FB5
  8
0
 10
6209.711103622178598
 20
339.437705922298278
 30
0.0
 40
0.0600467702859216
 50
321.4717985813978203
 51
359.5068503175871228
  0
ARC
  5
32FB6
  8
0
 10
6209.707443982908444
 20
339.4412871333038879
 30
0.0
 40
0.0651425391162149
 50
289.3381918131576072
 51
321.0126723100581216
  0
LINE
  5
32FB7
  8
0
 10
6209.6431954116142151
 20
339.4594768952680965
 30
0.0
 11
6209.6431954122890602
 21
339.4361547421838736
 31
0.0
  0
ARC
  5
32FB8
  8
0
 10
6209.7021084466141474
 20
339.4364748115064003
 30
0.0
 40
0.0589139037727533
 50
180.3112798570259088
 51
217.5185816661463036
  0
ARC
  5
32FB9
  8
0
 10
6209.7047303917252066
 20
339.438738054774376
 30
0.0
 40
0.062372187580646
 50
217.7007343707169014
 51
250.8428567786658903
  0
ARC
  5
32FBA
  8
0
 10
6209.706638915475196
 20
339.4425962626200999
 30
0.0
 40
0.0666451987099376
 50
250.3814232749892028
 51
289.6185767250108256
  0
ARC
  5
32FBB
  8
0
 10
6209.7104055934159987
 20
339.4606668716493232
 30
0.0
 40
0.0607468550403033
 50
0.6801006177555813
 51
66.2749931215189605
  0
ARC
  5
32FBC
  8
0
 10
6209.7080716064419903
 20
339.4555504809238187
 30
0.0
 40
0.0663699642005073
 50
66.2075119028654342
 51
113.7924880971345942
  0
ARC
  5
32FBD
  8
0
 10
6209.7058078518375623
 20
339.4586589188008929
 30
0.0
 40
0.0626177830667692
 50
113.0445929185102045
 51
179.2515235992950977
  0
ARC
  5
32FBE
  8
0
 10
6209.428107559727323
 20
339.6523991914468183
 30
0.0
 40
0.025151831817976
 50
42.7706148990978505
 51
132.9205964765556018
  0
ARC
  5
32FBF
  8
0
 10
6209.4247934072109274
 20
339.6555713949639994
 30
0.0
 40
0.0205736767652026
 50
132.1777645840265052
 51
231.9968566564504897
  0
ARC
  5
32FC0
  8
0
 10
6209.4278080621406843
 20
339.6593069513472756
 30
0.0
 40
0.0253734586804618
 50
231.8264172874064002
 51
304.0304539183445058
  0
ARC
  5
32FC1
  8
0
 10
6209.4309781498222947
 20
339.655825739920374
 30
0.0
 40
0.0207254763170945
 50
302.1530802071159201
 51
41.2056037781844111
  0
LINE
  5
32FC2
  8
0
 10
6209.4919280424401222
 20
339.6910522266883845
 30
0.0
 11
6209.4919280417407208
 21
339.6668534080884001
 31
0.0
  0
ARC
  5
32FC3
  8
0
 10
6209.4318834956311548
 20
339.6673702294028203
 30
0.0
 40
0.0600467702859216
 50
321.4717985813978203
 51
359.5068503175871228
  0
ARC
  5
32FC4
  8
0
 10
6209.4282238563600913
 20
339.6709514404083734
 30
0.0
 40
0.0651425391162149
 50
289.3381918131576072
 51
321.0126723100581216
  0
LINE
  5
32FC5
  8
0
 10
6209.3639752850658624
 20
339.689141202372582
 30
0.0
 11
6209.363975285739798
 21
339.665819049288416
 31
0.0
  0
ARC
  5
32FC6
  8
0
 10
6209.4228883200657947
 20
339.6661391186108858
 30
0.0
 40
0.0589139037727533
 50
180.3112798570259088
 51
217.5185816661463036
  0
ARC
  5
32FC7
  8
0
 10
6209.4255102651759444
 20
339.6684023618789183
 30
0.0
 40
0.062372187580646
 50
217.7007343707169014
 51
250.8428567786658903
  0
ARC
  5
32FC8
  8
0
 10
6209.4274187889259338
 20
339.6722605697246991
 30
0.0
 40
0.0666451987099376
 50
250.3814232749892028
 51
289.6185767250108256
  0
ARC
  5
32FC9
  8
0
 10
6209.431185466867646
 20
339.6903311787538087
 30
0.0
 40
0.0607468550403033
 50
0.6801006177555813
 51
66.2749931215189605
  0
ARC
  5
32FCA
  8
0
 10
6209.4288514798918186
 20
339.6852147880284178
 30
0.0
 40
0.0663699642005073
 50
66.2075119028654342
 51
113.7924880971345942
  0
ARC
  5
32FCB
  8
0
 10
6209.4265877252892096
 20
339.6883232259054921
 30
0.0
 40
0.0626177830667692
 50
113.0445929185102045
 51
179.2515235992950977
  0
ARC
  5
32FCC
  8
0
 10
6208.8104685371035885
 20
339.8166824231067267
 30
0.0
 40
0.025151831817976
 50
42.7706148990978505
 51
132.9205964765556018
  0
ARC
  5
32FCD
  8
0
 10
6208.8071543845871929
 20
339.8198546266239077
 30
0.0
 40
0.0205736767652026
 50
132.1777645840265052
 51
231.9968566564504897
  0
ARC
  5
32FCE
  8
0
 10
6208.8101690395169499
 20
339.8235901830071839
 30
0.0
 40
0.0253734586804618
 50
231.8264172874064002
 51
304.0304539183445058
  0
ARC
  5
32FCF
  8
0
 10
6208.8133391271985602
 20
339.8201089715802823
 30
0.0
 40
0.0207254763170945
 50
302.1530802071159201
 51
41.2056037781844111
  0
LINE
  5
32FD0
  8
0
 10
6208.8742890198172972
 20
339.8553354583484065
 30
0.0
 11
6208.8742890191169863
 21
339.8311366397483084
 31
0.0
  0
ARC
  5
32FD1
  8
0
 10
6208.8142444730074203
 20
339.8316534610626718
 30
0.0
 40
0.0600467702859216
 50
321.4717985813978203
 51
359.5068503175871228
  0
ARC
  5
32FD2
  8
0
 10
6208.8105848337363568
 20
339.8352346720683954
 30
0.0
 40
0.0651425391162149
 50
289.3381918131576072
 51
321.0126723100581216
  0
LINE
  5
32FD3
  8
0
 10
6208.7463362624430374
 20
339.8534244340324904
 30
0.0
 11
6208.746336263116973
 21
339.8301022809483243
 31
0.0
  0
ARC
  5
32FD4
  8
0
 10
6208.8052492974420602
 20
339.8304223502707941
 30
0.0
 40
0.0589139037727533
 50
180.3112798570259088
 51
217.5185816661463036
  0
ARC
  5
32FD5
  8
0
 10
6208.8078712425531194
 20
339.8326855935388835
 30
0.0
 40
0.062372187580646
 50
217.7007343707169014
 51
250.8428567786658903
  0
ARC
  5
32FD6
  8
0
 10
6208.8097797663031088
 20
339.8365438013846074
 30
0.0
 40
0.0666451987099376
 50
250.3814232749892028
 51
289.6185767250108256
  0
ARC
  5
32FD7
  8
0
 10
6208.813546444244821
 20
339.854614410413717
 30
0.0
 40
0.0607468550403033
 50
0.6801006177555813
 51
66.2749931215189605
  0
ARC
  5
32FD8
  8
0
 10
6208.8112124572699031
 20
339.8494980196883262
 30
0.0
 40
0.0663699642005073
 50
66.2075119028654342
 51
113.7924880971345942
  0
ARC
  5
32FD9
  8
0
 10
6208.8089487026663846
 20
339.8526064575654004
 30
0.0
 40
0.0626177830667692
 50
113.0445929185102045
 51
179.2515235992950977
  0
ARC
  5
32FDA
  8
0
 10
6208.9249937608656182
 20
339.487599388076319
 30
0.0
 40
0.025151831817976
 50
42.7706148990978505
 51
132.9205964765556018
  0
ARC
  5
32FDB
  8
0
 10
6208.9216796083492227
 20
339.4907715915935
 30
0.0
 40
0.0205736767652026
 50
132.1777645840265052
 51
231.9968566564504897
  0
ARC
  5
32FDC
  8
0
 10
6208.9246942632789796
 20
339.4945071479767762
 30
0.0
 40
0.0253734586804618
 50
231.8264172874064002
 51
304.0304539183445058
  0
ARC
  5
32FDD
  8
0
 10
6208.9278643509605899
 20
339.4910259365498746
 30
0.0
 40
0.0207254763170945
 50
302.1530802071159201
 51
41.2056037781844111
  0
LINE
  5
32FDE
  8
0
 10
6208.988814243579327
 20
339.5262524233178851
 30
0.0
 11
6208.9888142428790161
 21
339.5020536047179007
 31
0.0
  0
ARC
  5
32FDF
  8
0
 10
6208.9287696967694501
 20
339.5025704260323209
 30
0.0
 40
0.0600467702859216
 50
321.4717985813978203
 51
359.5068503175871228
  0
ARC
  5
32FE0
  8
0
 10
6208.9251100574983866
 20
339.5061516370379877
 30
0.0
 40
0.0651425391162149
 50
289.3381918131576072
 51
321.0126723100581216
  0
LINE
  5
32FE1
  8
0
 10
6208.8608614862041577
 20
339.5243413990021963
 30
0.0
 11
6208.8608614868790028
 21
339.5010192459179166
 31
0.0
  0
ARC
  5
32FE2
  8
0
 10
6208.91977452120409
 20
339.5013393152403864
 30
0.0
 40
0.0589139037727533
 50
180.3112798570259088
 51
217.5185816661463036
  0
ARC
  5
32FE3
  8
0
 10
6208.9223964663142397
 20
339.5036025585084758
 30
0.0
 40
0.062372187580646
 50
217.7007343707169014
 51
250.8428567786658903
  0
ARC
  5
32FE4
  8
0
 10
6208.9243049900651386
 20
339.507460766354086
 30
0.0
 40
0.0666451987099376
 50
250.3814232749892028
 51
289.6185767250108256
  0
ARC
  5
32FE5
  8
0
 10
6208.9280716680068508
 20
339.5255313753833093
 30
0.0
 40
0.0607468550403033
 50
0.6801006177555813
 51
66.2749931215189605
  0
ARC
  5
32FE6
  8
0
 10
6208.9257376810319329
 20
339.5204149846579185
 30
0.0
 40
0.0663699642005073
 50
66.2075119028654342
 51
113.7924880971345942
  0
ARC
  5
32FE7
  8
0
 10
6208.9234739264284144
 20
339.5235234225351064
 30
0.0
 40
0.0626177830667692
 50
113.0445929185102045
 51
179.2515235992950977
  0
ARC
  5
32FE8
  8
0
 10
6209.2138314736102984
 20
341.5345418938796911
 30
0.0
 40
0.062124754371658
 50
65.4824656028009429
 51
116.4203682653549947
  0
ARC
  5
32FE9
  8
0
 10
6209.2099619285263543
 20
341.5412615924504962
 30
0.0
 40
0.0543872140183422
 50
115.9195050604421056
 51
154.2572624803082988
  0
ARC
  5
32FEA
  8
0
 10
6209.199652169939327
 20
341.5467601430844979
 30
0.0
 40
0.0427151144803728
 50
154.8944005270867876
 51
211.4044689474098959
  0
ARC
  5
32FEB
  8
0
 10
6209.2059608350018607
 20
341.5514252547775982
 30
0.0
 40
0.0505352742961977
 50
212.1918174339224947
 51
251.1518281597068096
  0
ARC
  5
32FEC
  8
0
 10
6209.2101857338529953
 20
341.5625406676288094
 30
0.0
 40
0.0624208877554951
 50
250.7778850180397967
 51
297.3682393988149784
  0
ARC
  5
32FED
  8
0
 10
6209.2149066193560429
 20
341.5547723404436056
 30
0.0
 40
0.0533554576207541
 50
296.7010200219423268
 51
335.8921419045619245
  0
ARC
  5
32FEE
  8
0
 10
6209.2245290550854406
 20
341.550063510292091
 30
0.0
 40
0.0426505458171667
 50
336.3862141559018824
 51
35.1268197014940071
  0
ARC
  5
32FEF
  8
0
 10
6209.21867403710894
 20
341.5457404868229219
 30
0.0
 40
0.0499269458574633
 50
35.3182481714255374
 51
65.205701171512473
  0
ARC
  5
32FF0
  8
0
 10
6209.2116376999183558
 20
341.5491744286550215
 30
0.0
 40
0.1427795134926038
 50
64.9450180078579393
 51
115.518743547248306
  0
ARC
  5
32FF1
  8
0
 10
6209.2011154710717165
 20
341.5667549141480208
 30
0.0
 40
0.1223961505890889
 50
114.6190119667568013
 51
154.4409042923292077
  0
ARC
  5
32FF2
  8
0
 10
6209.1811542900795757
 20
341.5768306696020886
 30
0.0
 40
0.1000423936036564
 50
154.7144693912864
 51
214.3696008450799013
  0
ARC
  5
32FF3
  8
0
 10
6209.2103184468269319
 20
341.6001838129029125
 30
0.0
 40
0.1373271943605248
 50
215.5428975245411038
 51
244.196402308134509
  0
ARC
  5
32FF4
  8
0
 10
6209.2066289599670199
 20
341.5969561810226764
 30
0.0
 40
0.1328292260330097
 50
245.0231829913128081
 51
302.0867262068243804
  0
ARC
  5
32FF5
  8
0
 10
6209.207417030979741
 20
341.5952124450419092
 30
0.0
 40
0.1309334846328058
 50
302.1998826965578928
 51
338.5972354813210927
  0
ARC
  5
32FF6
  8
0
 10
6209.2363631433818227
 20
341.5828563053672724
 30
0.0
 40
0.0994789748259903
 50
339.139205366019894
 51
19.1785928428975403
  0
ARC
  5
32FF7
  8
0
 10
6209.2241306267133041
 20
341.5757769827728225
 30
0.0
 40
0.1133896212727653
 50
20.526789055696149
 51
64.9710453271018622
  0
ARC
  5
32FF8
  8
0
 10
6209.7698637588473503
 20
340.7320455694114116
 30
0.0
 40
0.062124754371658
 50
65.4824656028009429
 51
116.4203682653549947
  0
ARC
  5
32FF9
  8
0
 10
6209.7659942137615872
 20
340.7387652679822168
 30
0.0
 40
0.0543872140183422
 50
115.9195050604421056
 51
154.2572624803082988
  0
ARC
  5
32FFA
  8
0
 10
6209.7556844551736503
 20
340.7442638186162185
 30
0.0
 40
0.0427151144803728
 50
154.8944005270867876
 51
211.4044689474098959
  0
ARC
  5
32FFB
  8
0
 10
6209.761993120238003
 20
340.7489289303093187
 30
0.0
 40
0.0505352742961977
 50
212.1918174339224947
 51
251.1518281597068096
  0
ARC
  5
32FFC
  8
0
 10
6209.7662180190900472
 20
340.7600443431605868
 30
0.0
 40
0.0624208877554951
 50
250.7778850180397967
 51
297.3682393988149784
  0
ARC
  5
32FFD
  8
0
 10
6209.7709389045921853
 20
340.7522760159753261
 30
0.0
 40
0.0533554576207541
 50
296.7010200219423268
 51
335.8921419045619245
  0
ARC
  5
32FFE
  8
0
 10
6209.780561340321583
 20
340.7475671858238115
 30
0.0
 40
0.0426505458171667
 50
336.3862141559018824
 51
35.1268197014940071
  0
ARC
  5
32FFF
  8
0
 10
6209.7747063223441728
 20
340.7432441623545856
 30
0.0
 40
0.0499269458574633
 50
35.3182481714255374
 51
65.205701171512473
  0
ARC
  5
33000
  8
0
 10
6209.7676699851535886
 20
340.7466781041866852
 30
0.0
 40
0.1427795134926038
 50
64.9450180078579393
 51
115.518743547248306
  0
ARC
  5
33001
  8
0
 10
6209.7571477563087683
 20
340.7642585896796845
 30
0.0
 40
0.1223961505890889
 50
114.6190119667568013
 51
154.4409042923292077
  0
ARC
  5
33002
  8
0
 10
6209.7371865753157181
 20
340.7743343451338092
 30
0.0
 40
0.1000423936036564
 50
154.7144693912864
 51
214.3696008450799013
  0
ARC
  5
33003
  8
0
 10
6209.7663507320630742
 20
340.7976874884345762
 30
0.0
 40
0.1373271943605248
 50
215.5428975245411038
 51
244.196402308134509
  0
ARC
  5
33004
  8
0
 10
6209.7626612452031623
 20
340.7944598565545107
 30
0.0
 40
0.1328292260330097
 50
245.0231829913128081
 51
302.0867262068243804
  0
ARC
  5
33005
  8
0
 10
6209.7634493162158833
 20
340.7927161205735729
 30
0.0
 40
0.1309334846328058
 50
302.1998826965578928
 51
338.5972354813210927
  0
ARC
  5
33006
  8
0
 10
6209.7923954286179651
 20
340.7803599808989929
 30
0.0
 40
0.0994789748259903
 50
339.139205366019894
 51
19.1785928428975403
  0
ARC
  5
33007
  8
0
 10
6209.7801629119503559
 20
340.7732806583044862
 30
0.0
 40
0.1133896212727653
 50
20.526789055696149
 51
64.9710453271018622
  0
ARC
  5
33008
  8
0
 10
6209.2138066770867226
 20
339.9178003979881169
 30
0.0
 40
0.062124754371658
 50
65.4824656028009429
 51
116.4203682653549947
  0
ARC
  5
33009
  8
0
 10
6209.2099371320027785
 20
339.924520096558922
 30
0.0
 40
0.0543872140183422
 50
115.9195050604421056
 51
154.2572624803082988
  0
ARC
  5
3300A
  8
0
 10
6209.1996273734148417
 20
339.9300186471929237
 30
0.0
 40
0.0427151144803728
 50
154.8944005270867876
 51
211.4044689474098959
  0
ARC
  5
3300B
  8
0
 10
6209.2059360384791944
 20
339.934683758886024
 30
0.0
 40
0.0505352742961977
 50
212.1918174339224947
 51
251.1518281597068096
  0
ARC
  5
3300C
  8
0
 10
6209.2101609373294195
 20
339.945799171737292
 30
0.0
 40
0.0624208877554951
 50
250.7778850180397967
 51
297.3682393988149784
  0
ARC
  5
3300D
  8
0
 10
6209.2148818228315577
 20
339.9380308445519745
 30
0.0
 40
0.0533554576207541
 50
296.7010200219423268
 51
335.8921419045619245
  0
ARC
  5
3300E
  8
0
 10
6209.2245042585609553
 20
339.9333220144005168
 30
0.0
 40
0.0426505458171667
 50
336.3862141559018824
 51
35.1268197014940071
  0
ARC
  5
3300F
  8
0
 10
6209.2186492405862737
 20
339.9289989909312908
 30
0.0
 40
0.0499269458574633
 50
35.3182481714255374
 51
65.205701171512473
  0
ARC
  5
33010
  8
0
 10
6209.2116129033938705
 20
339.9324329327633905
 30
0.0
 40
0.1427795134926038
 50
64.9450180078579393
 51
115.518743547248306
  0
ARC
  5
33011
  8
0
 10
6209.2010906745490502
 20
339.9500134182563897
 30
0.0
 40
0.1223961505890889
 50
114.6190119667568013
 51
154.4409042923292077
  0
ARC
  5
33012
  8
0
 10
6209.1811294935559999
 20
339.9600891737105144
 30
0.0
 40
0.1000423936036564
 50
154.7144693912864
 51
214.3696008450799013
  0
ARC
  5
33013
  8
0
 10
6209.2102936503033561
 20
339.9834423170112814
 30
0.0
 40
0.1373271943605248
 50
215.5428975245411038
 51
244.196402308134509
  0
ARC
  5
33014
  8
0
 10
6209.2066041634443536
 20
339.9802146851312159
 30
0.0
 40
0.1328292260330097
 50
245.0231829913128081
 51
302.0867262068243804
  0
ARC
  5
33015
  8
0
 10
6209.2073922344561652
 20
339.9784709491502781
 30
0.0
 40
0.1309334846328058
 50
302.1998826965578928
 51
338.5972354813210927
  0
ARC
  5
33016
  8
0
 10
6209.236338346858247
 20
339.9661148094758119
 30
0.0
 40
0.0994789748259903
 50
339.139205366019894
 51
19.1785928428975403
  0
ARC
  5
33017
  8
0
 10
6209.2241058301897283
 20
339.9590354868811914
 30
0.0
 40
0.1133896212727653
 50
20.526789055696149
 51
64.9710453271018622
  0
ARC
  5
33018
  8
0
 10
6208.954537050511135
 20
340.7529821215708807
 30
0.0
 40
0.5574172510717667
 50
65.0616912552428204
 51
85.4677880169429187
  0
ARC
  5
33019
  8
0
 10
6209.0037079252679177
 20
340.8505054993660224
 30
0.0
 40
0.4482676159636749
 50
32.8074802831399666
 51
65.5047476161065561
  0
ARC
  5
3301A
  8
0
 10
6209.07182617995295
 20
340.8984833916163097
 30
0.0
 40
0.365035219071202
 50
7.4147506048479777
 51
32.2710587067505372
  0
ARC
  5
3301B
  8
0
 10
6208.0372551571399526
 20
340.7667658416301038
 30
0.0
 40
1.407956375972734
 50
352.730404758643715
 51
7.296892054462405
  0
ARC
  5
3301C
  8
0
 10
6209.0640083120988493
 20
340.6390710868810174
 30
0.0
 40
0.3733124632295825
 50
328.0558824201003176
 51
352.2307898105927961
  0
ARC
  5
3301D
  8
0
 10
6208.9943706400335941
 20
340.6850473662104832
 30
0.0
 40
0.4567353494010437
 50
302.7039518394281004
 51
327.7837740733294254
  0
ARC
  5
3301E
  8
0
 10
6208.9334003786616449
 20
340.7800436568915075
 30
0.0
 40
0.5696143449890617
 50
276.5791880046406845
 51
302.701791255730484
  0
ARC
  5
3301F
  8
0
 10
6209.1675422799316948
 20
340.9527697916262241
 30
0.0
 40
0.1060693012394716
 50
330.8668504357954134
 51
29.1331495642046114
  0
ARC
  5
33020
  8
0
 10
6209.153773638835446
 20
340.944424100251922
 30
0.0
 40
0.1221605136412346
 50
29.4083469829108992
 51
50.1334224959707626
  0
ARC
  5
33021
  8
0
 10
6209.1349316850391915
 20
340.9194622266479087
 30
0.0
 40
0.1534051771225456
 50
50.708115930417847
 51
72.9744842207153965
  0
ARC
  5
33022
  8
0
 10
6209.1334062056930634
 20
340.9684169951382273
 30
0.0
 40
0.0550447620361031
 50
26.4570473113882692
 51
67.1566072632028295
  0
ARC
  5
33023
  8
0
 10
6209.138835609556736
 20
340.9715374220854756
 30
0.0
 40
0.048795191899232
 50
334.075289584694076
 51
26.0170955151452183
  0
ARC
  5
33024
  8
0
 10
6209.1333465671559679
 20
340.974699128761074
 30
0.0
 40
0.0551159205118547
 50
291.7891442458555957
 51
333.6139434264763963
  0
LINE
  5
33025
  8
0
 10
6209.2171564012232921
 20
340.9826012413333274
 30
0.0
 11
6209.217159915623597
 21
340.974603944133321
 31
0.0
  0
ARC
  5
33026
  8
0
 10
6209.1414276349069041
 20
340.9747331124250991
 30
0.0
 40
0.0757323908702301
 50
335.0685018863630944
 51
359.9022769323231046
  0
ARC
  5
33027
  8
0
 10
6209.1369405301948063
 20
340.9770467391001034
 30
0.0
 40
0.08077689044177
 50
311.6697568129188767
 51
334.9219893823736243
  0
ARC
  5
33028
  8
0
 10
6209.1321836497645563
 20
340.9825137657779806
 30
0.0
 40
0.0880232840828994
 50
289.9664168782614979
 51
311.6168121883176809
  0
ARC
  5
33029
  8
0
 10
6209.1433948128687916
 20
340.9825994102773166
 30
0.0
 40
0.0737615883763215
 50
0.0014223091007749
 51
16.1141652139235809
  0
ARC
  5
3302A
  8
0
 10
6209.139845032033918
 20
340.9815738678935872
 30
0.0
 40
0.0774565418495243
 50
16.1141652139235809
 51
49.1380350870298699
  0
ARC
  5
3302B
  8
0
 10
6209.1320774513224023
 20
340.9734520219096225
 30
0.0
 40
0.088682623363702
 50
48.7756482193973895
 51
73.5986844465340511
  0
ARC
  5
3302C
  8
0
 10
6209.1441203418216901
 20
340.966627481488274
 30
0.0
 40
0.1332764834397318
 50
292.970339290456991
 51
330.5651409501675175
  0
ARC
  5
3302D
  8
0
 10
6209.1397880965041622
 20
341.0075003790485084
 30
0.0
 40
0.1389309508299623
 50
286.3882492455450119
 51
314.3535991091454775
  0
ARC
  5
3302E
  8
0
 10
6209.1617622144458437
 20
340.9851593389058735
 30
0.0
 40
0.1075945102913982
 50
314.3035010908299114
 51
336.1815009028504164
  0
ARC
  5
3302F
  8
0
 10
6209.1731266689139375
 20
340.9802956975594839
 30
0.0
 40
0.0952339407287921
 50
336.0972559328503735
 51
357.1724274911121029
  0
ARC
  5
33030
  8
0
 10
6209.1746774659595758
 20
340.9713499030344224
 30
0.0
 40
0.0936635725780998
 50
335.9240583968297074
 51
12.9330708985285607
  0
ARC
  5
33031
  8
0
 10
6209.1555467827929533
 20
340.9807324134716282
 30
0.0
 40
0.1149600860283962
 50
305.9885126213026183
 51
335.5442884963816255
  0
ARC
  5
33032
  8
0
 10
6209.1379380202897664
 20
341.0028916979856035
 30
0.0
 40
0.1432425008226891
 50
287.2166517275484807
 51
306.4791309078963195
  0
ARC
  5
33033
  8
0
 10
6209.0935496098136355
 20
340.9527697916262241
 30
0.0
 40
0.1060693012394716
 50
150.8668504357954134
 51
209.1331495642045866
  0
ARC
  5
33034
  8
0
 10
6209.1073182509126127
 20
340.944424100251922
 30
0.0
 40
0.1221605136412346
 50
129.866577504029209
 51
150.5916530170891008
  0
ARC
  5
33035
  8
0
 10
6209.1261602047088672
 20
340.9194622266479087
 30
0.0
 40
0.1534051771225456
 50
107.0255157792846035
 51
129.2918840695820961
  0
ARC
  5
33036
  8
0
 10
6209.1276856840540859
 20
340.9684169951382273
 30
0.0
 40
0.0550447620361031
 50
112.8433927367970995
 51
153.542952688611706
  0
ARC
  5
33037
  8
0
 10
6209.1222562801885942
 20
340.9715374220854756
 30
0.0
 40
0.048795191899232
 50
153.9829044848547142
 51
205.9247104153058103
  0
ARC
  5
33038
  8
0
 10
6209.1277453225911813
 20
340.974699128761074
 30
0.0
 40
0.0551159205118547
 50
206.3860565735236037
 51
248.2108557541444895
  0
LINE
  5
33039
  8
0
 10
6209.0439354885238572
 20
340.9826012413333274
 30
0.0
 11
6209.0439319741226427
 21
340.974603944133321
 31
0.0
  0
ARC
  5
3303A
  8
0
 10
6209.1196642548393356
 20
340.9747331124250991
 30
0.0
 40
0.0757323908702301
 50
180.0977230676735132
 51
204.9314981136369056
  0
ARC
  5
3303B
  8
0
 10
6209.1241513595532524
 20
340.9770467391001034
 30
0.0
 40
0.08077689044177
 50
205.0780106176262905
 51
228.3302431870810949
  0
ARC
  5
3303C
  8
0
 10
6209.1289082399816834
 20
340.9825137657779806
 30
0.0
 40
0.0880232840828994
 50
228.3831878116822907
 51
250.0335831217385021
  0
ARC
  5
3303D
  8
0
 10
6209.1176970768774481
 20
340.9825994102773166
 30
0.0
 40
0.0737615883763215
 50
163.8858347860764013
 51
179.9985776909024935
  0
ARC
  5
3303E
  8
0
 10
6209.1212468577141408
 20
340.9815738678935872
 30
0.0
 40
0.0774565418495243
 50
130.8619649129701088
 51
163.8858347860764013
  0
ARC
  5
3303F
  8
0
 10
6209.1290144384256564
 20
340.9734520219096225
 30
0.0
 40
0.088682623363702
 50
106.4013155534659063
 51
131.2243517806026034
  0
ARC
  5
33040
  8
0
 10
6209.1169715479245497
 20
340.966627481488274
 30
0.0
 40
0.1332764834397318
 50
209.4348590498325109
 51
247.029660709543009
  0
ARC
  5
33041
  8
0
 10
6209.1213037932438965
 20
341.0075003790485084
 30
0.0
 40
0.1389309508299623
 50
225.646400890854494
 51
253.6117507544549881
  0
ARC
  5
33042
  8
0
 10
6209.099329675300396
 20
340.9851593389058735
 30
0.0
 40
0.1075945102913982
 50
203.8184990971496973
 51
225.6964989091700886
  0
ARC
  5
33043
  8
0
 10
6209.0879652208341213
 20
340.9802956975594839
 30
0.0
 40
0.0952339407287921
 50
182.8275725088878971
 51
203.9027440671495128
  0
ARC
  5
33044
  8
0
 10
6209.0864144237857545
 20
340.9713499030344224
 30
0.0
 40
0.0936635725780998
 50
167.066929101471402
 51
204.0759416031702074
  0
ARC
  5
33045
  8
0
 10
6209.1055451069541959
 20
340.9807324134716282
 30
0.0
 40
0.1149600860283962
 50
204.4557115036182893
 51
234.0114873786974101
  0
ARC
  5
33046
  8
0
 10
6209.1231538694555638
 20
341.0028916979856035
 30
0.0
 40
0.1432425008226891
 50
233.5208690921037089
 51
252.7833482724514909
  0
ARC
  5
33047
  8
0
 10
6209.1305459448731199
 20
340.9036290998224104
 30
0.0
 40
0.1698291187002861
 50
73.1237274733941405
 51
106.8762725266058027
  0
ARC
  5
33048
  8
0
 10
6209.1305459448731199
 20
340.9687230080576228
 30
0.0
 40
0.0936517389758302
 50
73.5167742139460074
 51
106.4832257860540068
  0
ARC
  5
33049
  8
0
 10
6209.1305459448731199
 20
340.9625731950613954
 30
0.0
 40
0.0615417176722133
 50
66.8146594034470382
 51
113.1853405965530044
  0
ARC
  5
3304A
  8
0
 10
6209.1305459448731199
 20
340.9805334327153901
 30
0.0
 40
0.0615745035825526
 50
247.8061835011781113
 51
292.1938164988205813
  0
ARC
  5
3304B
  8
0
 10
6209.1305459448731199
 20
340.987127406167474
 30
0.0
 40
0.0929188450344729
 50
250.0558735614353054
 51
289.9441264385646946
  0
ARC
  5
3304C
  8
0
 10
6209.1305459448731199
 20
341.0332924545718924
 30
0.0
 40
0.1662903638953251
 50
253.064054452955105
 51
286.9359455470440139
  0
ARC
  5
3304D
  8
0
 10
6209.1305459448731199
 20
341.0246341372665029
 30
0.0
 40
0.1661998382333987
 50
252.5677459107724019
 51
287.4322540892276265
  0
ARC
  5
3304E
  8
0
 10
6209.1305459448731199
 20
340.99425311581291
 30
0.0
 40
0.1640180560800118
 50
246.4298524626003939
 51
293.5701475373995777
  0
ARC
  5
3304F
  8
0
 10
6209.1675422799316948
 20
340.5653568949686019
 30
0.0
 40
0.1060693012394716
 50
330.8668504357954134
 51
29.1331495642046114
  0
ARC
  5
33050
  8
0
 10
6209.153773638835446
 20
340.5570112035944135
 30
0.0
 40
0.1221605136412346
 50
29.4083469829108992
 51
50.1334224959707626
  0
ARC
  5
33051
  8
0
 10
6209.1349316850391915
 20
340.5320493299901727
 30
0.0
 40
0.1534051771225456
 50
50.708115930417847
 51
72.9744842207153965
  0
ARC
  5
33052
  8
0
 10
6209.1334062056930634
 20
340.5810040984806051
 30
0.0
 40
0.0550447620361031
 50
26.4570473113882692
 51
67.1566072632028295
  0
ARC
  5
33053
  8
0
 10
6209.138835609556736
 20
340.5841245254279102
 30
0.0
 40
0.048795191899232
 50
334.075289584694076
 51
26.0170955151452183
  0
ARC
  5
33054
  8
0
 10
6209.1333465671559679
 20
340.5872862321035086
 30
0.0
 40
0.0551159205118547
 50
291.7891442458555957
 51
333.6139434264763963
  0
LINE
  5
33055
  8
0
 10
6209.2171564012232921
 20
340.5951883446757051
 30
0.0
 11
6209.217159915623597
 21
340.587191047475585
 31
0.0
  0
ARC
  5
33056
  8
0
 10
6209.1414276349069041
 20
340.5873202157674768
 30
0.0
 40
0.0757323908702301
 50
335.0685018863630944
 51
359.9022769323231046
  0
ARC
  5
33057
  8
0
 10
6209.1369405301948063
 20
340.5896338424424812
 30
0.0
 40
0.08077689044177
 50
311.6697568129188767
 51
334.9219893823736243
  0
ARC
  5
33058
  8
0
 10
6209.1321836497645563
 20
340.595100869120472
 30
0.0
 40
0.0880232840828994
 50
289.9664168782614979
 51
311.6168121883176809
  0
ARC
  5
33059
  8
0
 10
6209.1433948128687916
 20
340.5951865136196943
 30
0.0
 40
0.0737615883763215
 50
0.0014223091007749
 51
16.1141652139235809
  0
ARC
  5
3305A
  8
0
 10
6209.139845032033918
 20
340.5941609712360219
 30
0.0
 40
0.0774565418495243
 50
16.1141652139235809
 51
49.1380350870298699
  0
ARC
  5
3305B
  8
0
 10
6209.1320774513224023
 20
340.5860391252520003
 30
0.0
 40
0.088682623363702
 50
48.7756482193973895
 51
73.5986844465340511
  0
ARC
  5
3305C
  8
0
 10
6209.1441203418216901
 20
340.5792145848307086
 30
0.0
 40
0.1332764834397318
 50
292.970339290456991
 51
330.5651409501675175
  0
ARC
  5
3305D
  8
0
 10
6209.1397880965041622
 20
340.6200874823908862
 30
0.0
 40
0.1389309508299623
 50
286.3882492455450119
 51
314.3535991091454775
  0
ARC
  5
3305E
  8
0
 10
6209.1617622144458437
 20
340.5977464422483081
 30
0.0
 40
0.1075945102913982
 50
314.3035010908299114
 51
336.1815009028504164
  0
ARC
  5
3305F
  8
0
 10
6209.1731266689139375
 20
340.5928828009018048
 30
0.0
 40
0.0952339407287921
 50
336.0972559328503735
 51
357.1724274911121029
  0
ARC
  5
33060
  8
0
 10
6209.1746774659595758
 20
340.5839370063766864
 30
0.0
 40
0.0936635725780998
 50
335.9240583968297074
 51
12.9330708985285607
  0
ARC
  5
33061
  8
0
 10
6209.1555467827929533
 20
340.5933195168138923
 30
0.0
 40
0.1149600860283962
 50
305.9885126213026183
 51
335.5442884963816255
  0
ARC
  5
33062
  8
0
 10
6209.1379380202897664
 20
340.6154788013279813
 30
0.0
 40
0.1432425008226891
 50
287.2166517275484807
 51
306.4791309078963195
  0
ARC
  5
33063
  8
0
 10
6209.0935496098136355
 20
340.5653568949686019
 30
0.0
 40
0.1060693012394716
 50
150.8668504357954134
 51
209.1331495642045866
  0
ARC
  5
33064
  8
0
 10
6209.1073182509126127
 20
340.5570112035944135
 30
0.0
 40
0.1221605136412346
 50
129.866577504029209
 51
150.5916530170891008
  0
ARC
  5
33065
  8
0
 10
6209.1261602047088672
 20
340.5320493299901727
 30
0.0
 40
0.1534051771225456
 50
107.0255157792846035
 51
129.2918840695820961
  0
ARC
  5
33066
  8
0
 10
6209.1276856840540859
 20
340.5810040984806051
 30
0.0
 40
0.0550447620361031
 50
112.8433927367970995
 51
153.542952688611706
  0
ARC
  5
33067
  8
0
 10
6209.1222562801885942
 20
340.5841245254279102
 30
0.0
 40
0.048795191899232
 50
153.9829044848547142
 51
205.9247104153058103
  0
ARC
  5
33068
  8
0
 10
6209.1277453225911813
 20
340.5872862321035086
 30
0.0
 40
0.0551159205118547
 50
206.3860565735236037
 51
248.2108557541444895
  0
LINE
  5
33069
  8
0
 10
6209.0439354885238572
 20
340.5951883446757051
 30
0.0
 11
6209.0439319741226427
 21
340.587191047475585
 31
0.0
  0
ARC
  5
3306A
  8
0
 10
6209.1196642548393356
 20
340.5873202157674768
 30
0.0
 40
0.0757323908702301
 50
180.0977230676735132
 51
204.9314981136369056
  0
ARC
  5
3306B
  8
0
 10
6209.1241513595532524
 20
340.5896338424424812
 30
0.0
 40
0.08077689044177
 50
205.0780106176262905
 51
228.3302431870810949
  0
ARC
  5
3306C
  8
0
 10
6209.1289082399816834
 20
340.595100869120472
 30
0.0
 40
0.0880232840828994
 50
228.3831878116822907
 51
250.0335831217385021
  0
ARC
  5
3306D
  8
0
 10
6209.1176970768774481
 20
340.5951865136196943
 30
0.0
 40
0.0737615883763215
 50
163.8858347860764013
 51
179.9985776909024935
  0
ARC
  5
3306E
  8
0
 10
6209.1212468577141408
 20
340.5941609712360219
 30
0.0
 40
0.0774565418495243
 50
130.8619649129701088
 51
163.8858347860764013
  0
ARC
  5
3306F
  8
0
 10
6209.1290144384256564
 20
340.5860391252520003
 30
0.0
 40
0.088682623363702
 50
106.4013155534659063
 51
131.2243517806026034
  0
ARC
  5
33070
  8
0
 10
6209.1169715479245497
 20
340.5792145848307086
 30
0.0
 40
0.1332764834397318
 50
209.4348590498325109
 51
247.029660709543009
  0
ARC
  5
33071
  8
0
 10
6209.1213037932438965
 20
340.6200874823908862
 30
0.0
 40
0.1389309508299623
 50
225.646400890854494
 51
253.6117507544549881
  0
ARC
  5
33072
  8
0
 10
6209.099329675300396
 20
340.5977464422483081
 30
0.0
 40
0.1075945102913982
 50
203.8184990971496973
 51
225.6964989091700886
  0
ARC
  5
33073
  8
0
 10
6209.0879652208341213
 20
340.5928828009018048
 30
0.0
 40
0.0952339407287921
 50
182.8275725088878971
 51
203.9027440671495128
  0
ARC
  5
33074
  8
0
 10
6209.0864144237857545
 20
340.5839370063766864
 30
0.0
 40
0.0936635725780998
 50
167.066929101471402
 51
204.0759416031702074
  0
ARC
  5
33075
  8
0
 10
6209.1055451069541959
 20
340.5933195168138923
 30
0.0
 40
0.1149600860283962
 50
204.4557115036182893
 51
234.0114873786974101
  0
ARC
  5
33076
  8
0
 10
6209.1231538694555638
 20
340.6154788013279813
 30
0.0
 40
0.1432425008226891
 50
233.5208690921037089
 51
252.7833482724514909
  0
ARC
  5
33077
  8
0
 10
6209.1305459448731199
 20
340.5162162031647881
 30
0.0
 40
0.1698291187002861
 50
73.1237274733941405
 51
106.8762725266058027
  0
ARC
  5
33078
  8
0
 10
6209.1305459448731199
 20
340.5813101114000006
 30
0.0
 40
0.0936517389758302
 50
73.5167742139460074
 51
106.4832257860540068
  0
ARC
  5
33079
  8
0
 10
6209.1305459448731199
 20
340.5751602984037731
 30
0.0
 40
0.0615417176722133
 50
66.8146594034470382
 51
113.1853405965530044
  0
ARC
  5
3307A
  8
0
 10
6209.1305459448731199
 20
340.5931205360578815
 30
0.0
 40
0.0615745035825526
 50
247.8061835011781113
 51
292.1938164988205813
  0
ARC
  5
3307B
  8
0
 10
6209.1305459448731199
 20
340.5997145095099086
 30
0.0
 40
0.0929188450344729
 50
250.0558735614353054
 51
289.9441264385646946
  0
ARC
  5
3307C
  8
0
 10
6209.1305459448731199
 20
340.6458795579143271
 30
0.0
 40
0.1662903638953251
 50
253.064054452955105
 51
286.9359455470440139
  0
ARC
  5
3307D
  8
0
 10
6209.1305459448731199
 20
340.6372212406088806
 30
0.0
 40
0.1661998382333987
 50
252.5677459107724019
 51
287.4322540892276265
  0
ARC
  5
3307E
  8
0
 10
6209.1305459448731199
 20
340.6068402191551741
 30
0.0
 40
0.1640180560800118
 50
246.4298524626003939
 51
293.5701475373995777
  0
ARC
  5
3307F
  8
0
 10
6209.1799463243014543
 20
339.0488992729287929
 30
0.0
 40
0.1701987779937487
 50
19.9541075077488088
 51
48.6760424363277906
  0
ARC
  5
33080
  8
0
 10
6209.1205385918510729
 20
338.9771423518852771
 30
0.0
 40
0.2633297779316901
 50
49.2782601853944584
 51
74.5510394735275241
  0
ARC
  5
33081
  8
0
 10
6209.0913687080010277
 20
338.8731282863490719
 30
0.0
 40
0.3713561151162638
 50
74.487986755118456
 51
102.7812753508226962
  0
ARC
  5
33082
  8
0
 10
6209.0800882389112303
 20
338.9107500232482266
 30
0.0
 40
0.3321817990171794
 50
102.3193760413523989
 51
129.344681576277992
  0
ARC
  5
33083
  8
0
 10
6209.00945783294992
 20
339.0012957383851244
 30
0.0
 40
0.2173978822824257
 50
130.0781168118953985
 51
162.9403344032689063
  0
ARC
  5
33084
  8
0
 10
6208.9716075572287082
 20
339.0205467571186091
 30
0.0
 40
0.1757171043359876
 50
165.3212962401611037
 51
228.9018941486990002
  0
ARC
  5
33085
  8
0
 10
6209.0213670837893005
 20
339.0706111167323229
 30
0.0
 40
0.2461970598759009
 50
227.8340479090761903
 51
250.9809199691146091
  0
ARC
  5
33086
  8
0
 10
6209.0422005147011077
 20
339.1630764032636876
 30
0.0
 40
0.3405638938611023
 50
252.7370490796068907
 51
292.7147666797357033
  0
ARC
  5
33087
  8
0
 10
6209.0492468760403426
 20
339.1584637752021081
 30
0.0
 40
0.3336214909841216
 50
291.9043557728891187
 51
312.8015009671818802
  0
ARC
  5
33088
  8
0
 10
6209.1209697717040399
 20
339.0871063991303913
 30
0.0
 40
0.232569688004971
 50
311.7816578225189801
 51
336.7584525963890769
  0
ARC
  5
33089
  8
0
 10
6209.1896582781700999
 20
339.0581144884920946
 30
0.0
 40
0.1580155305876829
 50
336.5895354224933271
 51
18.0147126350885891
  0
ARC
  5
3308A
  8
0
 10
6208.7549276582676612
 20
338.5609377640021762
 30
0.0
 40
0.1781166307892857
 50
331.4067240540258013
 51
28.59327594597708
  0
ARC
  5
3308B
  8
0
 10
6208.7286140024698398
 20
338.5401176637881804
 30
0.0
 40
0.2112618883184254
 50
30.1359383695704217
 51
54.09486549208669
  0
ARC
  5
3308C
  8
0
 10
6208.6815869768070115
 20
338.4743074554726832
 30
0.0
 40
0.2921466330435327
 50
54.1934523482090924
 51
73.3568820305950737
  0
ARC
  5
3308D
  8
0
 10
6208.667370375687824
 20
338.6035083411846927
 30
0.0
 40
0.2754063356703984
 50
296.4327147816968022
 51
332.3482144984940874
  0
ARC
  5
3308E
  8
0
 10
6208.6924970385271081
 20
340.1691034119518235
 30
0.0
 40
2.7203022712758709
 50
66.6095110471351148
 51
74.0323462565094843
  0
ARC
  5
3308F
  8
0
 10
6208.7920375005969618
 20
340.4013223351918214
 30
0.0
 40
2.4676499940149741
 50
56.6414750954818302
 51
66.5902488549324829
  0
ARC
  5
33090
  8
0
 10
6209.4150282183973104
 20
340.9400423547547803
 30
0.0
 40
1.623435298827504
 50
337.0858064002987931
 51
22.9141935997011217
  0
ARC
  5
33091
  8
0
 10
6209.2279023919481915
 20
340.8654166263735874
 30
0.0
 40
1.824855175632951
 50
22.7848076373336497
 51
36.3580643489575124
  0
ARC
  5
33092
  8
0
 10
6209.0477206131381536
 20
340.7290125031727257
 30
0.0
 40
2.0508272380807839
 50
36.4427986966002067
 51
47.6393649817782006
  0
ARC
  5
33093
  8
0
 10
6208.8422031879381393
 20
340.4908133341108964
 30
0.0
 40
2.3653293533985371
 50
47.8485752379302198
 51
56.4644450760468217
  0
ARC
  5
33094
  8
0
 10
6209.4074210838816725
 20
340.9345579545188798
 30
0.0
 40
1.6160149945465661
 50
338.4388238139150076
 51
21.5611761860849889
  0
ARC
  5
33095
  8
0
 10
6209.2514006303308634
 20
341.0002621177976039
 30
0.0
 40
1.797616450912545
 50
327.8963821878085128
 51
337.3484740386600151
  0
ARC
  5
33096
  8
0
 10
6209.0121524384476288
 20
341.1639784804908118
 30
0.0
 40
2.0873200735459281
 50
308.3477426251170073
 51
327.5797984375578267
  0
ARC
  5
33097
  8
0
 10
6222.1915894134936025
 20
324.2605221294841158
 30
0.0
 40
19.3469251254911789
 50
127.8994951459687996
 51
130.5430925364989037
  0
ARC
  5
33098
  8
0
 10
6211.244637287385558
 20
337.0181379066200975
 30
0.0
 40
2.5365909530534698
 50
129.9540900700729935
 51
133.5448655053629068
  0
ARC
  5
33099
  8
0
 10
6210.2593738332052453
 20
338.0641195889713799
 30
0.0
 40
1.0996755447717259
 50
133.880751708325306
 51
159.6005565251743974
  0
ARC
  5
3309A
  8
0
 10
6208.5704556714536011
 20
338.7000977114515194
 30
0.0
 40
0.7050399765722576
 50
300.1951902380956767
 51
338.9992821016444964
  0
ARC
  5
3309B
  8
0
 10
6208.5906702354759545
 20
338.6827338390260138
 30
0.0
 40
0.6691454196597978
 50
297.5371629543587915
 51
337.6868498359835939
  0
LINE
  5
3309C
  8
0
 10
6209.2097117883304236
 20
338.4286804027332209
 30
0.0
 11
6209.2252264723292683
 21
338.4693005444332243
 31
0.0
  0
ARC
  5
3309D
  8
0
 10
6210.2306127588353775
 20
338.0638382425001964
 30
0.0
 40
1.0840670013344189
 50
141.2625098009204123
 51
158.0362691534093074
  0
ARC
  5
3309E
  8
0
 10
6210.4223526681162184
 20
337.9008855322445015
 30
0.0
 40
1.33561536109685
 50
131.442781432380599
 51
140.9568700780502013
  0
ARC
  5
3309F
  8
0
 10
6218.7288293871970382
 20
328.3800830256942049
 30
0.0
 40
13.9705945814712198
 50
130.5713425668307934
 51
131.1357104360633912
  0
ARC
  5
330A0
  8
0
 10
6222.7239682932340656
 20
323.6379830436953853
 30
0.0
 40
20.1711548196926493
 50
128.0336970099411928
 51
130.4306227654307975
  0
ARC
  5
330A1
  8
0
 10
6208.8208579630800159
 20
341.346476587826487
 30
0.0
 40
2.3433089414710588
 50
309.0147625588738265
 51
317.682648939622311
  0
ARC
  5
330A2
  8
0
 10
6209.0827165845457785
 20
341.0954678530233082
 30
0.0
 40
1.9807171867914819
 50
317.9519561372734984
 51
327.9744524130007903
  0
ARC
  5
330A3
  8
0
 10
6209.2024552955026593
 20
341.0129189495989976
 30
0.0
 40
1.8354373089795619
 50
328.1770101678222886
 51
338.5151807231803787
  0
ARC
  5
330A4
  8
0
 10
6209.2460535672125843
 20
340.8742160538678831
 30
0.0
 40
1.7882690793449809
 50
21.4592207778284703
 51
35.052040688666338
  0
ARC
  5
330A5
  8
0
 10
6209.011137363859234
 20
340.7007445797095784
 30
0.0
 40
2.0802189685307062
 50
35.2473758413535521
 51
54.0467679639629708
  0
ARC
  5
330A6
  8
0
 10
6208.8138581535476987
 20
340.4435864052389888
 30
0.0
 40
2.4042308961296168
 50
53.8391279648455523
 51
63.6280973269410808
  0
ARC
  5
330A7
  8
0
 10
6208.7068860405079249
 20
340.2238136270074733
 30
0.0
 40
2.6486490263262672
 50
63.6666601640429519
 51
75.1880832881721517
  0
ARC
  5
330A8
  8
0
 10
6208.6569374093787701
 20
340.3333960242804892
 30
0.0
 40
2.9635059850910279
 50
70.9986177041106998
 51
109.0013822958893002
  0
ARC
  5
330A9
  8
0
 10
6208.6569374093787701
 20
340.0071638654384856
 30
0.0
 40
2.9917045417947778
 50
73.4875586077271379
 51
106.5124413922728053
  0
ARC
  5
330AA
  8
0
 10
6208.6569374093787701
 20
340.1508414460395215
 30
0.0
 40
2.7477966720875129
 50
73.4242234006018748
 51
106.5757765993980968
  0
ARC
  5
330AB
  8
0
 10
6208.6569374093787701
 20
339.9460411999266967
 30
0.0
 40
2.9300484615268849
 50
75.632421729667314
 51
104.3675782703326007
  0
ARC
  5
330AC
  8
0
 10
6208.6569374093787701
 20
337.0927479933901054
 30
0.0
 40
4.2297288019431027
 50
85.3670195840659716
 51
94.6329804159340142
  0
ARC
  5
330AD
  8
0
 10
6208.6569374093787701
 20
343.1314284232557839
 30
0.0
 40
2.9371947110332082
 50
263.3188038702479048
 51
276.6811961297519815
  0
ARC
  5
330AE
  8
0
 10
6208.6569374093787701
 20
338.3941682595046245
 30
0.0
 40
0.3759890388353186
 50
73.2556505131350093
 51
106.7443494868650049
  0
ARC
  5
330AF
  8
0
 10
6208.6569374093787701
 20
338.6200478051708842
 30
0.0
 40
0.2948675719406416
 50
243.1825879065073082
 51
296.8174120934928055
  0
ARC
  5
330B0
  8
0
 10
6208.6569374093787701
 20
338.5610754557048949
 30
0.0
 40
0.5306386367093738
 50
242.7343167435425926
 51
297.2656832564574074
  0
ARC
  5
330B1
  8
0
 10
6208.6569374093787701
 20
338.5516601473731271
 30
0.0
 40
0.5332471059683466
 50
239.8146253332702997
 51
300.1853746667296718
  0
ARC
  5
330B2
  8
0
 10
6195.1800945249669894
 20
334.590761735633123
 30
0.0
 40
13.9482031073128105
 50
359.4327920258724021
 51
1.9388986867203899
  0
ARC
  5
330B3
  8
0
 10
6195.1519176477031579
 20
334.3144622795970804
 30
0.0
 40
13.9763799845761891
 50
357.4742756046031786
 51
2.531066961189492
  0
ARC
  5
330B4
  8
0
 10
6209.7848452840316895
 20
335.0079676381035938
 30
0.0
 40
0.6745112938564056
 50
185.7486939985105039
 51
186.4945625655072092
  0
LINE
  5
330B5
  8
0
 10
6201.649142532978658
 20
355.5752098562333003
 30
0.0
 11
6201.649142532978658
 21
355.1838712735333274
 31
0.0
  0
ARC
  5
330B6
  8
0
 10
6211.6192212731803011
 20
355.1838712735312811
 30
0.0
 40
0.0299212597980052
 50
270.0000000005210836
 51
359.9999998569639956
  0
LINE
  5
330B7
  8
0
 10
6211.6491425329795675
 20
355.5752098562333003
 30
0.0
 11
6211.6491425329795675
 21
355.1838712735333274
 31
0.0
  0
LINE
  5
330B8
  8
0
 10
6201.6790637928797878
 20
355.1539500137333221
 30
0.0
 11
6211.6192212731803011
 21
355.1539500137333221
 31
0.0
  0
LINE
  5
330B9
  8
0
 10
6211.6491425329795675
 20
355.5752098562333003
 30
0.0
 11
6201.649142532978658
 21
355.5752098562333003
 31
0.0
  0
ARC
  5
330BA
  8
0
 10
6201.6790637929489094
 20
355.1838712737040282
 30
0.0
 40
0.0299212599707097
 50
180.0000003269003059
 51
269.9999998646176778
  0
LINE
  5
330BB
  8
0
 10
6206.2849568920291858
 20
357.7043122279831096
 30
0.0
 11
6207.0133157613290678
 21
357.7043122279832232
 31
0.0
  0
LINE
  5
330BC
  8
0
 10
6206.2849568920291858
 20
357.7043122279832232
 30
0.0
 11
6206.2357567061299051
 21
357.6550996120333252
 31
0.0
  0
LINE
  5
330BD
  8
0
 10
6206.2357567061299051
 20
357.6550996120333252
 30
0.0
 11
6207.0625283598301394
 21
357.6550996120333252
 31
0.0
  0
LINE
  5
330BE
  8
0
 10
6206.1730795408293488
 20
357.6126114310333151
 30
0.0
 11
6207.1252055251297861
 21
357.6126114310333151
 31
0.0
  0
LINE
  5
330BF
  8
0
 10
6205.9306385959298495
 20
356.6421389900331747
 30
0.0
 11
6207.3676464700292854
 21
356.6421389900331747
 31
0.0
  0
LINE
  5
330C0
  8
0
 10
6206.4452811631290388
 20
356.1696980452333037
 30
0.0
 11
6206.8530039028291867
 21
356.1696980452333037
 31
0.0
  0
LINE
  5
330C1
  8
0
 10
6205.9306385959298495
 20
356.6421389900331747
 30
0.0
 11
6205.9306385959298495
 21
355.5752098562333003
 31
0.0
  0
ARC
  5
330C2
  8
0
 10
6206.381425998015402
 20
357.075759743730373
 30
0.0
 40
0.2283464573914162
 50
179.9975676763625074
 51
248.087787665970211
  0
ARC
  5
330C3
  8
0
 10
6206.2700874148285948
 20
356.7989668093331943
 30
0.0
 40
0.0700000000000127
 50
309.3700284749706952
 51
68.087787732980928
  0
ARC
  5
330C4
  8
0
 10
6206.6491552793841038
 20
356.337006540826394
 30
0.0
 40
0.5275782255337789
 50
129.3711993614003006
 51
144.6644166627743004
  0
LINE
  5
330C5
  8
0
 10
6206.1530795408298218
 20
357.07576943476829
 30
0.0
 11
6206.1530795408298218
 21
357.5926114310332196
 31
0.0
  0
ARC
  5
330C6
  8
0
 10
6206.1730795408293488
 20
357.5926114310332196
 30
0.0
 40
0.020000000000007
 50
89.9999899732664517
 51
179.9999999999901945
  0
LINE
  5
330C7
  8
0
 10
6206.2357567061299051
 20
357.6550996120333252
 30
0.0
 11
6206.2357567061299051
 21
357.6126114310333151
 31
0.0
  0
LINE
  5
330C8
  8
0
 10
6207.0133281739290396
 20
357.7043122279832232
 30
0.0
 11
6207.0625283598301394
 21
357.6550996120333252
 31
0.0
  0
LINE
  5
330C9
  8
0
 10
6207.3676464700292854
 20
356.6421389900331747
 30
0.0
 11
6207.3676464700292854
 21
355.5752098562333003
 31
0.0
  0
ARC
  5
330CA
  8
0
 10
6206.916859067943733
 20
357.075759743730373
 30
0.0
 40
0.2283464573914162
 50
291.912212334029789
 51
0.0024323236375365
  0
ARC
  5
330CB
  8
0
 10
6207.0281976511296307
 20
356.7989668093331943
 30
0.0
 40
0.0700000000000138
 50
111.912212267017793
 51
230.6299715250355007
  0
ARC
  5
330CC
  8
0
 10
6206.6491297865750312
 20
356.337006540826394
 30
0.0
 40
0.5275782255337981
 50
35.3355833372230066
 51
50.628800638597653
  0
LINE
  5
330CD
  8
0
 10
6207.1452055251293132
 20
357.07576943476829
 30
0.0
 11
6207.1452055251293132
 21
357.5926114310332196
 31
0.0
  0
ARC
  5
330CE
  8
0
 10
6207.1252055251297861
 20
357.5926114310332196
 30
0.0
 40
0.020000000000007
 50
0.0000000000097707
 51
90.0000100267335483
  0
LINE
  5
330CF
  8
0
 10
6207.0625283598301394
 20
357.6550996120333252
 30
0.0
 11
6207.0625283598301394
 21
357.6126114310333151
 31
0.0
  0
LINE
  5
330D0
  8
0
 10
6207.0020746635746036
 20
356.8639097806333211
 30
0.0
 11
6206.2962104023827123
 21
356.8639097806333211
 31
0.0
  0
LINE
  5
330D1
  8
0
 10
6206.9837948165650232
 20
356.744852224583326
 30
0.0
 11
6206.3144902493941117
 21
356.744852224583326
 31
0.0
  0
LINE
  5
330D2
  8
0
 10
6206.2849693045791355
 20
357.7043122279832232
 30
0.0
 11
6206.2849693045791355
 21
357.8224224546833057
 31
0.0
  0
LINE
  5
330D3
  8
0
 10
6207.013315761279955
 20
357.7043122279832232
 30
0.0
 11
6207.013315761279955
 21
357.822422454683192
 31
0.0
  0
LINE
  5
330D4
  8
0
 10
6206.4452811631290388
 20
356.1696980452333037
 30
0.0
 11
6206.4452811631290388
 21
356.6421389900331747
 31
0.0
  0
LINE
  5
330D5
  8
0
 10
6206.8530039028291867
 20
356.1696980452333037
 30
0.0
 11
6206.8530039028291867
 21
356.6421389900331747
 31
0.0
  0
LINE
  5
330D6
  8
0
 10
6206.4508896550296413
 20
357.4433200924332823
 30
0.0
 11
6206.8473954109285842
 21
357.4433200924332823
 31
0.0
  0
LINE
  5
330D7
  8
0
 10
6206.4508896550296413
 20
357.4433200924332823
 30
0.0
 11
6206.4508896550296413
 21
357.0757597432332204
 31
0.0
  0
ARC
  5
330D8
  8
0
 10
6206.555803581735745
 20
357.0784625029855874
 30
0.0
 40
0.1049487347578918
 50
181.4757095431016012
 51
226.382580103114293
  0
ARC
  5
330D9
  8
0
 10
6206.6130668959258401
 20
357.138558310042697
 30
0.0
 40
0.1879583316597404
 50
226.382580103114293
 51
249.8156775612692968
  0
LINE
  5
330DA
  8
0
 10
6206.8473954109285842
 20
357.4433200924332823
 30
0.0
 11
6206.8473954109285842
 21
357.0757597432332204
 31
0.0
  0
ARC
  5
330DB
  8
0
 10
6206.74248148422339
 20
357.0784625029855874
 30
0.0
 40
0.1049487347578918
 50
313.6174198968856786
 51
358.5242904568983136
  0
ARC
  5
330DC
  8
0
 10
6206.6852181700332949
 20
357.138558310042697
 30
0.0
 40
0.1879583316597404
 50
290.1843224387305895
 51
313.6174198968856786
  0
ARC
  5
330DD
  8
0
 10
6206.649142532978658
 20
356.9885956831731733
 30
0.0
 40
0.4960629919600772
 50
66.4435356803104469
 51
113.5564643196894963
  0
ARC
  5
330DE
  8
0
 10
6206.649142532978658
 20
357.2458486900745811
 30
0.0
 40
0.3011239015413488
 50
250.4168528585394995
 51
289.5831471414604721
  0
LINE
  5
330DF
  8
0
 10
6208.9382350650157605
 20
333.6684859094726789
 30
0.0
 11
6208.9394236367897975
 21
331.8045401126166212
 31
0.0
  0
LINE
  5
330E0
  8
0
 10
6208.3870569175624041
 20
333.6681344428207012
 30
0.0
 11
6208.3882468367855836
 21
331.802075541684701
 31
0.0
  0
ARC
  5
330E1
  8
0
 10
6306.3010508722582017
 20
332.6142233046477941
 30
0.0
 40
97.3649939393499579
 50
180.4764747830487011
 51
181.0486817558216899
  0
ARC
  5
330E2
  8
0
 10
6306.3010508722582017
 20
332.6142233046477941
 30
0.0
 40
97.916172198863535
 50
179.5965961583899002
 51
179.5978361393495959
  0
ARC
  5
330E3
  8
0
 10
6306.3010508722582017
 20
332.6142233046477941
 30
0.0
 40
97.916172198863535
 50
180.4752348020892043
 51
181.0474837889030084
  0
ARC
  5
330E4
  8
0
 10
6370.8398285416633371
 20
332.5934060706567266
 30
0.0
 40
161.8970428881046928
 50
180.6232877442697884
 51
181.8194511226230929
  0
ARC
  5
330E5
  8
0
 10
6370.8398285416633371
 20
332.5934060706567266
 30
0.0
 40
162.4482211476181988
 50
180.6240090120365949
 51
181.8193540798866081
  0
ARC
  5
330E6
  8
0
 10
6308.3228647633386572
 20
330.5081996124914099
 30
0.0
 40
99.3454418099285732
 50
181.7622179705604992
 51
184.9748005180694861
  0
ARC
  5
330E7
  8
0
 10
6308.3228647633386572
 20
330.5081996124914099
 30
0.0
 40
99.8966200694421502
 50
181.7623759463922966
 51
184.975112324041703
  0
ARC
  5
330E8
  8
0
 10
7042.1581858788358659
 20
396.0388181741881226
 30
0.0
 40
836.1006372754166023
 50
185.0876875773674897
 51
185.4314979608921874
  0
ARC
  5
330E9
  8
0
 10
7042.1581858788358659
 20
396.0388181741881226
 30
0.0
 40
836.6518155349301651
 50
185.0876504382069925
 51
185.431419890128609
  0
ARC
  5
330EA
  8
0
 10
6148.249785910303217
 20
311.3000049531835884
 30
0.0
 40
61.815714157927097
 50
2.331650070082953
 51
5.1950542665088211
  0
ARC
  5
330EB
  8
0
 10
6148.249785910303217
 20
311.3000049531835884
 30
0.0
 40
61.2645358984135413
 50
2.3315071306684718
 51
5.193993216018999
  0
ARC
  5
330EC
  8
0
 10
6191.8436027870029648
 20
313.064994456372176
 30
0.0
 40
18.1861861316857407
 50
355.9565248182274786
 51
2.3632536617756661
  0
ARC
  5
330ED
  8
0
 10
6191.8436027870029648
 20
313.064994456372176
 30
0.0
 40
17.6350078721721815
 50
355.955446617837481
 51
2.36374484931856
  0
ARC
  5
330EE
  8
0
 10
6203.0387780453156665
 20
312.2653170580520055
 30
0.0
 40
6.9624944905719053
 50
341.3600258247075772
 51
356.0246388126436727
  0
ARC
  5
330EF
  8
0
 10
6203.0387780453156665
 20
312.2653170580520055
 30
0.0
 40
6.4113162310583407
 50
341.4453285489628911
 51
356.0275288409371228
  0
ARC
  5
330F0
  8
0
 10
6207.3691233130430192
 20
310.8893699887294133
 30
0.0
 40
2.420845791913278
 50
314.6143269961734745
 51
339.4592972681244873
  0
ARC
  5
330F1
  8
0
 10
6207.3691233130430192
 20
310.8893699887294133
 30
0.0
 40
1.8696675323997141
 50
314.9214179641539886
 51
339.1914091002257123
  0
ARC
  5
330F2
  8
0
 10
6207.9764299680182376
 20
310.3541807791687006
 30
0.0
 40
1.614327407177006
 50
289.2869574140286204
 51
312.6110495311564819
  0
ARC
  5
330F3
  8
0
 10
6207.9764299680182376
 20
310.3541807791687006
 30
0.0
 40
1.063149147663442
 50
289.2905657520428804
 51
312.1123479526950177
  0
ARC
  5
330F4
  8
0
 10
6207.9244684438026525
 20
310.5035319459549896
 30
0.0
 40
1.772459304163287
 50
250.7222675858049001
 51
289.2777324141952136
  0
ARC
  5
330F5
  8
0
 10
6207.9244684438026525
 20
310.5039869321175274
 30
0.0
 40
1.221710525797866
 50
250.7823104499663884
 51
289.2696658842820057
  0
ARC
  5
330F6
  8
0
 10
6207.8239910346219403
 20
310.1983401350468057
 30
0.0
 40
1.4512194832401371
 50
222.0322431384626896
 51
250.488745557282499
  0
ARC
  5
330F7
  8
0
 10
6207.8239910346219403
 20
310.1983401350468057
 30
0.0
 40
0.9000412237265736
 50
222.3202340049479062
 51
250.4176775024579058
  0
ARC
  5
330F8
  8
0
 10
6207.8370669611167614
 20
310.1781493192066819
 30
0.0
 40
1.4476080031527789
 50
192.8395883827944033
 51
221.0921031782552859
  0
ARC
  5
330F9
  8
0
 10
6207.8370669611167614
 20
310.1781493192066819
 30
0.0
 40
0.8964297436392156
 50
192.8483473136724911
 51
220.8031730358609082
  0
ARC
  5
330FA
  8
0
 10
6208.2375919571632039
 20
310.2684585783550801
 30
0.0
 40
1.8581872587840289
 50
179.7764048004978008
 51
192.810160676880713
  0
ARC
  5
330FB
  8
0
 10
6208.2375919571632039
 20
310.2684585783550801
 30
0.0
 40
1.307008999270465
 50
179.6821117313805019
 51
192.8037581607115101
  0
ARC
  5
330FC
  8
0
 10
6206.3693717304477104
 20
311.6537039928447257
 30
0.0
 40
0.1746647120018829
 50
111.5503297048744002
 51
122.1352566355720057
  0
ARC
  5
330FD
  8
0
 10
6206.3115662558811891
 20
311.7464157665937137
 30
0.0
 40
0.0654100165962973
 50
122.4557240492732006
 51
140.2964209962453026
  0
ARC
  5
330FE
  8
0
 10
6206.3155765235451327
 20
311.8037621404607194
 30
0.0
 40
0.0710939144856808
 50
220.1589714706564109
 51
241.4902311988558949
  0
ARC
  5
330FF
  8
0
 10
6206.4150850612350041
 20
311.9940337814149984
 30
0.0
 40
0.2858086328776869
 50
242.1671465756124064
 51
253.7512648060539959
  0
ARC
  5
33100
  8
0
 10
6206.5504983945229469
 20
312.4992886395958749
 30
0.0
 40
0.8088512326221682
 50
254.5566875997330953
 51
262.2101929288102156
  0
ARC
  5
33101
  8
0
 10
6206.629286188687729
 20
313.0783889277309981
 30
0.0
 40
1.393286475251275
 50
262.2278806105185254
 51
266.204001708232795
  0
ARC
  5
33102
  8
0
 10
6206.2027017847567549
 20
311.9265009001832141
 30
0.0
 40
0.0260312149768049
 50
144.6461909712323006
 51
215.3538090287676994
  0
ARC
  5
33103
  8
0
 10
6206.2602823167217139
 20
311.8776243108408153
 30
0.0
 40
0.1014860762184462
 50
115.8255581973813975
 51
140.9479560963445977
  0
ARC
  5
33104
  8
0
 10
6206.2483364811478168
 20
311.960298437425422
 30
0.0
 40
0.0828148061542117
 50
216.1562226101360977
 51
247.0702628926937905
  0
LINE
  5
33105
  8
0
 10
6206.2160716668304303
 20
311.7616572559331871
 30
0.0
 11
6206.2277710611288057
 21
311.7505656745332203
 31
0.0
  0
ARC
  5
33106
  8
0
 10
6206.239135182663631
 20
311.7730570398180134
 30
0.0
 40
0.0230635158358801
 50
153.126786618535192
 51
206.873213381464808
  0
ARC
  5
33107
  8
0
 10
6206.2528714013524223
 20
311.7796683259683732
 30
0.0
 40
0.0383060325307053
 50
206.4070047546535989
 51
222.139518036248603
  0
ARC
  5
33108
  8
0
 10
6206.3100306563446793
 20
311.8337710788920845
 30
0.0
 40
0.117003334651387
 50
223.0051235442161044
 51
225.3275029890851044
  0
ARC
  5
33109
  8
0
 10
6206.3143269908532602
 20
311.8525983891393025
 30
0.0
 40
0.1338006121818276
 50
229.6915429739896979
 51
245.478253676342689
  0
ARC
  5
3310A
  8
0
 10
6206.4387181668653284
 20
312.1526520105834948
 30
0.0
 40
0.4585584678866155
 50
246.8980866207272982
 51
257.371151700670282
  0
ARC
  5
3310B
  8
0
 10
6206.5803574840529109
 20
312.8087336288978122
 30
0.0
 40
1.12974673180651
 50
257.6363710479993756
 51
263.9680153352238108
  0
ARC
  5
3310C
  8
0
 10
6206.6388387150345807
 20
313.3558147222872776
 30
0.0
 40
1.6799444025396131
 50
263.9452266230136956
 51
267.4697831851900105
  0
ARC
  5
3310D
  8
0
 10
6206.2636769764967539
 20
311.7588866168806021
 30
0.0
 40
0.0513835855457115
 50
124.3590074693851051
 51
151.4017310139973063
  0
ARC
  5
3310E
  8
0
 10
6206.3375130735494167
 20
311.6508860411656769
 30
0.0
 40
0.1822113103688398
 50
112.0418726853893929
 51
124.3590074693851051
  0
ARC
  5
3310F
  8
0
 10
6206.4256412737249775
 20
311.4332192201575822
 30
0.0
 40
0.4170419400454664
 50
101.2538484358529018
 51
112.0418726853893929
  0
ARC
  5
33110
  8
0
 10
6206.5811528149451988
 20
310.7306007796598237
 30
0.0
 40
1.1366039442900291
 50
95.5390715259555634
 51
102.0302332787925934
  0
ARC
  5
33111
  8
0
 10
6206.3073971961393909
 20
311.7730569107611132
 30
0.0
 40
0.0204566935124711
 50
141.368775355977192
 51
218.6312246439852061
  0
ARC
  5
33112
  8
0
 10
6206.3432445617791018
 20
311.7438150134287866
 30
0.0
 40
0.0667174361924148
 50
120.1009321211431029
 51
140.9707336773172131
  0
ARC
  5
33113
  8
0
 10
6206.425603580058123
 20
311.5902812511571938
 30
0.0
 40
0.2409198217698497
 50
106.4041671637857007
 51
118.7336549942241959
  0
ARC
  5
33114
  8
0
 10
6206.5537977088815751
 20
311.1291106406320068
 30
0.0
 40
0.719557889145411
 50
97.6885630144473112
 51
105.8257536620526054
  0
ARC
  5
33115
  8
0
 10
6206.6334825976337015
 20
310.5471558228729805
 30
0.0
 40
1.306942272140599
 50
93.1426810586824558
 51
97.7372130745409606
  0
ARC
  5
33116
  8
0
 10
6206.6283073609083658
 20
310.4684699783830979
 30
0.0
 40
1.3924756332839441
 50
93.8641727334708236
 51
96.6841533794923862
  0
ARC
  5
33117
  8
0
 10
6206.6342332566982805
 20
310.2437730736838262
 30
0.0
 40
1.626292516596757
 50
93.2582190123755055
 51
95.7448832060966453
  0
ARC
  5
33118
  8
0
 10
6206.3073971961393909
 20
311.7740271023192236
 30
0.0
 40
0.0204566935124711
 50
141.368775355977192
 51
181.3587995681473046
  0
ARC
  5
33119
  8
0
 10
6206.3432445617791018
 20
311.744785204986897
 30
0.0
 40
0.0667174361924148
 50
120.1009321211431029
 51
140.9707336773172131
  0
ARC
  5
3311A
  8
0
 10
6206.425603580058123
 20
311.5912514427153042
 30
0.0
 40
0.2409198217698497
 50
106.4041671637857007
 51
118.7336549942241959
  0
ARC
  5
3311B
  8
0
 10
6206.5537977088815751
 20
311.1300808321900035
 30
0.0
 40
0.719557889145411
 50
97.6885630144473112
 51
105.8257536620526054
  0
ARC
  5
3311C
  8
0
 10
6206.6334825976337015
 20
310.5481260144310909
 30
0.0
 40
1.306942272140599
 50
93.1426810586824558
 51
97.7372130745409606
  0
ARC
  5
3311D
  8
0
 10
6206.3398785651088474
 20
311.7986306217989068
 30
0.0
 40
0.061797038352316
 50
218.3525064091371917
 51
230.9423136668440861
  0
ARC
  5
3311E
  8
0
 10
6206.1263208958889663
 20
311.885056422237426
 30
0.0
 40
0.1049206549350794
 50
61.3222172266752992
 51
67.2711285178511673
  0
ARC
  5
3311F
  8
0
 10
6206.2119896709082241
 20
312.0394026437926982
 30
0.0
 40
0.0731536072245826
 50
231.9078712707062095
 51
241.1310827606903047
  0
ARC
  5
33120
  8
0
 10
6206.2496515644734245
 20
312.0988734740344057
 30
0.0
 40
0.1282260756356121
 50
214.7363343978078944
 51
235.3084153946610115
  0
ARC
  5
33121
  8
0
 10
6206.0881196393356731
 20
313.0846358348620129
 30
0.0
 40
0.0393708099193233
 50
92.7379008940979048
 51
179.9912146506106865
  0
ARC
  5
33122
  8
0
 10
6204.6881296875535554
 20
312.5115009338338155
 30
0.0
 40
2.561406549423312
 50
353.7325236590380086
 51
359.9971366364692926
  0
LINE
  5
33123
  8
0
 10
6207.2495362339795975
 20
312.5113729272309229
 30
0.0
 11
6207.2495362360787112
 21
313.0846418717171105
 31
0.0
  0
ARC
  5
33124
  8
0
 10
6207.2101654266225523
 20
313.0846358348620129
 30
0.0
 40
0.0393708099193233
 50
0.0087853493860442
 51
87.2620991059020952
  0
ARC
  5
33125
  8
0
 10
6206.649142532978658
 20
301.326359400883689
 30
0.0
 40
11.8110236836496405
 50
87.2682961915215003
 51
92.7317038084784855
  0
LINE
  5
33126
  8
0
 10
6207.0822133991296141
 20
311.7616572559331871
 30
0.0
 11
6207.0822133991296141
 21
311.968974418133314
 31
0.0
  0
ARC
  5
33127
  8
0
 10
6206.70747923041381
 20
310.7097128814086773
 30
0.0
 40
1.1932835069217591
 50
71.7471327348921335
 51
85.9883191940135134
  0
ARC
  5
33128
  8
0
 10
6206.7348928751989661
 20
310.9672881160075235
 30
0.0
 40
0.8895152744923898
 50
78.0262107240883438
 51
83.7289572809363278
  0
ARC
  5
33129
  8
0
 10
6206.8193222611653255
 20
311.3532264436767036
 30
0.0
 40
0.4944643242975542
 50
69.427789378448395
 51
78.3186832234153627
  0
ARC
  5
3312A
  8
0
 10
6207.0201633950364339
 20
311.7730568232408928
 30
0.0
 40
0.022677004993847
 50
318.1018388671216144
 51
41.8981611366975102
  0
ARC
  5
3312B
  8
0
 10
6206.6859242043574341
 20
312.7947305821444957
 30
0.0
 40
1.1016872684757979
 50
274.5252549545942884
 51
280.140847163803528
  0
ARC
  5
3312C
  8
0
 10
6206.7944581757628839
 20
312.1888397317339923
 30
0.0
 40
0.4861523080876221
 50
280.1219761703196127
 51
291.7409224324130719
  0
ARC
  5
3312D
  8
0
 10
6206.9163150187823703
 20
311.8626898827853893
 30
0.0
 40
0.1382751775525611
 50
294.9000762436318155
 51
316.847970691585374
  0
ARC
  5
3312E
  8
0
 10
6206.9711625923464453
 20
311.8075162620922924
 30
0.0
 40
0.0605882916505598
 50
319.4391866727876845
 51
348.1294605021932966
  0
ARC
  5
3312F
  8
0
 10
6206.9289133355114245
 20
311.6537039928447257
 30
0.0
 40
0.1746647120018829
 50
57.8647433644280369
 51
68.4496702951255429
  0
ARC
  5
33130
  8
0
 10
6206.9867188100779458
 20
311.7464157665937137
 30
0.0
 40
0.0654100165962973
 50
39.70357900375474
 51
57.5442759507268065
  0
ARC
  5
33131
  8
0
 10
6206.9827085424140023
 20
311.8037621404607194
 30
0.0
 40
0.0710939144856808
 50
298.5097688011439914
 51
319.8410285293435891
  0
ARC
  5
33132
  8
0
 10
6206.8832000047250403
 20
311.9940337814149984
 30
0.0
 40
0.2858086328776869
 50
286.2487351939460041
 51
297.832853424387622
  0
ARC
  5
33133
  8
0
 10
6206.7477866714352785
 20
312.4992886395958749
 30
0.0
 40
0.8088512326221682
 50
277.7898070711897844
 51
285.4433124002669047
  0
ARC
  5
33134
  8
0
 10
6206.6689988772723154
 20
313.0783889277309981
 30
0.0
 40
1.393286475251275
 50
273.795998291767205
 51
277.7721193894814178
  0
ARC
  5
33135
  8
0
 10
6207.09558328120238
 20
311.9265009001832141
 30
0.0
 40
0.0260312149768049
 50
324.6461909712322722
 51
35.3538090287676496
  0
ARC
  5
33136
  8
0
 10
6207.0380027492383306
 20
311.8776243108408153
 30
0.0
 40
0.1014860762184462
 50
39.0520439036554166
 51
64.1744418026186167
  0
ARC
  5
33137
  8
0
 10
6207.0499485848122276
 20
311.960298437425422
 30
0.0
 40
0.0828148061542117
 50
292.9297371073062095
 51
323.8437773898638739
  0
LINE
  5
33138
  8
0
 10
6207.0822133991296141
 20
311.7616572559331871
 30
0.0
 11
6207.0705140048294197
 21
311.7505656745332203
 31
0.0
  0
ARC
  5
33139
  8
0
 10
6207.0591498832945945
 20
311.7730570398180134
 30
0.0
 40
0.0230635158358801
 50
333.1267866185352204
 51
26.8732133814648009
  0
ARC
  5
3313A
  8
0
 10
6207.0454136646048937
 20
311.7796683259683732
 30
0.0
 40
0.0383060325307053
 50
317.860481963751397
 51
333.5929952453465148
  0
ARC
  5
3313B
  8
0
 10
6206.9882544096135462
 20
311.8337710788920845
 30
0.0
 40
0.117003334651387
 50
314.672497010914924
 51
316.994876455783924
  0
ARC
  5
3313C
  8
0
 10
6206.9839580751058747
 20
311.8525983891393025
 30
0.0
 40
0.1338006121818276
 50
294.5217463236572826
 51
310.3084570260102169
  0
ARC
  5
3313D
  8
0
 10
6206.8595668990928971
 20
312.1526520105834948
 30
0.0
 40
0.4585584678866155
 50
282.6288482993297748
 51
293.1019133792726734
  0
ARC
  5
3313E
  8
0
 10
6206.7179275819053146
 20
312.8087336288978122
 30
0.0
 40
1.12974673180651
 50
276.0319846647761892
 51
282.3636289520006244
  0
ARC
  5
3313F
  8
0
 10
6206.6594463509245543
 20
313.3558147222872776
 30
0.0
 40
1.6799444025396131
 50
272.5302168148099895
 51
276.0547733769863044
  0
ARC
  5
33140
  8
0
 10
6207.034608089460562
 20
311.7588866168806021
 30
0.0
 40
0.0513835855457115
 50
28.5982689860026689
 51
55.6409925306148665
  0
ARC
  5
33141
  8
0
 10
6206.9607719924097182
 20
311.6508860411656769
 30
0.0
 40
0.1822113103688398
 50
55.6409925306148665
 51
67.9581273146106071
  0
ARC
  5
33142
  8
0
 10
6206.8726437922341574
 20
311.4332192201575822
 30
0.0
 40
0.4170419400454664
 50
67.9581273146106071
 51
78.7461515641470555
  0
ARC
  5
33143
  8
0
 10
6206.7171322510139362
 20
310.7306007796598237
 30
0.0
 40
1.1366039442900291
 50
77.9697667212073924
 51
84.4609284740444366
  0
ARC
  5
33144
  8
0
 10
6206.9908878698197441
 20
311.7730569107611132
 30
0.0
 40
0.0204566935124711
 50
321.3687753560149076
 51
38.631224644022808
  0
ARC
  5
33145
  8
0
 10
6206.9550405041800332
 20
311.7438150134287866
 30
0.0
 40
0.0667174361924148
 50
39.0292663226827585
 51
59.8990678788568971
  0
ARC
  5
33146
  8
0
 10
6206.8726814859019214
 20
311.5902812511571938
 30
0.0
 40
0.2409198217698497
 50
61.2663450057758325
 51
73.5958328362142993
  0
ARC
  5
33147
  8
0
 10
6206.7444873570766504
 20
311.1291106406320068
 30
0.0
 40
0.719557889145411
 50
74.1742463379474373
 51
82.3114369855526888
  0
ARC
  5
33148
  8
0
 10
6206.6648024683236144
 20
310.5471558228729805
 30
0.0
 40
1.306942272140599
 50
82.2627869254590252
 51
86.8573189413175442
  0
ARC
  5
33149
  8
0
 10
6206.6699777050498597
 20
310.4684699783830979
 30
0.0
 40
1.3924756332839441
 50
83.3158466205076138
 51
86.1358272665291764
  0
ARC
  5
3314A
  8
0
 10
6206.6640518092608545
 20
310.2437730736838262
 30
0.0
 40
1.626292516596757
 50
84.2551167939033689
 51
86.7417809876244945
  0
ARC
  5
3314B
  8
0
 10
6206.9908878698197441
 20
311.7740271023192236
 30
0.0
 40
0.0204566935124711
 50
358.6412004318527238
 51
38.631224644022808
  0
ARC
  5
3314C
  8
0
 10
6206.9550405041800332
 20
311.744785204986897
 30
0.0
 40
0.0667174361924148
 50
39.0292663226827585
 51
59.8990678788568971
  0
ARC
  5
3314D
  8
0
 10
6206.8726814859019214
 20
311.5912514427153042
 30
0.0
 40
0.2409198217698497
 50
61.2663450057758325
 51
73.5958328362142993
  0
ARC
  5
3314E
  8
0
 10
6206.7444873570766504
 20
311.1300808321900035
 30
0.0
 40
0.719557889145411
 50
74.1742463379474373
 51
82.3114369855526888
  0
ARC
  5
3314F
  8
0
 10
6206.6648024683236144
 20
310.5481260144310909
 30
0.0
 40
1.306942272140599
 50
82.2627869254590252
 51
86.8573189413175442
  0
ARC
  5
33150
  8
0
 10
6206.9584065008493781
 20
311.7986306217989068
 30
0.0
 40
0.061797038352316
 50
309.0576863331559139
 51
321.6474935908628936
  0
ARC
  5
33151
  8
0
 10
6207.1719641700692591
 20
311.885056422237426
 30
0.0
 40
0.1049206549350794
 50
112.7288714821488043
 51
118.6777827733246937
  0
ARC
  5
33152
  8
0
 10
6207.0862953950509109
 20
312.0394026437926982
 30
0.0
 40
0.0731536072245826
 50
298.8689172393096101
 51
308.0921287292937905
  0
ARC
  5
33153
  8
0
 10
6207.0486335014857104
 20
312.0988734740344057
 30
0.0
 40
0.1282260756356121
 50
304.6915846053390169
 51
325.2636656021920771
  0
ARC
  5
33154
  8
0
 10
6206.649142532978658
 20
309.9737487634315016
 30
0.0
 40
1.8967277800017179
 50
86.7557347456857144
 51
93.2442652543142856
  0
ARC
  5
33155
  8
0
 10
6206.649142532978658
 20
310.1474824365615746
 30
0.0
 40
1.7141377661716279
 50
86.1640383612461562
 51
93.8359616387538438
  0
ARC
  5
33156
  8
0
 10
6206.649142532978658
 20
310.266976732033811
 30
0.0
 40
1.5885272710994791
 50
86.8492742029922624
 51
93.1507257970077234
  0
ARC
  5
33157
  8
0
 10
6206.649142532978658
 20
310.2668783558522136
 30
0.0
 40
1.5876567742810399
 50
86.8475449457350663
 51
93.1524550542649337
  0
ARC
  5
33158
  8
0
 10
6206.649142532978658
 20
313.2557616590809175
 30
0.0
 40
1.5641831982476719
 50
265.4640365140405152
 51
274.5359634859594848
  0
ARC
  5
33159
  8
0
 10
6206.649142532978658
 20
313.400263395984382
 30
0.0
 40
1.715770007751201
 50
266.2539807435792909
 51
273.7460192564205954
  0
ARC
  5
3315A
  8
0
 10
6206.649142532978658
 20
313.5831359395245954
 30
0.0
 40
1.907498891991386
 50
267.4620218789015098
 51
272.5379781210984902
  0
LINE
  5
3315B
  8
0
 10
6206.8256512051502796
 20
310.5513006356331971
 30
0.0
 11
6206.4726338608088554
 21
310.5513006356331971
 31
0.0
  0
LINE
  5
3315C
  8
0
 10
6206.4726338608088554
 20
310.5513006356331971
 30
0.0
 11
6206.495254517032663
 21
310.3508007434787146
 31
0.0
  0
ARC
  5
3315D
  8
0
 10
6206.5372199678567995
 20
310.3582869276236238
 30
0.0
 40
0.0426279487658732
 50
190.1145543075938917
 51
226.9549930953851913
  0
ARC
  5
3315E
  8
0
 10
6206.5892701727789245
 20
310.4260381103221107
 30
0.0
 40
0.1279332040616341
 50
230.6325829047723062
 51
257.6608476198603057
  0
LINE
  5
3315F
  8
0
 10
6206.8256512051502796
 20
310.5513006356331971
 30
0.0
 11
6206.8030305489255625
 21
310.3508007434787146
 31
0.0
  0
ARC
  5
33160
  8
0
 10
6206.7610650981023355
 20
310.3582869276236238
 30
0.0
 40
0.0426279487658732
 50
313.0450069046148087
 51
349.8854456924061083
  0
ARC
  5
33161
  8
0
 10
6206.7090148931802105
 20
310.4260381103221107
 30
0.0
 40
0.1279332040616341
 50
282.3391523801396943
 51
309.3674170952276086
  0
ARC
  5
33162
  8
0
 10
6206.649142532978658
 20
310.7049116717918764
 30
0.0
 40
0.4131608051586292
 50
257.8141443662553911
 51
282.1858556337446089
  0
LINE
  5
33163
  8
0
 10
6206.0589063124798486
 20
344.6334460766831853
 30
0.0
 11
6207.2393787534792864
 21
344.6334460766831853
 31
0.0
  0
LINE
  5
33164
  8
0
 10
6206.0589063124798486
 20
344.1610051317484249
 30
0.0
 11
6207.2393787534792864
 21
344.1610051317484249
 31
0.0
  0
LINE
  5
33165
  8
0
 10
6206.0195362337799452
 20
342.8421074940483777
 30
0.0
 11
6207.0988433665916091
 21
342.8421074940483777
 31
0.0
  0
ARC
  5
33166
  8
0
 10
6206.0589063124798486
 20
344.6134460766832035
 30
0.0
 40
0.02
 50
90.0
 51
180.0
  0
ARC
  5
33167
  8
0
 10
6207.2393787534792864
 20
344.6134460766832035
 30
0.0
 40
0.02
 50
0.0000000000097707
 51
90.0
  0
ARC
  5
33168
  8
0
 10
6206.0589063124798486
 20
344.1810051317484067
 30
0.0
 40
0.02
 50
180.0
 51
270.0
  0
ARC
  5
33169
  8
0
 10
6207.2393787534792864
 20
344.1810051317484067
 30
0.0
 40
0.02
 50
270.0
 51
359.9999999999902229
  0
ARC
  5
3316A
  8
0
 10
6206.0195362337799452
 20
342.8621074940484164
 30
0.0
 40
0.02
 50
180.0000000000032117
 51
270.0
  0
ENDSEC
  0
EOF
