  0
SECTION
  2
HEADER
  9
$ACADVER
  1
AC1009
  9
$INSBASE
 10
6051.7427374142580447
 20
315.8832411602137995
 30
0.0
  9
$EXTMIN
 10
6027.617961697782448
 20
296.6856053278476111
 30
-0.0000000000112498
  9
$EXTMAX
 10
6051.9143627788371305
 20
348.9604126653127878
 30
0.0000000000002956
  9
$LIMMIN
 10
0.0
 20
0.0
  9
$LIMMAX
 10
11.6929133858000007
 20
8.2677165353999982
  9
$ORTHOMODE
 70
     0
  9
$REGENMODE
 70
     1
  9
$FILLMODE
 70
     1
  9
$QTEXTMODE
 70
     0
  9
$MIRRTEXT
 70
     0
  9
$DRAGMODE
 70
     2
  9
$LTSCALE
 40
0.6431102362
  9
$OSMODE
 70
  4095
  9
$ATTMODE
 70
     1
  9
$TEXTSIZE
 40
0.2
  9
$TRACEWID
 40
0.05
  9
$TEXTSTYLE
  7
STANDARD
  9
$CLAYER
  8
0
  9
$CELTYPE
  6
BYLAYER
  9
$CECOLOR
 62
   256
  9
$DIMSCALE
 40
1.0
  9
$DIMASZ
 40
0.1875
  9
$DIMEXO
 40
0.0625
  9
$DIMDLI
 40
0.4443307087
  9
$DIMRND
 40
0.0
  9
$DIMDLE
 40
0.0
  9
$DIMEXE
 40
0.125
  9
$DIMTP
 40
0.01
  9
$DIMTM
 40
0.01
  9
$DIMTXT
 40
2.0
  9
$DIMCEN
 40
0.1052362205
  9
$DIMTSZ
 40
0.0
  9
$DIMTOL
 70
     1
  9
$DIMLIM
 70
     0
  9
$DIMTIH
 70
     1
  9
$DIMTOH
 70
     1
  9
$DIMSE1
 70
     0
  9
$DIMSE2
 70
     0
  9
$DIMTAD
 70
     0
  9
$DIMZIN
 70
     0
  9
$DIMBLK
  1

  9
$DIMASO
 70
     1
  9
$DIMSHO
 70
     1
  9
$DIMPOST
  1
\X
  9
$DIMAPOST
  1

  9
$DIMALT
 70
     1
  9
$DIMALTD
 70
     2
  9
$DIMALTF
 40
25.3999999999999986
  9
$DIMLFAC
 40
1.0
  9
$DIMTOFL
 70
     0
  9
$DIMTVP
 40
0.0
  9
$DIMTIX
 70
     0
  9
$DIMSOXD
 70
     0
  9
$DIMSAH
 70
     0
  9
$DIMBLK1
  1

  9
$DIMBLK2
  1

  9
$DIMSTYLE
  2
STANDARD
  9
$DIMCLRD
 70
     0
  9
$DIMCLRE
 70
     0
  9
$DIMCLRT
 70
     0
  9
$DIMTFAC
 40
1.0
  9
$DIMGAP
 40
0.09
  9
$LUNITS
 70
     2
  9
$LUPREC
 70
     4
  9
$SKETCHINC
 40
0.1
  9
$FILLETRAD
 40
0.0
  9
$AUNITS
 70
     0
  9
$AUPREC
 70
     0
  9
$MENU
  1
.
  9
$ELEVATION
 40
0.0
  9
$PELEVATION
 40
0.0
  9
$THICKNESS
 40
0.0
  9
$LIMCHECK
 70
     0
  9
$BLIPMODE
 70
     0
  9
$CHAMFERA
 40
0.0
  9
$CHAMFERB
 40
0.0
  9
$SKPOLY
 70
     0
  9
$TDCREATE
 40
2458060.468368056230247
  9
$TDUPDATE
 40
2460223.772453703917563
  9
$TDINDWG
 40
0.7392547454
  9
$TDUSRTIMER
 40
0.7392547454
  9
$USRTIMER
 70
     1
  9
$ANGBASE
 50
0.0
  9
$ANGDIR
 70
     0
  9
$PDMODE
 70
     0
  9
$PDSIZE
 40
0.3125
  9
$PLINEWID
 40
0.0
  9
$COORDS
 70
     1
  9
$SPLFRAME
 70
     0
  9
$SPLINETYPE
 70
     6
  9
$SPLINESEGS
 70
     8
  9
$ATTDIA
 70
     1
  9
$ATTREQ
 70
     1
  9
$HANDLING
 70
     1
  9
$HANDSEED
  5
2E365
  9
$SURFTAB1
 70
     6
  9
$SURFTAB2
 70
     6
  9
$SURFTYPE
 70
     6
  9
$SURFU
 70
     6
  9
$SURFV
 70
     6
  9
$UCSNAME
  2

  9
$UCSORG
 10
0.0
 20
0.0
 30
0.0
  9
$UCSXDIR
 10
1.0
 20
0.0
 30
0.0
  9
$UCSYDIR
 10
0.0
 20
1.0
 30
0.0
  9
$PUCSNAME
  2

  9
$PUCSORG
 10
0.0
 20
0.0
 30
0.0
  9
$PUCSXDIR
 10
1.0
 20
0.0
 30
0.0
  9
$PUCSYDIR
 10
0.0
 20
1.0
 30
0.0
  9
$USERI1
 70
     0
  9
$USERI2
 70
     0
  9
$USERI3
 70
     0
  9
$USERI4
 70
     0
  9
$USERI5
 70
     0
  9
$USERR1
 40
0.0
  9
$USERR2
 40
0.0
  9
$USERR3
 40
0.0
  9
$USERR4
 40
0.0
  9
$USERR5
 40
0.0
  9
$WORLDVIEW
 70
     1
  9
$SHADEDGE
 70
     3
  9
$SHADEDIF
 70
    70
  9
$TILEMODE
 70
     1
  9
$MAXACTVP
 70
    64
  9
$PLIMCHECK
 70
     0
  9
$PEXTMIN
 10
1.0000000000000000E+20
 20
1.0000000000000000E+20
 30
1.0000000000000000E+20
  9
$PEXTMAX
 10
-1.0000000000000000E+20
 20
-1.0000000000000000E+20
 30
-1.0000000000000000E+20
  9
$PLIMMIN
 10
0.0
 20
0.0
  9
$PLIMMAX
 10
12.0
 20
9.0
  9
$UNITMODE
 70
     0
  9
$VISRETAIN
 70
     1
  9
$PLINEGEN
 70
     0
  9
$PSLTSCALE
 70
     1
  0
ENDSEC
  0
SECTION
  2
TABLES
  0
TABLE
  2
VPORT
 70
     1
  0
VPORT
  2
*ACTIVE
 70
     0
 10
0.0
 20
0.0
 11
1.0
 21
1.0
 12
2128.4008057929968345
 22
190.2434038940411085
 13
0.0
 23
0.0
 14
1.0
 24
1.0
 15
0.0
 25
0.0
 16
0.0
 26
0.0
 36
60.4960186965801583
 17
3911.3653564453120453
 27
132.5796051025390057
 37
0.0
 40
52.742939940487247
 41
2.8325859491778771
 42
50.0
 43
0.0
 44
0.0
 50
0.0
 51
0.0
 71
     0
 72
   100
 73
     1
 74
     1
 75
     0
 76
     0
 77
     0
 78
     0
  0
ENDTAB
  0
TABLE
  2
LTYPE
 70
     2
  0
LTYPE
  2
CONTINUOUS
 70
     0
  3
Solid line
 72
    65
 73
     0
 40
0.0
  0
LTYPE
  2
PHANTOM2
 70
     0
  3
___ _ _ ___ _ _ ___ _ _ ___ _ _
 72
    65
 73
     6
 40
1.25
 49
0.625
 49
-0.125
 49
0.125
 49
-0.125
 49
0.125
 49
-0.125
  0
ENDTAB
  0
TABLE
  2
LAYER
 70
     2
  0
LAYER
  2
0
 70
     0
 62
   255
  6
CONTINUOUS
  0
LAYER
  2
DEFPOINTS
 70
     0
 62
     7
  6
CONTINUOUS
  0
ENDTAB
  0
TABLE
  2
STYLE
 70
     1
  0
STYLE
  2
STANDARD
 70
     0
 40
0.0
 41
0.8
 50
0.0
 71
     0
 42
0.2
  3
txt
  4

  0
ENDTAB
  0
TABLE
  2
VIEW
 70
     0
  0
ENDTAB
  0
TABLE
  2
UCS
 70
     0
  0
ENDTAB
  0
TABLE
  2
APPID
 70
    11
  0
APPID
  2
ACAD
 70
     0
  0
APPID
  2
ACAD_MLEADERVER
 70
     0
  0
APPID
  2
ACAD_EXEMPT_FROM_CAD_STANDARDS
 70
     0
  0
APPID
  2
ACAD_NAV_VCDISPLAY
 70
     0
  0
APPID
  2
ACAECLAYERSTANDARD
 70
     0
  0
APPID
  2
ACCMTRANSPARENCY
 70
     0
  0
APPID
  2
ACAD_DSTYLE_DIMJAG
 70
     0
  0
APPID
  2
ACAD_DSTYLE_DIMTALN
 70
     0
  0
APPID
  2
ACDBATTR
 70
     0
  0
APPID
  2
ACADANNOTATIVE
 70
     0
  0
APPID
  2
DCO15
 70
     0
  0
ENDTAB
  0
TABLE
  2
DIMSTYLE
 70
     1
  0
DIMSTYLE
  2
STANDARD
 70
     0
  3

  4

  5

  6

  7

 40
1.0
 41
0.1875
 42
0.0625
 43
0.38
 44
0.125
 45
0.0
 46
0.0
 47
0.01
 48
0.01
140
0.15625
141
0.09
142
0.0
143
25.3999999999999986
144
1.0
145
0.0
146
1.0
147
0.09
 71
     1
 72
     0
 73
     1
 74
     1
 75
     0
 76
     0
 77
     0
 78
     4
170
     0
171
     2
172
     0
173
     0
174
     0
175
     0
176
     0
177
     0
178
     0
  0
ENDTAB
  0
ENDSEC
  0
SECTION
  2
BLOCKS
  0
BLOCK
  8
0
  2
$MODEL_SPACE
 70
     0
 10
0.0
 20
0.0
 30
0.0
  3
$MODEL_SPACE
  1

  0
ENDBLK
  5
21
  8
0
  0
BLOCK
 67
     1
  8
0
  2
$PAPER_SPACE
 70
     0
 10
0.0
 20
0.0
 30
0.0
  3
$PAPER_SPACE
  1

  0
ENDBLK
  5
1D
 67
     1
  8
0
  0
BLOCK
  8
0
  2
_FILLED
 70
     0
 10
0.0
 20
0.0
 30
0.0
  3
_FILLED
  1

  0
SOLID
  5
26C2A
  8
0
  6
BYBLOCK
 62
     0
 10
0.0
 20
0.0
 30
0.0
 11
-1.0
 21
0.1666666667
 31
0.0
 12
-1.0
 22
-0.1666666667
 32
0.0
 13
-1.0
 23
-0.1666666667
 33
0.0
  0
ENDBLK
  5
26C2B
  8
0
  6
BYBLOCK
 62
     0
  0
ENDSEC
  0
SECTION
  2
ENTITIES
  0
ATTDEF
  5
26A5B
  8
DEFPOINTS
 10
6051.7364984562391328
 20
315.8890670156258125
 30
0.0
 40
0.001
  1
K-23125T-B9
  3

  2
MODELNUMBER
 70
     0
1001
ACDBATTR
1070
     0
1070
     1
  0
ATTDEF
  5
26A5C
  8
DEFPOINTS
 10
6051.7363726465819127
 20
315.8874001752466825
 30
0.0
 40
0.001
  1
JULY
  3

  2
TRADENAME
 70
     0
1001
ACDBATTR
1070
     0
1070
     1
  0
ATTDEF
  5
26A5D
  8
DEFPOINTS
 10
6051.7364984562391328
 20
315.8857336822924822
 30
0.0
 40
0.001
  1
SHOWER COLUMN
  3

  2
PRODUCT
 70
     0
1001
ACDBATTR
1070
     0
1070
     1
  0
LINE
  5
2DC57
  8
0
 10
6048.1207051308592781
 20
330.8192647822963863
 30
0.0
 11
6049.3805177292597364
 21
330.8192647822963863
 31
0.0
  0
LINE
  5
2DC58
  8
0
 10
6048.1010051308594484
 20
332.0397222625963991
 30
0.0
 11
6048.1010051308594484
 21
330.8389647822962729
 31
0.0
  0
LINE
  5
2DC59
  8
0
 10
6049.4002177292577471
 20
331.0849828924963276
 30
0.0
 11
6049.4002177292577471
 21
330.8389647822962729
 31
0.0
  0
LINE
  5
2DC5A
  8
0
 10
6048.1207051308592781
 20
332.6106033649311939
 30
0.0
 11
6049.3805177292597364
 21
332.6106033649311939
 31
0.0
  0
LINE
  5
2DC5B
  8
0
 10
6048.1207051308592781
 20
332.1381624199963198
 30
0.0
 11
6049.3805177292597364
 21
332.1381624199963198
 31
0.0
  0
LINE
  5
2DC5C
  8
0
 10
6048.1207051308592781
 20
332.0594222625963994
 30
0.0
 11
6049.3805177292597364
 21
332.0594222625963994
 31
0.0
  0
LINE
  5
2DC5D
  8
0
 10
6048.1994303277588187
 20
332.1381624199963198
 30
0.0
 11
6048.1994303277588187
 21
332.0594222625963994
 31
0.0
  0
LINE
  5
2DC5E
  8
0
 10
6049.3017925324593307
 20
332.0594222625963994
 30
0.0
 11
6049.3017925324593307
 21
332.1381624199963198
 31
0.0
  0
ARC
  5
2DC5F
  8
0
 10
6048.1207051308592781
 20
332.0397222625963991
 30
0.0
 40
0.0197
 50
90.0000000000521254
 51
180.0000000000098055
  0
ARC
  5
2DC60
  8
0
 10
6049.3805177292597364
 20
332.0397222625963991
 30
0.0
 40
0.0197
 50
0.0000000000097707
 51
90.0
  0
LINE
  5
2DC61
  8
0
 10
6048.1010051308594484
 20
332.157862419996377
 30
0.0
 11
6048.1010051308594484
 21
332.5909033648962918
 31
0.0
  0
LINE
  5
2DC62
  8
0
 10
6049.4002177292577471
 20
332.5909033648962918
 30
0.0
 11
6049.4002177292577471
 21
332.157862419996377
 31
0.0
  0
ARC
  5
2DC63
  8
0
 10
6048.1207051308592781
 20
332.157862419996377
 30
0.0
 40
0.0197
 50
180.0000000000098055
 51
269.9999999999478746
  0
ARC
  5
2DC64
  8
0
 10
6048.1207051309183953
 20
332.5909033648716786
 30
0.0
 40
0.0197000000594514
 50
90.0000001729537473
 51
179.9999999283973011
  0
ARC
  5
2DC65
  8
0
 10
6049.3805177291997097
 20
332.5909033648716786
 30
0.0
 40
0.0197000000594514
 50
0.0000000716385083
 51
89.9999998270983355
  0
ARC
  5
2DC66
  8
0
 10
6049.3805177292597364
 20
332.157862419996377
 30
0.0
 40
0.0197
 50
269.9999999999478746
 51
359.9999999999902229
  0
LINE
  5
2DC67
  8
0
 10
6034.9710807214587476
 20
348.1617797429311167
 30
0.0
 11
6046.7821106426581537
 21
348.1617797429311167
 31
0.0
  0
LINE
  5
2DC68
  8
0
 10
6046.7821122174582342
 20
348.9491860421312026
 30
0.0
 11
6034.971079146656848
 21
348.9491860421312026
 31
0.0
  0
LINE
  5
2DC69
  8
0
 10
6033.3962807214584245
 20
345.7995797429310869
 30
0.0
 11
6033.3962807214584245
 21
346.5869797429311916
 31
0.0
  0
LINE
  5
2DC6A
  8
0
 10
6032.6088791466581824
 20
345.7995797429310869
 30
0.0
 11
6032.6088791466581824
 21
346.5869813177312153
 31
0.0
  0
ARC
  5
2DC6B
  8
0
 10
6034.9710807214587476
 20
346.5869797429311916
 30
0.0
 40
1.5747999999999991
 50
90.0
 51
180.0
  0
ARC
  5
2DC6C
  8
0
 10
6046.7821106426581537
 20
346.5869797429311916
 30
0.0
 40
1.5747999999999991
 50
0.0
 51
90.0
  0
ARC
  5
2DC6D
  8
0
 10
6046.7821041523839085
 20
346.5869779770678178
 30
0.0
 40
2.3622080650771
 50
0.0000810283867199
 51
89.9998043801555099
  0
ARC
  5
2DC6E
  8
0
 10
6034.9710872117329927
 20
346.5869779770678178
 30
0.0
 40
2.362208065077112
 50
90.0001956198445043
 51
179.9999189716099863
  0
ARC
  5
2DC6F
  8
0
 10
6048.1207051308592781
 20
330.8389647822965003
 30
0.0
 40
0.0197
 50
180.0000000000194973
 51
269.9999999999478746
  0
ARC
  5
2DC70
  8
0
 10
6049.3805177292579174
 20
330.8389647822965003
 30
0.0
 40
0.0197
 50
270.0000000000521254
 51
359.9999999999674856
  0
LINE
  5
2DC71
  8
0
 10
6051.7427374142580447
 20
330.1991860420963008
 30
0.0
 11
6051.7427374142580447
 21
332.6795010026963837
 31
0.0
  0
LINE
  5
2DC72
  8
0
 10
6051.3490366268579237
 20
330.2286863503953214
 30
0.0
 11
6051.3490366268579237
 21
332.6500006943975905
 31
0.0
  0
LINE
  5
2DC73
  8
0
 10
6051.3682209409762436
 20
330.2089931010933128
 30
0.0
 11
6051.7427374142580447
 21
330.1991860420963008
 31
0.0
  0
LINE
  5
2DC74
  8
0
 10
6051.3682209409762436
 20
332.6696939436994853
 30
0.0
 11
6051.7427374142580447
 21
332.6795010026963837
 31
0.0
  0
LINE
  5
2DC75
  8
0
 10
6049.6758082804581136
 20
330.9472175381964121
 30
0.0
 11
6051.3490366268579237
 21
330.9472175381964121
 31
0.0
  0
LINE
  5
2DC76
  8
0
 10
6049.6758082804581136
 20
331.9314695066963736
 30
0.0
 11
6051.3490366268579237
 21
331.9314695066963736
 31
0.0
  0
LINE
  5
2DC77
  8
0
 10
6049.6758082804581136
 20
331.9314695066963168
 30
0.0
 11
6049.6758082804581136
 21
330.9472175381964121
 31
0.0
  0
LINE
  5
2DC78
  8
0
 10
6049.6758082804581136
 20
331.1243828924963282
 30
0.0
 11
6049.4396177292592256
 21
331.1243828924963282
 31
0.0
  0
LINE
  5
2DC79
  8
0
 10
6049.6758082804581136
 20
331.7543041522962994
 30
0.0
 11
6049.4396177292592256
 21
331.7543041522962994
 31
0.0
  0
ARC
  5
2DC7A
  8
0
 10
6051.3687366268577534
 20
330.2286863503953214
 30
0.0
 40
0.0197
 50
180.0000000000098055
 51
268.499999999801787
  0
ARC
  5
2DC7B
  8
0
 10
6051.3687366268577534
 20
332.6500006943975905
 30
0.0
 40
0.0197
 50
91.500000000198213
 51
180.0
  0
ARC
  5
2DC7C
  8
0
 10
6049.4396177292592256
 20
331.0849828924963845
 30
0.0
 40
0.0394
 50
90.0
 51
180.0000000000098055
  0
LINE
  5
2DC7D
  8
0
 10
6049.4002177292577471
 20
331.7937041522963
 30
0.0
 11
6049.4002177292577471
 21
332.0397222625963991
 31
0.0
  0
ARC
  5
2DC7E
  8
0
 10
6049.4396177292592256
 20
331.7937041522963
 30
0.0
 40
0.0394
 50
179.9999999999901945
 51
270.0
  0
ARC
  5
2DC7F
  8
0
 10
6050.0964623043528263
 20
331.4559605877033164
 30
0.0
 40
0.7889112489321983
 50
181.2069267946189086
 51
208.0498823003972859
  0
ARC
  5
2DC80
  8
0
 10
6050.1048384463556431
 20
331.4205402007058865
 30
0.0
 40
0.7973341142382361
 50
152.0945075489389069
 51
178.6486833560630885
  0
LINE
  5
2DC81
  8
0
 10
6032.6383942930588091
 20
345.6814695162311182
 30
0.0
 11
6033.3667531623577815
 21
345.6814695162311182
 31
0.0
  0
LINE
  5
2DC82
  8
0
 10
6032.6088791466581824
 20
345.7995797429310869
 30
0.0
 11
6033.3962807214584245
 21
345.7995797429310869
 31
0.0
  0
LINE
  5
2DC83
  8
0
 10
6032.6383942930588091
 20
345.6814695162311182
 30
0.0
 11
6032.6383942930588091
 21
345.7995797429310869
 31
0.0
  0
LINE
  5
2DC84
  8
0
 10
6033.3667531623577815
 20
345.6814695162311182
 30
0.0
 11
6033.3667407496586748
 21
345.7995797429310869
 31
0.0
  0
LINE
  5
2DC85
  8
0
 10
6051.7427374142580447
 20
299.0476261995812024
 30
0.0
 11
6051.7427374142580447
 21
301.6066513964811975
 31
0.0
  0
LINE
  5
2DC86
  8
0
 10
6050.9326493144471897
 20
300.9441740114734216
 30
0.0
 11
6051.4064999293659639
 21
301.5506751410144943
 31
0.0
  0
LINE
  5
2DC87
  8
0
 10
6050.9326493144471897
 20
299.710103584688909
 30
0.0
 11
6051.4064999293659639
 21
299.1036024551477226
 31
0.0
  0
LINE
  5
2DC88
  8
0
 10
6050.9159657607578993
 20
299.7585561427937932
 30
0.0
 11
6050.9159657607578993
 21
300.8957214533685942
 31
0.0
  0
ARC
  5
2DC89
  8
0
 10
6050.994665760757016
 20
299.7585561427937932
 30
0.0
 40
0.0787
 50
180.0
 51
217.9999999969762996
  0
ARC
  5
2DC8A
  8
0
 10
6050.994665760757016
 20
300.8957214533685942
 30
0.0
 40
0.0787
 50
142.0000000030223077
 51
180.0000000000032117
  0
ARC
  5
2DC8B
  8
0
 10
6051.5616592464375572
 20
301.429451396925117
 30
0.0
 40
0.1968999995061296
 50
89.9999999071917358
 51
142.0000000362009018
  0
ARC
  5
2DC8C
  8
0
 10
6051.5616592469168609
 20
299.2248261998282146
 30
0.0
 40
0.196900000247033
 50
218.0000000135752032
 51
269.9999999535697839
  0
ARC
  5
2DC8D
  8
0
 10
6048.7506114300576883
 20
300.32713879808108
 30
0.0
 40
0.8035751616999997
 50
193.624842906080687
 51
166.3751570939145097
  0
ARC
  5
2DC8E
  8
0
 10
6047.9042315998576669
 20
300.32713879808108
 30
0.0
 40
0.1054453262148129
 50
102.438051884800899
 51
257.5619481151990726
  0
ARC
  5
2DC8F
  8
0
 10
6047.856428145963946
 20
300.1104026506013156
 30
0.0
 40
0.1165
 50
13.6248429060854708
 51
77.5619481151990868
  0
ARC
  5
2DC90
  8
0
 10
6047.856428145963946
 20
300.5438749455610719
 30
0.0
 40
0.1165
 50
282.4380518848009274
 51
346.3751570939144813
  0
LINE
  5
2DC91
  8
0
 10
6049.6876043434585881
 20
300.0968238373811801
 30
0.0
 11
6049.5204737939784536
 21
300.0968238373811801
 31
0.0
  0
LINE
  5
2DC92
  8
0
 10
6049.6876043434585881
 20
300.5574537586812198
 30
0.0
 11
6049.5204737940066479
 21
300.5574537586812198
 31
0.0
  0
LINE
  5
2DC93
  8
0
 10
6049.7073043434584179
 20
300.5377537586812196
 30
0.0
 11
6049.7073043434584179
 21
300.1165238373811803
 31
0.0
  0
ARC
  5
2DC94
  8
0
 10
6049.6876043434585881
 20
300.5377537586812196
 30
0.0
 40
0.0197
 50
0.0000000000195413
 51
90.0
  0
ARC
  5
2DC95
  8
0
 10
6049.6876043434585881
 20
300.1165238373811803
 30
0.0
 40
0.0197
 50
270.0
 51
359.9999999999902229
  0
CIRCLE
  5
2DC96
  8
0
 10
6048.7506114300576883
 20
300.32713879808108
 30
0.0
 40
0.2520307987000025
  0
CIRCLE
  5
2DC97
  8
0
 10
6048.7506114300576883
 20
300.32713879808108
 30
0.0
 40
0.2894214795999982
  0
LINE
  5
2DC98
  8
0
 10
6049.9947059182577505
 20
300.8328347533494025
 30
0.0
 11
6049.9947059182577505
 21
299.8214428427128269
 31
0.0
  0
LINE
  5
2DC99
  8
0
 10
6049.9621513928850618
 20
300.8511481896272812
 30
0.0
 11
6049.2810446056582805
 21
301.0417284983811896
 31
0.0
  0
LINE
  5
2DC9A
  8
0
 10
6050.0176267694268972
 20
300.7930673444533909
 30
0.0
 11
6050.0279421242457829
 21
300.748398640581172
 31
0.0
  0
LINE
  5
2DC9B
  8
0
 10
6049.9947059182577505
 20
300.748398640581172
 30
0.0
 11
6050.0734460757576016
 21
300.748398640581172
 31
0.0
  0
ARC
  5
2DC9C
  8
0
 10
6049.9409448884698577
 20
300.775359178745191
 30
0.0
 40
0.0787
 50
13.0033755715819392
 51
74.3678619333704773
  0
LINE
  5
2DC9D
  8
0
 10
6049.9621513928850618
 20
299.8031294064348913
 30
0.0
 11
6049.2810446056582805
 21
299.6125490975812227
 31
0.0
  0
LINE
  5
2DC9E
  8
0
 10
6050.0176267694268972
 20
299.8612102516088953
 30
0.0
 11
6050.0279421242457829
 21
299.9058789554812279
 31
0.0
  0
ARC
  5
2DC9F
  8
0
 10
6049.9409448884698577
 20
299.8789184173172089
 30
0.0
 40
0.0787
 50
285.6321380666307732
 51
346.9966244284179879
  0
LINE
  5
2DCA0
  8
0
 10
6050.8608476505578437
 20
299.8125718688810935
 30
0.0
 11
6050.9159657607578993
 21
299.8125718688810935
 31
0.0
  0
LINE
  5
2DCA1
  8
0
 10
6050.8608476505578437
 20
300.898004939781174
 30
0.0
 11
6050.8608476505578437
 21
299.7562726562812259
 31
0.0
  0
LINE
  5
2DCA2
  8
0
 10
6050.9159657607578993
 20
300.8417057271810791
 30
0.0
 11
6050.8608476505578437
 21
300.8417057271810791
 31
0.0
  0
LINE
  5
2DCA3
  8
0
 10
6050.0734460756566477
 20
300.8980049397312087
 30
0.0
 11
6050.8608476505578437
 21
300.8980049397312087
 31
0.0
  0
LINE
  5
2DCA4
  8
0
 10
6050.112816154459324
 20
300.8980049397312087
 30
0.0
 11
6050.112816154459324
 21
300.7993205496310907
 31
0.0
  0
LINE
  5
2DCA5
  8
0
 10
6050.112816154459324
 20
300.7993205496310907
 30
0.0
 11
6050.8214775717588054
 21
300.7993205496310907
 31
0.0
  0
LINE
  5
2DCA6
  8
0
 10
6050.8214775717588054
 20
300.7993205496310907
 30
0.0
 11
6050.8214775717588054
 21
300.8980049397312087
 31
0.0
  0
LINE
  5
2DCA7
  8
0
 10
6050.0734460756566477
 20
300.8980049397312087
 30
0.0
 11
6050.0734460756566477
 21
299.7562726563311912
 31
0.0
  0
LINE
  5
2DCA8
  8
0
 10
6050.0734460756566477
 20
299.7562726563311912
 30
0.0
 11
6050.8608476505578437
 21
299.7562726563311912
 31
0.0
  0
LINE
  5
2DCA9
  8
0
 10
6050.8214775717588054
 20
299.7562726563311912
 30
0.0
 11
6050.8214775717588054
 21
299.8549570464311955
 31
0.0
  0
LINE
  5
2DCAA
  8
0
 10
6050.8214775717588054
 20
299.8549570464311955
 30
0.0
 11
6050.112816154459324
 21
299.8549570464311955
 31
0.0
  0
LINE
  5
2DCAB
  8
0
 10
6050.112816154459324
 20
299.8549570464311955
 30
0.0
 11
6050.112816154459324
 21
299.7562726563311912
 31
0.0
  0
ARC
  5
2DCAC
  8
0
 10
6050.5360444997213563
 20
300.6125718689311839
 30
0.0
 40
0.4625984240956238
 50
156.1906237166361961
 51
203.8093762833638039
  0
ARC
  5
2DCAD
  8
0
 10
6050.5360444999560059
 20
300.0417057271811814
 30
0.0
 40
0.4625984243329732
 50
156.1906237228351131
 51
203.8093762771648016
  0
ARC
  5
2DCAE
  8
0
 10
6050.3982492264403845
 20
300.6125718689207815
 30
0.0
 40
0.4625984240956238
 50
336.19062372520591
 51
23.8093762919139209
  0
ARC
  5
2DCAF
  8
0
 10
6050.3982492262875894
 20
300.041705727170779
 30
0.0
 40
0.4625984243329732
 50
336.1906237314062764
 51
23.8093762857150004
  0
LINE
  5
2DCB0
  8
0
 10
6050.112816154459324
 20
300.2284544079312241
 30
0.0
 11
6050.112816154459324
 21
300.4258231882312202
 31
0.0
  0
LINE
  5
2DCB1
  8
0
 10
6050.112816154459324
 20
300.4258231882312202
 30
0.0
 11
6050.8214775717051452
 21
300.4258231882312202
 31
0.0
  0
LINE
  5
2DCB2
  8
0
 10
6050.8214775717051452
 20
300.4258231882312202
 30
0.0
 11
6050.8214775717588054
 21
300.2284544079842021
 31
0.0
  0
LINE
  5
2DCB3
  8
0
 10
6050.8214775717588054
 20
300.2284544079842021
 30
0.0
 11
6050.112816154459324
 21
300.2284544079842021
 31
0.0
  0
LINE
  5
2DCB4
  8
0
 10
6049.9947059182577505
 20
299.9058789555311932
 30
0.0
 11
6050.0734460756566477
 21
299.9058789555311932
 31
0.0
  0
LINE
  5
2DCB5
  8
0
 10
6028.0025799339582591
 20
343.5523671444811953
 30
0.0
 11
6028.0025799339582591
 21
343.1610285617812224
 31
0.0
  0
LINE
  5
2DCB6
  8
0
 10
6032.6383942930588091
 20
345.6814695162311182
 30
0.0
 11
6032.5891941071586189
 21
345.6322569002812202
 31
0.0
  0
ARC
  5
2DCB7
  8
0
 10
6037.9726586741589927
 20
343.161028561779176
 30
0.0
 40
0.0299212597980052
 50
270.0000000005210836
 51
359.9999998569657009
  0
LINE
  5
2DCB8
  8
0
 10
6038.0025799339591686
 20
343.5523671444811953
 30
0.0
 11
6038.0025799339591686
 21
343.1610285617812224
 31
0.0
  0
LINE
  5
2DCB9
  8
0
 10
6028.0325011938593889
 20
343.131107301981217
 30
0.0
 11
6037.9726586741580832
 21
343.131107301981217
 31
0.0
  0
LINE
  5
2DCBA
  8
0
 10
6038.0025799339591686
 20
343.5523671444811953
 30
0.0
 11
6028.0025799339582591
 21
343.5523671444811953
 31
0.0
  0
LINE
  5
2DCBB
  8
0
 10
6029.0666380745142305
 20
343.131107301981217
 30
0.0
 11
6029.0611452050497974
 21
343.0792101555351792
 31
0.0
  0
LINE
  5
2DCBC
  8
0
 10
6028.9528889396970044
 20
343.0792159562283814
 30
0.0
 11
6028.9474349395068202
 21
343.131107301981217
 31
0.0
  0
LINE
  5
2DCBD
  8
0
 10
6029.0531896417023745
 20
343.0720521839310777
 30
0.0
 11
6028.9608451148587847
 21
343.0720521839310777
 31
0.0
  0
ARC
  5
2DCBE
  8
0
 10
6028.9608451148587847
 20
343.0800521839310022
 30
0.0
 40
0.008
 50
185.9999999752369888
 51
270.0
  0
ARC
  5
2DCBF
  8
0
 10
6029.0531896417023745
 20
343.0800521839310022
 30
0.0
 40
0.008
 50
270.0
 51
353.9582251773538815
  0
ARC
  5
2DCC0
  8
0
 10
6029.3665236129181721
 20
343.0799261998258203
 30
0.0
 40
0.0078740158945971
 50
270.0000013514260786
 51
353.9999994564881263
  0
LINE
  5
2DCC1
  8
0
 10
6029.3798586901630188
 20
343.131107301981217
 30
0.0
 11
6029.3743544941225991
 21
343.0791031409702896
 31
0.0
  0
LINE
  5
2DCC2
  8
0
 10
6029.2661095553467021
 20
343.0792159562283814
 30
0.0
 11
6029.2606555551574274
 21
343.131107301981217
 31
0.0
  0
LINE
  5
2DCC3
  8
0
 10
6029.3665236131037091
 20
343.0720521839310777
 30
0.0
 11
6029.2740657305093919
 21
343.0720521839310777
 31
0.0
  0
ARC
  5
2DCC4
  8
0
 10
6029.2740657305093919
 20
343.0800521839310022
 30
0.0
 40
0.008
 50
185.9999999749923916
 51
270.0
  0
LINE
  5
2DCC5
  8
0
 10
6029.8049846567128043
 20
343.131107301981217
 30
0.0
 11
6029.7994917872501901
 21
343.0792101555351792
 31
0.0
  0
LINE
  5
2DCC6
  8
0
 10
6029.6912355218955781
 20
343.0792159562283246
 30
0.0
 11
6029.685781521707213
 21
343.131107301981217
 31
0.0
  0
LINE
  5
2DCC7
  8
0
 10
6029.7915362239018577
 20
343.0720521839310777
 30
0.0
 11
6029.6991916970600869
 21
343.0720521839310777
 31
0.0
  0
ARC
  5
2DCC8
  8
0
 10
6029.7915362239018577
 20
343.0800521839310022
 30
0.0
 40
0.008
 50
270.0
 51
353.9582251773538815
  0
ARC
  5
2DCC9
  8
0
 10
6029.6991916970600869
 20
343.0800521839310022
 30
0.0
 40
0.008
 50
185.9999999754724911
 51
270.0
  0
ARC
  5
2DCCA
  8
0
 10
6030.0896134011063623
 20
343.0798528384921156
 30
0.0
 40
0.0078009342257496
 50
185.514840599253489
 51
270.485159549842308
  0
LINE
  5
2DCCB
  8
0
 10
6030.1955858521123446
 20
343.131107301981217
 30
0.0
 11
6030.1900929826497304
 21
343.0792101555351792
 31
0.0
  0
LINE
  5
2DCCC
  8
0
 10
6030.0818485746704027
 20
343.0791031408633103
 30
0.0
 11
6030.0763827171058438
 21
343.131107301981217
 31
0.0
  0
LINE
  5
2DCCD
  8
0
 10
6030.1821374193023075
 20
343.0720521839310777
 30
0.0
 11
6030.0896794557547764
 21
343.0720521839310777
 31
0.0
  0
ARC
  5
2DCCE
  8
0
 10
6030.1821374193023075
 20
343.0800521839310022
 30
0.0
 40
0.008
 50
270.0
 51
353.9582251775984219
  0
ARC
  5
2DCCF
  8
0
 10
6030.3157337531183657
 20
343.0799261998258203
 30
0.0
 40
0.0078740158945971
 50
270.0000013514260786
 51
353.9999994564881263
  0
ARC
  5
2DCD0
  8
0
 10
6030.2230963793563205
 20
343.0798528384921156
 30
0.0
 40
0.0078009342257496
 50
185.514840599253489
 51
270.485159549842308
  0
LINE
  5
2DCD1
  8
0
 10
6030.3290688303623028
 20
343.131107301981217
 30
0.0
 11
6030.3235646343218832
 21
343.0791031409702896
 31
0.0
  0
LINE
  5
2DCD2
  8
0
 10
6030.215331552920361
 20
343.0791031408633103
 30
0.0
 11
6030.2098656953567115
 21
343.131107301981217
 31
0.0
  0
LINE
  5
2DCD3
  8
0
 10
6030.3157337533048121
 20
343.0720521839310777
 30
0.0
 11
6030.2231624340047347
 21
343.0720521839310777
 31
0.0
  0
LINE
  5
2DCD4
  8
0
 10
6030.6912462821128429
 20
343.131107301981217
 30
0.0
 11
6030.6857534126493192
 21
343.0792101555351223
 31
0.0
  0
LINE
  5
2DCD5
  8
0
 10
6030.5774971472956167
 20
343.0792159562283814
 30
0.0
 11
6030.5720431471072516
 21
343.131107301981217
 31
0.0
  0
LINE
  5
2DCD6
  8
0
 10
6030.6777978493018963
 20
343.0720521839310777
 30
0.0
 11
6030.5012864997597717
 21
343.0720521839310777
 31
0.0
  0
ARC
  5
2DCD7
  8
0
 10
6030.6777978493018963
 20
343.0800521839310022
 30
0.0
 40
0.008
 50
270.0
 51
353.9582251770488028
  0
ARC
  5
2DCD8
  8
0
 10
6030.5854533224601255
 20
343.0800521839310022
 30
0.0
 40
0.008
 50
185.9999999752369888
 51
270.0
  0
ARC
  5
2DCD9
  8
0
 10
6030.8302247985056965
 20
343.0798528384921156
 30
0.0
 40
0.0078009342257496
 50
185.514840599253489
 51
270.485159549842308
  0
LINE
  5
2DCDA
  8
0
 10
6030.9361972495144073
 20
343.131107301981217
 30
0.0
 11
6030.9307043800499741
 21
343.0792101555350087
 31
0.0
  0
LINE
  5
2DCDB
  8
0
 10
6030.8224599720688275
 20
343.0791031408633103
 30
0.0
 11
6030.816994114506997
 21
343.131107301981217
 31
0.0
  0
LINE
  5
2DCDC
  8
0
 10
6030.9227488167016418
 20
343.0720521839310777
 30
0.0
 11
6030.8302908531541107
 21
343.0720521839310777
 31
0.0
  0
ARC
  5
2DCDD
  8
0
 10
6030.9227488167016418
 20
343.0800521839310022
 30
0.0
 40
0.008
 50
270.0
 51
353.9582251758670282
  0
LINE
  5
2DCDE
  8
0
 10
6031.2905382491617274
 20
343.131107301981217
 30
0.0
 11
6031.2850453796982038
 21
343.0792101555350087
 31
0.0
  0
LINE
  5
2DCDF
  8
0
 10
6031.1767891143463203
 20
343.0792159562282109
 30
0.0
 11
6031.1713351141561361
 21
343.131107301981217
 31
0.0
  0
LINE
  5
2DCE0
  8
0
 10
6031.2770898163507809
 20
343.0720521839310777
 30
0.0
 11
6031.1847452895099195
 21
343.0720521839310777
 31
0.0
  0
ARC
  5
2DCE1
  8
0
 10
6031.2770898163507809
 20
343.0800521839310022
 30
0.0
 40
0.008
 50
270.0
 51
353.9582251758670282
  0
ARC
  5
2DCE2
  8
0
 10
6031.1847452895099195
 20
343.0800521839310022
 30
0.0
 40
0.008
 50
185.9999999764744985
 51
270.0
  0
ARC
  5
2DCE3
  8
0
 10
6031.420248001818436
 20
343.0799261998258203
 30
0.0
 40
0.0078740158945971
 50
270.0000013514260786
 51
353.9999994564881263
  0
ARC
  5
2DCE4
  8
0
 10
6031.3276106280573003
 20
343.0798528384921156
 30
0.0
 40
0.0078009342257496
 50
185.514840599253489
 51
270.485159549842308
  0
LINE
  5
2DCE5
  8
0
 10
6031.4335830790632826
 20
343.131107301981217
 30
0.0
 11
6031.428078883021044
 21
343.0791031409702896
 31
0.0
  0
LINE
  5
2DCE6
  8
0
 10
6031.3198458016186123
 20
343.0791031408633103
 30
0.0
 11
6031.3143799440558723
 21
343.131107301981217
 31
0.0
  0
LINE
  5
2DCE7
  8
0
 10
6031.4202480020030634
 20
343.0720521839310777
 30
0.0
 11
6031.327676682704805
 21
343.0720521839310777
 31
0.0
  0
ARC
  5
2DCE8
  8
0
 10
6031.8214189148684454
 20
343.0799261998258203
 30
0.0
 40
0.0078740158945971
 50
270.0000013514260786
 51
353.9999994564881263
  0
ARC
  5
2DCE9
  8
0
 10
6031.7287815411064003
 20
343.0798528384921156
 30
0.0
 40
0.0078009342257496
 50
185.514840599253489
 51
270.485159549842308
  0
LINE
  5
2DCEA
  8
0
 10
6031.8347539921142015
 20
343.131107301981217
 30
0.0
 11
6031.8292497960719629
 21
343.0791031409702896
 31
0.0
  0
LINE
  5
2DCEB
  8
0
 10
6031.7210167146686217
 20
343.0791031408633103
 30
0.0
 11
6031.7155508571058817
 21
343.131107301981217
 31
0.0
  0
LINE
  5
2DCEC
  8
0
 10
6031.8214189150530729
 20
343.0720521839310777
 30
0.0
 11
6031.7288475957539049
 21
343.0720521839310777
 31
0.0
  0
LINE
  5
2DCED
  8
0
 10
6031.967239395413344
 20
343.131107301981217
 30
0.0
 11
6031.9617465259489109
 21
343.0792101555350087
 31
0.0
  0
LINE
  5
2DCEE
  8
0
 10
6031.8534902605970274
 20
343.0792159562283246
 30
0.0
 11
6031.8480362604059337
 21
343.131107301981217
 31
0.0
  0
LINE
  5
2DCEF
  8
0
 10
6031.9854959245021746
 20
343.0720521839310777
 30
0.0
 11
6031.8614464357597171
 21
343.0720521839310777
 31
0.0
  0
ARC
  5
2DCF0
  8
0
 10
6031.9854959245021746
 20
343.0800521839310022
 30
0.0
 40
0.008
 50
270.0
 51
353.9582251753724904
  0
ARC
  5
2DCF1
  8
0
 10
6031.953790962599669
 20
343.0800521839310022
 30
0.0
 40
0.008
 50
270.0
 51
353.9582251763631007
  0
ARC
  5
2DCF2
  8
0
 10
6031.8614464357597171
 20
343.0800521839310022
 30
0.0
 40
0.008
 50
185.9999999761791116
 51
270.0
  0
LINE
  5
2DCF3
  8
0
 10
6032.3238349192643
 20
343.131107301981217
 30
0.0
 11
6032.3183420497907719
 21
343.0792101554592932
 31
0.0
  0
LINE
  5
2DCF4
  8
0
 10
6032.2100857844479833
 20
343.0792159562280972
 30
0.0
 11
6032.2046317842568897
 21
343.131107301981217
 31
0.0
  0
LINE
  5
2DCF5
  8
0
 10
6032.3400716512951476
 20
343.0720521838313744
 30
0.0
 11
6032.2180419596043066
 21
343.0720521839309072
 31
0.0
  0
ARC
  5
2DCF6
  8
0
 10
6032.3400716513006046
 20
343.0800521838312989
 30
0.0
 40
0.008
 50
269.9999999532050197
 51
353.9582251757951212
  0
ARC
  5
2DCF7
  8
0
 10
6032.3150727832917255
 20
343.0800521838518193
 30
0.0
 40
0.008
 50
269.9999999532050197
 51
353.9582251761115117
  0
ARC
  5
2DCF8
  8
0
 10
6032.310386486443349
 20
343.0800521838556278
 30
0.0
 40
0.008
 50
269.9999999532050197
 51
353.9582251751207878
  0
ARC
  5
2DCF9
  8
0
 10
6032.2180419596097636
 20
343.0800521839310022
 30
0.0
 40
0.008
 50
185.9999999762245011
 51
269.9999999532050197
  0
ARC
  5
2DCFA
  8
0
 10
6033.0488457874680535
 20
343.0799261998258203
 30
0.0
 40
0.0078740158945971
 50
270.0000013514260786
 51
353.9999994564881263
  0
ARC
  5
2DCFB
  8
0
 10
6032.9562084137060083
 20
343.0798528384921156
 30
0.0
 40
0.0078009342257496
 50
185.514840599253489
 51
270.485159549842308
  0
LINE
  5
2DCFC
  8
0
 10
6033.0621808647129001
 20
343.131107301981217
 30
0.0
 11
6033.0566754601632056
 21
343.0790917228763988
 31
0.0
  0
LINE
  5
2DCFD
  8
0
 10
6032.9484435872700487
 20
343.0791031408633103
 30
0.0
 11
6032.9429777297073088
 21
343.131107301981217
 31
0.0
  0
LINE
  5
2DCFE
  8
0
 10
6033.0488457876535904
 20
343.0720521839310777
 30
0.0
 11
6032.9562744683544224
 21
343.0720521839310777
 31
0.0
  0
ARC
  5
2DCFF
  8
0
 10
6028.8614365375678972
 20
343.0799261997257759
 30
0.0
 40
0.0078740158945971
 50
270.0000013514260786
 51
353.9999994564881263
  0
LINE
  5
2DD00
  8
0
 10
6028.8747716148236577
 20
343.131107301981217
 30
0.0
 11
6028.8692674187714147
 21
343.0791031408701883
 31
0.0
  0
LINE
  5
2DD01
  8
0
 10
6028.7610224799964271
 20
343.0792159561286212
 30
0.0
 11
6028.7555684797962385
 21
343.131107301981217
 31
0.0
  0
LINE
  5
2DD02
  8
0
 10
6028.8614365377534341
 20
343.0720521838312038
 30
0.0
 11
6028.7041361416522705
 21
343.0720521838312038
 31
0.0
  0
ARC
  5
2DD03
  8
0
 10
6028.7689786551600264
 20
343.0800521838312989
 30
0.0
 40
0.008
 50
185.9999999750087056
 51
270.0
  0
ARC
  5
2DD04
  8
0
 10
6029.4900864844057651
 20
343.0798528383920143
 30
0.0
 40
0.0078009342257496
 50
185.514840599253489
 51
270.485159549842308
  0
LINE
  5
2DD05
  8
0
 10
6029.5960589354226613
 20
343.131107301981217
 30
0.0
 11
6029.5905660659500427
 21
343.079210155435419
 31
0.0
  0
LINE
  5
2DD06
  8
0
 10
6029.4823216579698055
 20
343.0791031407633795
 30
0.0
 11
6029.4768558003952421
 21
343.131107301981217
 31
0.0
  0
LINE
  5
2DD07
  8
0
 10
6029.5826105026008008
 20
343.0720521838312038
 30
0.0
 11
6029.4901525390541792
 21
343.0720521838312038
 31
0.0
  0
ARC
  5
2DD08
  8
0
 10
6029.5826105026008008
 20
343.0800521838312989
 30
0.0
 40
0.008
 50
270.0
 51
353.9582251775319719
  0
LINE
  5
2DD09
  8
0
 10
6029.8249227191254249
 20
343.131107301981217
 30
0.0
 11
6029.8194298496500778
 21
343.0792101554358169
 31
0.0
  0
ARC
  5
2DD0A
  8
0
 10
6029.8114742863017455
 20
343.0800521838318105
 30
0.0
 40
0.008
 50
269.9999997125079858
 51
353.9582251763728777
  0
LINE
  5
2DD0B
  8
0
 10
6029.8114742862617277
 20
343.0720521838317723
 30
0.0
 11
6029.7916879180702381
 21
343.0720521839310777
 31
0.0
  0
ARC
  5
2DD0C
  8
0
 10
6031.0444492491687924
 20
343.0799261998258203
 30
0.0
 40
0.0078740158945971
 50
270.0000013514260786
 51
353.9999994564881263
  0
LINE
  5
2DD0D
  8
0
 10
6031.0577843264136391
 20
343.131107301981217
 30
0.0
 11
6031.0522801303714004
 21
343.0791031409702896
 31
0.0
  0
LINE
  5
2DD0E
  8
0
 10
6030.9440351915973224
 20
343.0792159562282109
 30
0.0
 11
6030.9385811914062288
 21
343.131107301981217
 31
0.0
  0
LINE
  5
2DD0F
  8
0
 10
6031.0508680311577336
 20
343.0720521839310777
 30
0.0
 11
6030.9519913667600122
 21
343.0720521839310777
 31
0.0
  0
ARC
  5
2DD10
  8
0
 10
6030.9519913667600122
 20
343.0800521839310022
 30
0.0
 40
0.008
 50
185.9999999762245011
 51
270.0
  0
ARC
  5
2DD11
  8
0
 10
6031.0508293582670376
 20
343.0799261997257759
 30
0.0
 40
0.0078740158945971
 50
270.0000013514260786
 51
353.9999994564881263
  0
LINE
  5
2DD12
  8
0
 10
6031.0641644355227982
 20
343.131107301981217
 30
0.0
 11
6031.0586602394723741
 21
343.0791031408701883
 31
0.0
  0
LINE
  5
2DD13
  8
0
 10
6031.6079226243127778
 20
343.131107301981217
 30
0.0
 11
6031.6024297548483446
 21
343.0792101555347813
 31
0.0
  0
LINE
  5
2DD14
  8
0
 10
6031.4941734894955516
 20
343.0792159562283814
 30
0.0
 11
6031.4887194893071864
 21
343.131107301981217
 31
0.0
  0
LINE
  5
2DD15
  8
0
 10
6031.6314102340020327
 20
343.0720521839310777
 30
0.0
 11
6031.5021296646600604
 21
343.0720521839310777
 31
0.0
  0
ARC
  5
2DD16
  8
0
 10
6031.6314102340020327
 20
343.0800521839310022
 30
0.0
 40
0.008
 50
270.0
 51
353.9582251761115117
  0
ARC
  5
2DD17
  8
0
 10
6031.5944741915009217
 20
343.0800521839310022
 30
0.0
 40
0.008
 50
270.0
 51
353.9582251751207878
  0
ARC
  5
2DD18
  8
0
 10
6031.5021296646600604
 20
343.0800521839310022
 30
0.0
 40
0.008
 50
185.9999999752369888
 51
270.0
  0
LINE
  5
2DD19
  8
0
 10
6031.6448586668138887
 20
343.131107301981217
 30
0.0
 11
6031.639365797348546
 21
343.0792101555350087
 31
0.0
  0
LINE
  5
2DD1A
  8
0
 10
6031.9989443573140306
 20
343.131107301981217
 30
0.0
 11
6031.993451487848688
 21
343.079210155534895
 31
0.0
  0
LINE
  5
2DD1B
  8
0
 10
6032.328521216111767
 20
343.131107301981217
 30
0.0
 11
6032.3230283466400579
 21
343.0792101554557121
 31
0.0
  0
LINE
  5
2DD1C
  8
0
 10
6032.353520084124284
 20
343.131107301981217
 30
0.0
 11
6032.3480272146489369
 21
343.0792101554353053
 31
0.0
  0
LINE
  5
2DD1D
  8
0
 10
6032.6927631922226283
 20
343.131107301981217
 30
0.0
 11
6032.6872703227600141
 21
343.0792101555351792
 31
0.0
  0
LINE
  5
2DD1E
  8
0
 10
6032.7078058065126243
 20
343.131107301981217
 30
0.0
 11
6032.7023129370500101
 21
343.0792101555351223
 31
0.0
  0
LINE
  5
2DD1F
  8
0
 10
6032.6915453173232891
 20
343.131107301981217
 30
0.0
 11
6032.6860524478597654
 21
343.0792101555351223
 31
0.0
  0
LINE
  5
2DD20
  8
0
 10
6032.577796182486054
 20
343.0792159562280972
 30
0.0
 11
6032.5723421822949604
 21
343.131107301981217
 31
0.0
  0
LINE
  5
2DD21
  8
0
 10
6030.4933303245961724
 20
343.0792159562283246
 30
0.0
 11
6030.4878763244059883
 21
343.131107301981217
 31
0.0
  0
ARC
  5
2DD22
  8
0
 10
6030.5012864997597717
 20
343.0800521839310022
 30
0.0
 40
0.008
 50
185.9999999759799039
 51
270.0
  0
ARC
  5
2DD23
  8
0
 10
6029.412899958705566
 20
343.0798528384921156
 30
0.0
 40
0.0078009342257496
 50
185.514840599253489
 51
270.485159549842308
  0
LINE
  5
2DD24
  8
0
 10
6029.4051351322696064
 20
343.0791031408633103
 30
0.0
 11
6029.3996692747059569
 21
343.131107301981217
 31
0.0
  0
LINE
  5
2DD25
  8
0
 10
6029.4901525390541792
 20
343.0720521838312038
 30
0.0
 11
6029.4129660133539801
 21
343.0720521839310777
 31
0.0
  0
ARC
  5
2DD26
  8
0
 10
6028.7042022081059258
 20
343.0798528382921972
 30
0.0
 40
0.0078009342257496
 50
185.514840599253489
 51
270.485159549842308
  0
LINE
  5
2DD27
  8
0
 10
6028.6964373816690568
 20
343.0791031406632783
 30
0.0
 11
6028.6909715240853984
 21
343.131107301981217
 31
0.0
  0
LINE
  5
2DD28
  8
0
 10
6032.6943573737016777
 20
343.0720521839310777
 30
0.0
 11
6032.5857523576496533
 21
343.0720521839310777
 31
0.0
  0
ARC
  5
2DD29
  8
0
 10
6032.6943573737016777
 20
343.0800521839310022
 30
0.0
 40
0.008
 50
270.0
 51
353.9582251770294192
  0
ARC
  5
2DD2A
  8
0
 10
6032.6793147594125912
 20
343.0800521839310022
 30
0.0
 40
0.008
 50
270.0
 51
353.9582251773474013
  0
ARC
  5
2DD2B
  8
0
 10
6032.678096884513252
 20
343.0800521839310022
 30
0.0
 40
0.008
 50
270.0
 51
353.9582251771136043
  0
ARC
  5
2DD2C
  8
0
 10
6032.5857523576496533
 20
343.0800521839310022
 30
0.0
 40
0.008
 50
185.9999999766120879
 51
270.0
  0
LINE
  5
2DD2D
  8
0
 10
6048.3569106426593862
 20
346.5869797429311916
 30
0.0
 11
6048.3569106426593862
 21
332.6106033649311939
 31
0.0
  0
LINE
  5
2DD2E
  8
0
 10
6049.1443122174578093
 20
332.6106033649311939
 30
0.0
 11
6049.1443122174578093
 21
346.5869813177312153
 31
0.0
  0
LINE
  5
2DD2F
  8
0
 10
6048.531408757958161
 20
332.6106033648962921
 30
0.0
 11
6048.5314095293588252
 21
332.1381624200963074
 31
0.0
  0
LINE
  5
2DD30
  8
0
 10
6048.9698147513590811
 20
332.1381624202869034
 30
0.0
 11
6048.9698137861578289
 21
332.6106033648962921
 31
0.0
  0
LINE
  5
2DD31
  8
0
 10
6048.2584854457581969
 20
330.8192647822963863
 30
0.0
 11
6048.2584854457581969
 21
325.2554249720769803
 31
0.0
  0
LINE
  5
2DD32
  8
0
 10
6049.2427374142580447
 20
323.1179756057449026
 30
0.0
 11
6049.2427374142580447
 21
330.8192647822963863
 31
0.0
  0
ARC
  5
2DD33
  8
0
 10
6048.7506114300576883
 20
322.4885616025312061
 30
0.0
 40
0.8464566929000114
 50
226.498616342798698
 51
268.3559708593725759
  0
ARC
  5
2DD34
  8
0
 10
6048.7506114300576883
 20
322.4295064844312151
 30
0.0
 40
0.7874015748000013
 50
140.3674775373978036
 51
265.626556545150379
  0
ARC
  5
2DD35
  8
0
 10
6048.7506114300576883
 20
322.4295064844312151
 30
0.0
 40
0.7874015748000013
 50
309.298798079797109
 51
79.6024526793090246
  0
ARC
  5
2DD36
  8
0
 10
6048.1876194743717861
 20
321.8240388102457814
 30
0.0
 40
0.0196852360519822
 50
179.9062744272123098
 51
227.050436051542988
  0
ARC
  5
2DD37
  8
0
 10
6048.7509739183860802
 20
322.4314014978936029
 30
0.0
 40
0.8483526146974845
 50
227.147278932992208
 51
269.3647920254715018
  0
ARC
  5
2DD38
  8
0
 10
6049.3132353639130088
 20
321.8241986647292947
 30
0.0
 40
0.0200536375218033
 50
313.4080719112777729
 51
359.6353756293688093
  0
LINE
  5
2DD39
  8
0
 10
6048.2013988315584356
 20
321.8652664985683032
 30
0.0
 11
6048.2013988315584356
 21
321.8444696412312283
 31
0.0
  0
LINE
  5
2DD3A
  8
0
 10
6048.1679342648776583
 20
321.8745776824393943
 30
0.0
 11
6048.1679342646575606
 21
321.824071011731121
 31
0.0
  0
ARC
  5
2DD3B
  8
0
 10
6048.7461939548920782
 20
322.4218129730710984
 30
0.0
 40
0.8551010572849977
 50
47.2119459413341502
 51
78.0527841906889392
  0
ARC
  5
2DD3C
  8
0
 10
6049.3136031559442927
 20
323.0349740557147129
 30
0.0
 40
0.0196854656373347
 50
359.9064821754216155
 51
46.8984516538924865
  0
ARC
  5
2DD3D
  8
0
 10
6048.7506114299276305
 20
322.3704513660468933
 30
0.0
 40
0.8464566932106571
 50
46.4986163395653733
 51
76.8563956697688297
  0
LINE
  5
2DD3E
  8
0
 10
6049.3332885952404467
 20
322.9844352864229222
 30
0.0
 11
6049.3332885953577716
 21
323.0349419252311236
 31
0.0
  0
LINE
  5
2DD3F
  8
0
 10
6049.2998240284587155
 20
323.0145433277108964
 30
0.0
 11
6049.2998240284587155
 21
322.9937464703912156
 31
0.0
  0
LINE
  5
2DD40
  8
0
 10
6049.3332885952404467
 20
321.8745722007693075
 30
0.0
 11
6049.3332885953577716
 21
321.8240710463310847
 31
0.0
  0
LINE
  5
2DD41
  8
0
 10
6048.2584854457581969
 20
321.7406357900061948
 30
0.0
 11
6048.2584854457581969
 21
301.2523356482763006
 31
0.0
  0
ARC
  5
2DD42
  8
0
 10
6048.1206328278522051
 20
301.2523929907382012
 30
0.0
 40
0.1378526298332432
 50
270.0238332080198234
 51
359.9761667576590867
  0
LINE
  5
2DD43
  8
0
 10
6051.4064999293659639
 20
301.5506751410144943
 30
0.0
 11
6051.4064999293659639
 21
299.1036024551477226
 31
0.0
  0
ARC
  5
2DD44
  8
0
 10
6044.4592735173891924
 20
301.0259415254075179
 30
0.0
 40
0.0393707488336945
 50
100.0189998441988024
 51
179.9994957082147948
  0
ARC
  5
2DD45
  8
0
 10
6045.0104539496569487
 20
297.9649340736306726
 30
0.0
 40
3.1496062992004799
 50
90.0
 51
100.2052259740389957
  0
ARC
  5
2DD46
  8
0
 10
6046.9803225039086101
 20
300.4886200041351003
 30
0.0
 40
2.5604197369237309
 50
180.0020091836063898
 51
187.5267104601904009
  0
ARC
  5
2DD47
  8
0
 10
6044.7151769599940963
 20
300.1893430997566838
 30
0.0
 40
0.2755891086940565
 50
187.5286707140365934
 51
252.8530811850031057
  0
ARC
  5
2DD48
  8
0
 10
6044.6374503223751162
 20
299.9385644961171238
 30
0.0
 40
0.0130458837502599
 50
254.3313720524081987
 51
281.9355182226721013
  0
ARC
  5
2DD49
  8
0
 10
6044.7706322244812327
 20
299.3806667972668833
 30
0.0
 40
0.5605327470186499
 50
99.1914551309776726
 51
103.4611190843427977
  0
ARC
  5
2DD4A
  8
0
 10
6044.7798740638781965
 20
299.3294866194643191
 30
0.0
 40
0.6125327455907278
 50
93.0990963283236255
 51
99.2801272876091332
  0
ARC
  5
2DD4B
  8
0
 10
6044.3451023978932426
 20
303.9369481168704965
 30
0.0
 40
4.0159608721832871
 50
275.740033417224879
 51
279.5656354315989915
  0
ARC
  5
2DD4C
  8
0
 10
6045.1472153605745916
 20
299.4085212651951906
 30
0.0
 40
0.5840614326691363
 50
73.6480354841192053
 51
103.3391229921604975
  0
ARC
  5
2DD4D
  8
0
 10
6046.068864919515363
 20
302.4194682257240174
 30
0.0
 40
2.56483453799465
 50
252.8287053428207116
 51
256.6290419120895194
  0
ARC
  5
2DD4E
  8
0
 10
6045.5474404975111611
 20
300.299318294233899
 30
0.0
 40
0.3819514489486717
 50
259.1793370175150244
 51
269.6706333243017752
  0
ARC
  5
2DD4F
  8
0
 10
6045.3602557904523565
 20
293.7295751807610031
 30
0.0
 40
6.1905625541172862
 50
87.7982263441085138
 51
88.2876079053589251
  0
LINE
  5
2DD50
  8
0
 10
6045.6448435520587736
 20
299.9137529712311903
 30
0.0
 11
6046.4952232094356077
 21
299.9137529712311903
 31
0.0
  0
LINE
  5
2DD51
  8
0
 10
6047.6741028868373178
 20
299.9137529712311903
 30
0.0
 11
6047.7042937256501318
 21
299.9137529712311903
 31
0.0
  0
ARC
  5
2DD52
  8
0
 10
6045.2571515992749482
 20
290.5270767914195176
 30
0.0
 40
9.3946790660935608
 50
87.6348928925268496
 51
87.9202495044366401
  0
ARC
  5
2DD53
  8
0
 10
6047.6657974691670461
 20
298.9727133500775267
 30
0.0
 40
0.9418266987363683
 50
57.0003725469518514
 51
87.6574376855780457
  0
LINE
  5
2DD54
  8
0
 10
6045.0104539496569487
 20
301.1145403728311862
 30
0.0
 11
6047.1686301780446229
 21
301.1145403728311862
 31
0.0
  0
LINE
  5
2DD55
  8
0
 10
6047.7201703265864126
 20
301.1145403728311862
 30
0.0
 11
6048.1206901701261813
 21
301.1145403728311862
 31
0.0
  0
LINE
  5
2DD56
  8
0
 10
6044.419902768702741
 20
300.4885302185487035
 30
0.0
 11
6044.4199027685590409
 21
301.0259418719313089
 31
0.0
  0
LINE
  5
2DD57
  8
0
 10
6045.009908147258102
 20
301.0617936532311774
 30
0.0
 11
6047.1666432721285673
 21
301.0599213040724749
 31
0.0
  0
LINE
  5
2DD58
  8
0
 10
6047.7181699212142121
 20
301.0594425014390936
 30
0.0
 11
6047.7446823760410552
 21
301.059419484902719
 31
0.0
  0
ARC
  5
2DD59
  8
0
 10
6047.5670366697504505
 20
323.8408118657196155
 30
0.0
 40
22.7820831412077212
 50
270.4460663084054772
 51
272.2456976876471231
  0
ARC
  5
2DD5A
  8
0
 10
6045.0056920016186268
 20
296.2584535203334895
 30
0.0
 40
4.803341983264235
 50
89.9497084773890094
 51
97.00491653976772
  0
LINE
  5
2DD5B
  8
0
 10
6046.7033673355581413
 20
301.9892293568311743
 30
0.0
 11
6046.7033673355581413
 21
301.4216159633310781
 31
0.0
  0
LINE
  5
2DD5C
  8
0
 10
6047.1792520241979219
 20
301.409815963331198
 30
0.0
 11
6046.715167335559272
 21
301.409815963331198
 31
0.0
  0
LINE
  5
2DD5D
  8
0
 10
6046.715167335559272
 20
302.001029356831225
 30
0.0
 11
6047.202055084130734
 21
302.001029356831225
 31
0.0
  0
ARC
  5
2DD5E
  8
0
 10
6046.715167335559272
 20
301.9892293568311743
 30
0.0
 40
0.0118
 50
90.0
 51
180.0000000000081002
  0
ARC
  5
2DD5F
  8
0
 10
6046.715167335559272
 20
301.4216159633310781
 30
0.0
 40
0.0118
 50
179.9999999999917861
 51
270.0
  0
LINE
  5
2DD60
  8
0
 10
6047.1758082804581136
 20
301.3143872424220149
 30
0.0
 11
6047.1758082804581136
 21
301.3901159633311977
 31
0.0
  0
LINE
  5
2DD61
  8
0
 10
6046.7821074930579925
 20
301.1932805303310943
 30
0.0
 11
6046.7821074930579925
 21
301.3901159633311977
 31
0.0
  0
LINE
  5
2DD62
  8
0
 10
6046.7821074930579925
 20
301.1932805303310943
 30
0.0
 11
6047.1715326964867927
 21
301.1932805303310943
 31
0.0
  0
LINE
  5
2DD63
  8
0
 10
6046.9002177292577471
 20
301.1932805303310943
 30
0.0
 11
6046.9002177292577471
 21
301.1145403728311862
 31
0.0
  0
LINE
  5
2DD64
  8
0
 10
6047.0576980442592685
 20
301.1932805303310943
 30
0.0
 11
6047.0576980442592685
 21
301.1145403728311862
 31
0.0
  0
ARC
  5
2DD65
  8
0
 10
6047.1955082804579433
 20
301.3901159633311977
 30
0.0
 40
0.0197
 50
147.3466704192472037
 51
179.9999999999967031
  0
ARC
  5
2DD66
  8
0
 10
6046.7624074930590723
 20
301.3901159633311977
 30
0.0
 40
0.0197
 50
0.0
 51
90.0
  0
ARC
  5
2DD67
  8
0
 10
6046.9789578867575983
 20
298.8858686225515271
 30
0.0
 40
3.1263096224302189
 50
85.90545522359605
 51
94.8402362906629151
  0
LINE
  5
2DD68
  8
0
 10
6045.568478570858133
 20
299.6822990211812225
 30
0.0
 11
6045.6221242058827556
 21
299.9146637950814807
 31
0.0
  0
LINE
  5
2DD69
  8
0
 10
6045.568478570858133
 20
299.6822990211812225
 30
0.0
 11
6045.2921192754465665
 21
299.7461015918295857
 31
0.0
  0
LINE
  5
2DD6A
  8
0
 10
6044.9241732382597547
 20
299.8310486278879807
 30
0.0
 11
6044.6478139427536007
 21
299.8948511985582854
 31
0.0
  0
LINE
  5
2DD6B
  8
0
 10
6045.5212612040586464
 20
299.6527943357812092
 30
0.0
 11
6045.568478570858133
 21
299.6822990211812225
 31
0.0
  0
LINE
  5
2DD6C
  8
0
 10
6045.5212612040586464
 20
299.6527943357812092
 30
0.0
 11
6044.677318628258945
 21
299.8476338316812075
 31
0.0
  0
LINE
  5
2DD6D
  8
0
 10
6044.6478139427581482
 20
299.8948511985811933
 30
0.0
 11
6044.677318628258945
 21
299.8476338316812075
 31
0.0
  0
LINE
  5
2DD6E
  8
0
 10
6044.6557680849464305
 20
299.929304373385321
 30
0.0
 11
6044.6478139427581482
 21
299.8948511985811933
 31
0.0
  0
LINE
  5
2DD6F
  8
0
 10
6045.318688297558765
 20
299.8611846703811921
 30
0.0
 11
6045.2921192754583899
 21
299.7461015918811995
 31
0.0
  0
LINE
  5
2DD70
  8
0
 10
6044.9507422604583553
 20
299.9461317063812089
 30
0.0
 11
6044.9241732382588452
 21
299.8310486278812164
 31
0.0
  0
LINE
  5
2DD71
  8
0
 10
6045.318688297558765
 20
299.8611846703811921
 30
0.0
 11
6044.9507422604583553
 21
299.9461317063812089
 31
0.0
  0
ARC
  5
2DD72
  8
0
 10
6045.2055660048436039
 20
300.2105463981559978
 30
0.0
 40
0.4724409452300563
 50
233.4435357138764005
 51
280.5564642980486951
  0
ARC
  5
2DD73
  8
0
 10
6047.0350881378954
 20
286.0972564170772898
 30
0.0
 40
13.8270398557292502
 50
91.7588433864697777
 51
92.2376334085387271
  0
ARC
  5
2DD74
  8
0
 10
6046.5868840261464356
 20
300.6932898858996168
 30
0.0
 40
0.7758735504637048
 50
271.7588433864697777
 51
277.6585847673127887
  0
ARC
  5
2DD75
  8
0
 10
6046.4820492216367711
 20
301.4729085846205976
 30
0.0
 40
1.5625092041381281
 50
277.6585847673127887
 51
281.3500695478022067
  0
ARC
  5
2DD76
  8
0
 10
6046.9692289298309333
 20
299.0458523828872899
 30
0.0
 40
0.9129596149846031
 50
81.2628591580792374
 51
101.3500695478022067
  0
ARC
  5
2DD77
  8
0
 10
6045.4814097370835952
 20
289.3648854041678078
 30
0.0
 40
10.7075871011815806
 50
81.1769840211879909
 51
81.2628591580792374
  0
LINE
  5
2DD78
  8
0
 10
6048.2105618971436343
 20
322.9206406858938863
 30
0.0
 11
6048.6905666373040731
 21
321.6443976621264937
 31
0.0
  0
LINE
  5
2DD79
  8
0
 10
6048.8490004581772155
 20
323.1528157753700157
 30
0.0
 11
6049.3011748114731745
 21
321.8665844622622103
 31
0.0
  0
ARC
  5
2DD7A
  8
0
 10
6048.8856987794752058
 20
323.1657170626663174
 30
0.0
 40
0.0389
 50
79.6024526795222584
 51
199.3691141178416046
  0
ARC
  5
2DD7B
  8
0
 10
6048.1741519680681449
 20
322.9069466337269887
 30
0.0
 40
0.0389
 50
20.6116633729072305
 51
140.3674775371650867
  0
LINE
  5
2DD7C
  8
0
 10
6046.5064854203619689
 20
299.9141884332285031
 30
0.0
 11
6046.5064854203619689
 21
299.461028034727974
 31
0.0
  0
LINE
  5
2DD7D
  8
0
 10
6046.5262014307618301
 20
299.4413120263311043
 30
0.0
 11
6047.10288747296363
 21
299.4413120263311043
 31
0.0
  0
LINE
  5
2DD7E
  8
0
 10
6047.050068342880877
 20
298.2528673727312025
 30
0.0
 11
6046.66040924331719
 21
298.2528673727312025
 31
0.0
  0
LINE
  5
2DD7F
  8
0
 10
6046.5724899412398372
 20
298.5284579238812057
 30
0.0
 11
6046.5310948163223657
 21
299.4206990357521931
 31
0.0
  0
ARC
  5
2DD80
  8
0
 10
6046.66040924331719
 20
298.3315673727311719
 30
0.0
 40
0.0787
 50
232.7895589216709027
 51
270.0
  0
ARC
  5
2DD81
  8
0
 10
6046.5507736488134469
 20
299.4216120263311041
 30
0.0
 40
0.0197
 50
90.0
 51
182.6563071429376066
  0
LINE
  5
2DD82
  8
0
 10
6046.5064854203619689
 20
299.461028034727974
 30
0.0
 11
6046.5262014307618301
 21
299.4413120263311043
 31
0.0
  0
LINE
  5
2DD83
  8
0
 10
6046.5064854203619689
 20
299.461028034727974
 30
0.0
 11
6047.1037206598211924
 21
299.4610240931847898
 31
0.0
  0
LINE
  5
2DD84
  8
0
 10
6049.196217842830265
 20
322.1651395187637945
 30
0.0
 11
6048.5792572566069794
 21
321.940348532418227
 31
0.0
  0
LINE
  5
2DD85
  8
0
 10
6048.9030559553220883
 20
323.322921526270818
 30
0.0
 11
6048.9436701496060778
 21
323.1928737425735108
 31
0.0
  0
LINE
  5
2DD86
  8
0
 10
6048.0595524244381522
 20
323.01591134853021
 30
0.0
 11
6048.1120342844460538
 21
322.8901804136905866
 31
0.0
  0
LINE
  5
2DD87
  8
0
 10
6051.5616592464375572
 20
301.6263513964311755
 30
0.0
 11
6051.7230374142591245
 21
301.6263513964311755
 31
0.0
  0
LINE
  5
2DD88
  8
0
 10
6051.5616592469168609
 20
299.0279261995311799
 30
0.0
 11
6051.7230374142591245
 21
299.0279261995311799
 31
0.0
  0
ARC
  5
2DD89
  8
0
 10
6051.7230374142591245
 20
299.0476261995311802
 30
0.0
 40
0.0197
 50
270.0
 51
359.9999999999902229
  0
ARC
  5
2DD8A
  8
0
 10
6051.7230374142591245
 20
301.6066513964311753
 30
0.0
 40
0.0197
 50
0.0000000000227982
 51
89.9999999999478888
  0
LINE
  5
2DD8B
  8
0
 10
6049.2427374142589542
 20
316.8125582255910899
 30
0.0
 11
6049.2427374142589542
 21
301.1569786493918741
 31
0.0
  0
ARC
  5
2DD8C
  8
0
 10
6049.3805749760176695
 20
301.157008907865702
 30
0.0
 40
0.1378375650811933
 50
180.0125777284827109
 51
254.0798896626930912
  0
ARC
  5
2DD8D
  8
0
 10
6048.7506114300731497
 20
299.1460364358791253
 30
0.0
 40
1.968503936901131
 50
74.3678605932932584
 51
83.9829497487170755
  0
ARC
  5
2DD8E
  8
0
 10
6048.7506114300731497
 20
301.5082411600827754
 30
0.0
 40
1.9685039369005679
 50
276.0304022360728027
 51
285.6321394067068127
  0
ARC
  5
2DD8F
  8
0
 10
6049.2050166231119874
 20
301.7926049719509933
 30
0.0
 40
0.0109148743208017
 50
53.7708044156429281
 51
126.2291955843571003
  0
ARC
  5
2DD90
  8
0
 10
6049.2225372416378377
 20
301.7681954105136128
 30
0.0
 40
0.0409611027224232
 50
125.8189404916335974
 51
154.8101260254778992
  0
ARC
  5
2DD91
  8
0
 10
6049.2923049501705464
 20
301.7323699957282201
 30
0.0
 40
0.1193731363873133
 50
153.5025629283649096
 51
168.6128735827091134
  0
ARC
  5
2DD92
  8
0
 10
6049.1913850817063576
 20
301.7786662346550202
 30
0.0
 40
0.0303407661211818
 50
15.3853362166420595
 51
48.555407985878702
  0
ARC
  5
2DD93
  8
0
 10
6049.0447553807089207
 20
301.7357302466824081
 30
0.0
 40
0.1831240661953374
 50
2.7804258009443381
 51
16.1660175375526798
  0
ARC
  5
2DD94
  8
0
 10
6049.2050166231119874
 20
301.6569068131321956
 30
0.0
 40
0.0109148743208017
 50
233.7708044156429139
 51
306.2291955843571145
  0
ARC
  5
2DD95
  8
0
 10
6049.2225372416378377
 20
301.6813163745696897
 30
0.0
 40
0.0409611027224232
 50
205.1898739745221008
 51
234.1810595083663884
  0
ARC
  5
2DD96
  8
0
 10
6049.2923049501705464
 20
301.7171417893550256
 30
0.0
 40
0.1193731363873133
 50
191.3871264172908866
 51
206.4974370716350904
  0
ARC
  5
2DD97
  8
0
 10
6049.1913850817063576
 20
301.6708455504282256
 30
0.0
 40
0.0303407661211818
 50
311.4445920141213264
 51
344.6146637833579121
  0
ARC
  5
2DD98
  8
0
 10
6049.0447553807089207
 20
301.7137815384007808
 30
0.0
 40
0.1831240661953374
 50
343.8339824624472953
 51
357.2195741990557281
  0
ARC
  5
2DD99
  8
0
 10
6049.3303619474263542
 20
301.7247558925416229
 30
0.0
 40
0.1581843170960211
 50
168.6308531455466948
 51
191.3691468544517136
  0
ARC
  5
2DD9A
  8
0
 10
6048.8879028454839499
 20
301.7247558925416229
 30
0.0
 40
0.3403408140726944
 50
356.6551359539810733
 51
3.3448640460205299
  0
ARC
  5
2DD9B
  8
0
 10
6057.8139656785488114
 20
310.1302577714171207
 30
0.0
 40
25.2477724383525093
 50
123.1482620903652929
 51
124.3457760154402933
  0
ARC
  5
2DD9C
  8
0
 10
6044.0230846601689336
 20
331.2451956346678799
 30
0.0
 40
0.0281664432055932
 50
97.6140849933666033
 51
121.6694928507183988
  0
ARC
  5
2DD9D
  8
0
 10
6044.0308190642299451
 20
331.204061987452917
 30
0.0
 40
0.0699973101666047
 50
77.2199631144925149
 51
99.4282778751813083
  0
ARC
  5
2DD9E
  8
0
 10
6044.0401189864796834
 20
331.240234201624105
 30
0.0
 40
0.0326814376204516
 50
54.2686919870293067
 51
79.0925330359076781
  0
ARC
  5
2DD9F
  8
0
 10
6038.0036910610542691
 20
323.7815629551178063
 30
0.0
 40
9.6279527739814075
 50
47.6665525698379966
 51
51.027206513651997
  0
ARC
  5
2DDA0
  8
0
 10
6036.5119857930239959
 20
322.2480962229046781
 30
0.0
 40
11.7663383530732606
 50
41.0938813758531225
 51
47.3255851535580092
  0
ARC
  5
2DDA1
  8
0
 10
6034.0187909497135479
 20
320.1191207898743869
 30
0.0
 40
15.0446972386357505
 50
34.0134352901945576
 51
40.9632673677395402
  0
ARC
  5
2DDA2
  8
0
 10
6031.0370236017497518
 20
318.1007798914470186
 30
0.0
 40
18.6453382784593806
 50
27.156047778127629
 51
34.0289627458651225
  0
ARC
  5
2DDA3
  8
0
 10
6030.4110720456419585
 20
317.7644064918554818
 30
0.0
 40
19.3558199792553687
 50
23.0611270644396704
 51
27.1963051870420891
  0
ARC
  5
2DDA4
  8
0
 10
6030.2302468985662927
 20
317.7004349802328989
 30
0.0
 40
19.5472570682260383
 50
19.5880956291111588
 51
23.0260349421285007
  0
ARC
  5
2DDA5
  8
0
 10
6031.9807696305497302
 20
318.3409745280139873
 30
0.0
 40
17.6833052820401591
 50
16.4492035160958707
 51
19.5343204521977398
  0
ARC
  5
2DDA6
  8
0
 10
6048.9289883889887278
 20
323.3449298372054272
 30
0.0
 40
0.0118116327171594
 50
290.0029169011987733
 51
16.4305204615122911
  0
LINE
  5
2DDA7
  8
0
 10
6048.9330287703587601
 20
323.3338307387812165
 30
0.0
 11
6048.0295901329591288
 21
323.0050059662812032
 31
0.0
  0
ARC
  5
2DDA8
  8
0
 10
6043.5921779521568169
 20
330.9437622097258895
 30
0.0
 40
0.0394195627489807
 50
125.0686898044214956
 51
202.1056962171566909
  0
LINE
  5
2DDA9
  8
0
 10
6043.5556560732593425
 20
330.9289279827812038
 30
0.0
 11
6043.5767701542581563
 21
330.877990214981196
 31
0.0
  0
ARC
  5
2DDAA
  8
0
 10
6043.5876860215203124
 20
330.8825455616672002
 30
0.0
 40
0.0118282433824952
 50
202.6514715199870977
 51
214.7977366087457085
  0
LINE
  5
2DDAB
  8
0
 10
6043.5779730021577052
 20
330.8757954063812008
 30
0.0
 11
6043.7640812557583558
 21
330.6075389736811871
 31
0.0
  0
ARC
  5
2DDAC
  8
0
 10
6402.7948209830428823
 20
579.9211842550737401
 30
0.0
 40
437.1045250196069105
 50
214.7764040131272054
 51
214.8820000747577978
  0
ARC
  5
2DDAD
  8
0
 10
4589.1729600197731997
 20
-683.9400276362916884
 30
0.0
 40
1773.4541052018930714
 50
34.8189359676594634
 51
34.8689589974620731
  0
ARC
  5
2DDAE
  8
0
 10
5824.3533877581967317
 20
174.9852468945954911
 30
0.0
 40
268.9863547250482725
 50
34.6788130228370619
 51
34.8456976103638496
  0
ARC
  5
2DDAF
  8
0
 10
6009.3928489256149987
 20
302.9376443149943725
 30
0.0
 40
44.0165885571269726
 50
33.659188725956092
 51
34.7578062570197872
  0
ARC
  5
2DDB0
  8
0
 10
6032.9065442851224361
 20
318.6024617016523734
 30
0.0
 40
15.76273449084918
 50
32.6158903360001133
 51
33.6370467017214381
  0
ARC
  5
2DDB1
  8
0
 10
6038.5595484128270982
 20
322.2178950335983245
 30
0.0
 40
9.052458133682439
 50
31.1392673484897209
 51
32.6266755631309877
  0
ARC
  5
2DDB2
  8
0
 10
6050.5307816827871648
 20
329.4820282230400039
 30
0.0
 40
4.9503765891839278
 50
211.4506155521825121
 51
213.2948034693260979
  0
ARC
  5
2DDB3
  8
0
 10
6028.0728308577072312
 20
314.9252302803056978
 30
0.0
 40
21.8127658154339308
 50
31.7877480430345294
 51
32.8723689528427272
  0
ARC
  5
2DDB4
  8
0
 10
6045.9024207798302086
 20
325.983540252264504
 30
0.0
 40
0.8323216184030977
 50
8.7202360992018964
 51
31.2743777532104694
  0
ARC
  5
2DDB5
  8
0
 10
6045.1715499151268887
 20
325.8363839727501841
 30
0.0
 40
1.577434825478174
 50
5.44970152991944
 51
9.9788235969337116
  0
ARC
  5
2DDB6
  8
0
 10
6046.7561898443382233
 20
325.9868569479575058
 30
0.0
 40
0.0143504119293252
 50
182.6401335175542897
 51
208.6457251296426989
  0
ARC
  5
2DDB7
  8
0
 10
6038.889327362547192
 20
321.3298962222988848
 30
0.0
 40
9.12758402170655
 50
26.6780856227117589
 51
30.6274463319514503
  0
ARC
  5
2DDB8
  8
0
 10
6032.1075914662251307
 20
318.1878560449956126
 30
0.0
 40
16.5997586754350799
 50
19.8590894601926706
 51
25.8590036501913403
  0
ARC
  5
2DDB9
  8
0
 10
5920.1439199096021184
 20
277.2926243888554723
 30
0.0
 40
135.7981701604327895
 50
19.6742623134958592
 51
20.0397834699395894
  0
ARC
  5
2DDBA
  8
0
 10
6048.0255860217039299
 20
323.0161627494085224
 30
0.0
 40
0.0118535529142305
 50
200.0036622614900068
 51
289.7427975775178197
  0
ARC
  5
2DDBB
  8
0
 10
6043.6028505815747849
 20
330.846005926772591
 30
0.0
 40
0.0117346372113962
 50
141.8979475699186992
 51
202.8186987256960094
  0
ARC
  5
2DDBC
  8
0
 10
6056.5451419617083957
 20
336.2549505228859061
 30
0.0
 40
14.0388365070837509
 50
202.681525391168492
 51
204.0377301337090898
  0
LINE
  5
2DDBD
  8
0
 10
6043.7151961136587488
 20
330.5212549614811905
 30
0.0
 11
6043.6752662615581357
 21
330.4933744922811911
 31
0.0
  0
LINE
  5
2DDBE
  8
0
 10
6043.7699535527581247
 20
330.4396278585812183
 30
0.0
 11
6043.7302489166586383
 21
330.4119046433812059
 31
0.0
  0
LINE
  5
2DDBF
  8
0
 10
6043.8182512523580954
 20
330.3172941282812189
 30
0.0
 11
6043.7899677340583366
 21
330.2975455512811891
 31
0.0
  0
LINE
  5
2DDC0
  8
0
 10
6043.8768003849581874
 20
330.2805204328811897
 30
0.0
 11
6043.8375599551582127
 21
330.2531213432811796
 31
0.0
  0
LINE
  5
2DDC1
  8
0
 10
6043.9272125269581011
 20
330.1596630828811954
 30
0.0
 11
6043.898426786258824
 21
330.139563835981221
 31
0.0
  0
LINE
  5
2DDC2
  8
0
 10
6043.9039716402594422
 20
330.1138382996812197
 30
0.0
 11
6043.8651848967592741
 21
330.0867559902811763
 31
0.0
  0
LINE
  5
2DDC3
  8
0
 10
6043.9555433084588003
 20
329.9937905728812098
 30
0.0
 11
6043.9265617487581039
 21
329.9735554991812023
 31
0.0
  0
LINE
  5
2DDC4
  8
0
 10
6044.001232952189639
 20
329.9584524528539191
 30
0.0
 11
6043.9668642602591717
 21
329.9344549871811978
 31
0.0
  0
LINE
  5
2DDC5
  8
0
 10
6044.0305646639581028
 20
330.0520395997812102
 30
0.0
 11
6043.9920354677587966
 21
330.0251371193812133
 31
0.0
  0
LINE
  5
2DDC6
  8
0
 10
6044.0841956388585459
 20
329.9334297555811872
 30
0.0
 11
6044.0546504936583005
 21
329.9128002649811719
 31
0.0
  0
LINE
  5
2DDC7
  8
0
 10
6044.0588643305582082
 20
329.8426358351812269
 30
0.0
 11
6044.0295164058588853
 21
329.8221440510811817
 31
0.0
  0
LINE
  5
2DDC8
  8
0
 10
6044.0933540357591482
 20
329.7285620211812898
 30
0.0
 11
6044.0557151640587108
 21
329.7022811974812271
 31
0.0
  0
LINE
  5
2DDC9
  8
0
 10
6044.2236909952589485
 20
329.7657489407812932
 30
0.0
 11
6044.1860916701589304
 21
329.7394957299811722
 31
0.0
  0
LINE
  5
2DDCA
  8
0
 10
6044.281544879858302
 20
329.6500876850811892
 30
0.0
 11
6044.2509989117588702
 21
329.6287593836811993
 31
0.0
  0
LINE
  5
2DDCB
  8
0
 10
6044.1946459873379354
 20
329.6738389043978827
 30
0.0
 11
6044.1582400413581126
 21
329.6484189541811816
 31
0.0
  0
LINE
  5
2DDCC
  8
0
 10
6044.2534529684580775
 20
329.5588431351811778
 30
0.0
 11
6044.2231421459582634
 21
329.5376790209812157
 31
0.0
  0
LINE
  5
2DDCD
  8
0
 10
6044.3205778849587659
 20
329.3824456530812199
 30
0.0
 11
6044.2840876303589539
 21
329.3569668354812165
 31
0.0
  0
LINE
  5
2DDCE
  8
0
 10
6044.3815278789588774
 20
329.2689462130812217
 30
0.0
 11
6044.3506764898593246
 21
329.24740465568118
 31
0.0
  0
LINE
  5
2DDCF
  8
0
 10
6044.4462878033582456
 20
329.4358574085812847
 30
0.0
 11
6044.4097948046583042
 21
329.4103766750811815
 31
0.0
  0
LINE
  5
2DDD0
  8
0
 10
6044.5091988284593754
 20
329.3237272315811879
 30
0.0
 11
6044.4774422283580861
 21
329.3015536230811904
 31
0.0
  0
LINE
  5
2DDD1
  8
0
 10
6044.4522235771592023
 20
329.2882804293811887
 30
0.0
 11
6044.416149715559186
 21
329.2630923524811806
 31
0.0
  0
LINE
  5
2DDD2
  8
0
 10
6044.5158442885576733
 20
329.1766457810812199
 30
0.0
 11
6044.4841788135581737
 21
329.1545357993812218
 31
0.0
  0
LINE
  5
2DDD3
  8
0
 10
6044.4599379346245769
 20
329.1554803639983788
 30
0.0
 11
6044.4305368649584125
 21
329.1349514721812284
 31
0.0
  0
LINE
  5
2DDD4
  8
0
 10
6044.5305583600584214
 20
329.0487331695812259
 30
0.0
 11
6044.4989337256592989
 21
329.0266517042812211
 31
0.0
  0
LINE
  5
2DDD5
  8
0
 10
6044.6867053435580601
 20
329.0785641933812258
 30
0.0
 11
6044.6514287100580987
 21
329.0539327700813033
 31
0.0
  0
LINE
  5
2DDD6
  8
0
 10
6044.7551373279593463
 20
328.9702889501812137
 30
0.0
 11
6044.7220479003581204
 21
328.9471847131811728
 31
0.0
  0
LINE
  5
2DDD7
  8
0
 10
6044.7426888492582293
 20
328.8481349895811832
 30
0.0
 11
6044.7081487704581377
 21
328.8240178553812143
 31
0.0
  0
ARC
  5
2DDD8
  8
0
 10
6044.6406050884497745
 20
328.8833417807547903
 30
0.0
 40
0.0209502182689815
 50
322.5008038867974847
 51
36.4921010975219815
  0
ARC
  5
2DDD9
  8
0
 10
6044.8188197095059877
 20
328.7496177519009279
 30
0.0
 40
0.2018572394651522
 50
143.1810942268890017
 51
153.259631449058304
  0
ARC
  5
2DDDA
  8
0
 10
6044.7021133317748536
 20
328.808467409572927
 30
0.0
 40
0.0711527816634594
 50
153.2951574235356134
 51
183.9095112422810985
  0
ARC
  5
2DDDB
  8
0
 10
6044.7134083572500458
 20
328.8100154568529092
 30
0.0
 40
0.0825307032741355
 50
184.4470936710036995
 51
202.1465637476798918
  0
ARC
  5
2DDDC
  8
0
 10
6044.8102615129955666
 20
328.8527406524930825
 30
0.0
 40
0.1883695856463153
 50
203.0778470364485884
 51
211.0967280811767068
  0
ARC
  5
2DDDD
  8
0
 10
6044.66105407600935
 20
328.8965233585932992
 30
0.0
 40
0.0036779028336037
 50
68.3611059269176735
 51
191.3248090677641073
  0
ARC
  5
2DDDE
  8
0
 10
6044.5690927117211686
 20
328.7719659581434257
 30
0.0
 40
0.1583857976657186
 50
40.580285457317963
 51
53.9012192873658975
  0
ARC
  5
2DDDF
  8
0
 10
6044.1540664892090717
 20
328.4163193981553945
 30
0.0
 40
0.7049489112149337
 50
36.3115858747469105
 51
40.5910080138724183
  0
ARC
  5
2DDE0
  8
0
 10
6043.7031857678803135
 20
330.5380806811493812
 30
0.0
 40
0.0206725239892765
 50
305.5195777879201273
 51
15.6175467688780696
  0
ARC
  5
2DDE1
  8
0
 10
6041.8186910542526675
 20
329.602949968247799
 30
0.0
 40
2.1240677295007568
 50
23.2159280362851206
 51
26.2874487767040712
  0
ARC
  5
2DDE2
  8
0
 10
6043.7569204235469442
 20
330.457392182811418
 30
0.0
 40
0.0220325593701987
 50
306.2663322513733988
 51
13.7530326120381794
  0
ARC
  5
2DDE3
  8
0
 10
6043.8299509947710249
 20
330.2996239245396168
 30
0.0
 40
0.0211924532034312
 50
34.404083154988939
 51
123.5092201631313031
  0
ARC
  5
2DDE4
  8
0
 10
6043.0173337508140321
 20
330.0230579644837121
 30
0.0
 40
0.8788206576372699
 50
19.1672414242827109
 51
30.0121852152167392
  0
ARC
  5
2DDE5
  8
0
 10
6043.861865903774742
 20
330.2997257257611068
 30
0.0
 40
0.024328625173372
 50
307.8694646329215061
 51
10.0532822950464897
  0
ARC
  5
2DDE6
  8
0
 10
6043.9401173919959547
 20
330.1384308275223134
 30
0.0
 40
0.0248464124024176
 50
48.9609099801455514
 51
121.2910375905582043
  0
ARC
  5
2DDE7
  8
0
 10
6043.4214568687948486
 20
329.9902360770914811
 30
0.0
 40
0.5604147152935804
 50
17.3302206308194293
 51
34.0439899717338434
  0
ARC
  5
2DDE8
  8
0
 10
6043.8917846358917814
 20
330.1307456538174279
 30
0.0
 40
0.0208418257188873
 50
305.7844724916355972
 51
17.3503174199831207
  0
ARC
  5
2DDE9
  8
0
 10
6043.9688013912300448
 20
329.9721820002523032
 30
0.0
 40
0.0253516699616339
 50
59.3507023518301509
 51
121.5314726115893933
  0
ARC
  5
2DDEA
  8
0
 10
6041.9785582521653851
 20
329.1011916716806809
 30
0.0
 40
2.193118906255521
 50
24.0222692817809182
 51
28.1824900204066893
  0
ARC
  5
2DDEB
  8
0
 10
6044.0118944051118888
 20
330.0732519119055723
 30
0.0
 40
0.0282584633529206
 50
311.352989221787027
 51
6.0829868282985391
  0
ARC
  5
2DDEC
  8
0
 10
6044.0970102774590487
 20
329.9102613247612226
 30
0.0
 40
0.0264762374429178
 50
50.3505515143959386
 51
118.9473213121762001
  0
ARC
  5
2DDED
  8
0
 10
6043.7247472766866849
 20
329.8246582927733925
 30
0.0
 40
0.4033322867587068
 50
15.2352425163778094
 51
38.5922480750558279
  0
ARC
  5
2DDEE
  8
0
 10
6044.0716193290136289
 20
329.8216863547548883
 30
0.0
 40
0.0245269385725769
 50
50.6146357113738929
 51
121.3349601479054058
  0
ARC
  5
2DDEF
  8
0
 10
6043.5367555367520254
 20
329.6402998079174154
 30
0.0
 40
0.5857535883650642
 50
20.0003940524582013
 51
27.7586511616356013
  0
ARC
  5
2DDF0
  8
0
 10
6044.081021857403357
 20
329.7455753287815128
 30
0.0
 40
0.0210127403857707
 50
305.9366599184658071
 51
15.6082549096221506
  0
ARC
  5
2DDF1
  8
0
 10
6041.6585859441865978
 20
328.383838303991979
 30
0.0
 40
2.799359300663117
 50
27.4512172674060011
 51
29.2397788400866609
  0
ARC
  5
2DDF2
  8
0
 10
6044.2751121490118749
 20
329.5349607720190761
 30
0.0
 40
0.1912881434670338
 50
135.5089455953722108
 51
142.7530142938356903
  0
ARC
  5
2DDF3
  8
0
 10
6044.118641917792047
 20
329.6886756260291236
 30
0.0
 40
0.0280544871394577
 50
315.5089455953745983
 51
19.0194894952329889
  0
ARC
  5
2DDF4
  8
0
 10
6043.8284875517383625
 20
329.4544627429260117
 30
0.0
 40
0.3993825675907731
 50
30.6516931786504294
 51
37.5410323300151489
  0
ARC
  5
2DDF5
  8
0
 10
6044.206670174196006
 20
329.7860242182414936
 30
0.0
 40
0.0264725371985422
 50
310.0130039598853955
 51
11.0960310200672101
  0
ARC
  5
2DDF6
  8
0
 10
6044.2960439730186408
 20
329.6228922136136248
 30
0.0
 40
0.0308191072356527
 50
60.1987528078270699
 51
118.0640253718921002
  0
ARC
  5
2DDF7
  8
0
 10
6043.997291388600388
 20
329.5675431443493153
 30
0.0
 40
0.3246210147893979
 50
14.64842653021954
 51
43.5295609055220183
  0
ARC
  5
2DDF8
  8
0
 10
6044.2665308385912795
 20
329.5365028275328996
 30
0.0
 40
0.0258866767475279
 50
52.1020881676877679
 51
120.3444272002328006
  0
ARC
  5
2DDF9
  8
0
 10
6043.878245549222811
 20
329.423835589412306
 30
0.0
 40
0.4255358635638412
 50
18.2262048591641417
 51
28.8025159409309204
  0
ARC
  5
2DDFA
  8
0
 10
6044.2205309350856623
 20
329.6318848423380246
 30
0.0
 40
0.1912837731819278
 50
276.0155505348070051
 51
281.8518454943682059
  0
ARC
  5
2DDFB
  8
0
 10
6044.2654557289606601
 20
329.4178098769950225
 30
0.0
 40
0.0274542616710285
 50
35.3251130118377077
 51
101.8518454943682059
  0
ARC
  5
2DDFC
  8
0
 10
6043.1764541842767358
 20
328.9807154617013225
 30
0.0
 40
1.2001637783690109
 50
22.1741213705643503
 51
28.1022511794710006
  0
ARC
  5
2DDFD
  8
0
 10
6044.3073427957178865
 20
329.3999560940192168
 30
0.0
 40
0.0219495587437802
 50
307.0834416618923797
 51
21.5307824225099012
  0
ARC
  5
2DDFE
  8
0
 10
6044.3935150537618028
 20
329.2498231120865739
 30
0.0
 40
0.022569566930118
 50
42.7643032396104772
 51
122.0812391347025994
  0
ARC
  5
2DDFF
  8
0
 10
6043.8810468198580566
 20
329.0554465769961894
 30
0.0
 40
0.5690829577523885
 50
21.6224710610303106
 51
38.2819570686115611
  0
ARC
  5
2DE00
  8
0
 10
6044.4296634655265734
 20
329.4557856596135252
 30
0.0
 40
0.0259519517098553
 50
309.8351874899980203
 51
14.2776607930063495
  0
ARC
  5
2DE01
  8
0
 10
6044.5244534063776882
 20
329.293518752917123
 30
0.0
 40
0.0338416065029915
 50
64.5268244478286164
 51
116.7927119797454054
  0
ARC
  5
2DE02
  8
0
 10
6044.2697288395265787
 20
329.2546391109369779
 30
0.0
 40
0.2780865727980526
 50
14.4583089727128407
 51
48.2742366178622717
  0
ARC
  5
2DE03
  8
0
 10
6044.4420777713958159
 20
329.3027261362561262
 30
0.0
 40
0.017652643475655
 50
305.0819238431940903
 51
347.3511727476222859
  0
ARC
  5
2DE04
  8
0
 10
6044.5293301801548296
 20
329.1517991154429978
 30
0.0
 40
0.0282705865785128
 50
56.5791905542519018
 51
118.4915449278299064
  0
ARC
  5
2DE05
  8
0
 10
6044.1587158197007739
 20
329.0435952873094152
 30
0.0
 40
0.4080567501048267
 50
18.844076098661251
 51
39.0199209333516421
  0
ARC
  5
2DE06
  8
0
 10
6044.5430294195875831
 20
329.0272141685925931
 30
0.0
 40
0.0248715646738759
 50
50.1908980510392695
 51
120.0938833494705023
  0
ARC
  5
2DE07
  8
0
 10
6044.0387479609998991
 20
328.8324137428053859
 30
0.0
 40
0.5624670444234187
 50
22.3522768013264184
 51
35.8517660493186767
  0
ARC
  5
2DE08
  8
0
 10
6044.6652167972779353
 20
329.1028808149316092
 30
0.0
 40
0.0324508197869597
 50
311.4669630156186031
 51
3.737267519479095
  0
ARC
  5
2DE09
  8
0
 10
6044.768939441861221
 20
328.9434287367686238
 30
0.0
 40
0.030198831314438
 50
58.7193396850664371
 51
117.1963538363329036
  0
ARC
  5
2DE0A
  8
0
 10
6044.5349266627772522
 20
328.9049540334517019
 30
0.0
 40
0.2578351253582698
 50
14.4373233250106701
 51
50.8823675247288705
  0
ARC
  5
2DE0B
  8
0
 10
6044.6061419936213497
 20
328.9477225898804136
 30
0.0
 40
0.0823276247590305
 50
17.5838719117241595
 51
48.2233460174658717
  0
ARC
  5
2DE0C
  8
0
 10
6044.7379711359553767
 20
329.0328887098793871
 30
0.0
 40
0.0843462234670426
 50
198.1491121145407135
 51
227.5498842180878114
  0
ARC
  5
2DE0D
  8
0
 10
6044.6599169124792752
 20
329.007219935924013
 30
0.0
 40
0.0021810899737667
 50
60.4974602185424217
 51
196.0855912731819899
  0
ARC
  5
2DE0E
  8
0
 10
6044.6824317325863376
 20
328.9723622680249946
 30
0.0
 40
0.0022033971158465
 50
230.8904140175993973
 51
6.0342158141789879
  0
ARC
  5
2DE0F
  8
0
 10
6044.6645085230347831
 20
329.0360110387834993
 30
0.0
 40
0.0221871575510553
 50
126.123080762180507
 51
183.6959748796452061
  0
ARC
  5
2DE10
  8
0
 10
6044.6974445347150322
 20
329.0386708139492953
 30
0.0
 40
0.0552286760493736
 50
184.2469773645115083
 51
199.723116536725712
  0
ARC
  5
2DE11
  8
0
 10
6044.8373998946472057
 20
329.0967310211656809
 30
0.0
 40
0.2067006690299379
 50
201.7810524382819892
 51
220.4523206497707974
  0
ARC
  5
2DE12
  8
0
 10
6044.7402740184370487
 20
329.0125061502167796
 30
0.0
 40
0.0781541223428127
 50
219.6650343160960972
 51
237.0987664400651056
  0
ARC
  5
2DE13
  8
0
 10
6044.7097101307008415
 20
328.9653207656642167
 30
0.0
 40
0.0219348343918075
 50
237.1795887260180109
 51
304.2270507440753136
  0
ARC
  5
2DE14
  8
0
 10
6044.4419876318852403
 20
329.118933898148498
 30
0.0
 40
0.0196896607666079
 50
125.5605107161892988
 51
185.8658403728217081
  0
ARC
  5
2DE15
  8
0
 10
6044.463053688794389
 20
329.1219181358849823
 30
0.0
 40
0.0409585244538486
 50
187.0069374657734045
 51
201.9871588272866063
  0
ARC
  5
2DE16
  8
0
 10
6044.7422424841051907
 20
329.2483114429940088
 30
0.0
 40
0.347394016899875
 50
204.0777006866755983
 51
218.0646368941235096
  0
ARC
  5
2DE17
  8
0
 10
6044.4985149280355472
 20
329.0586786991152053
 30
0.0
 40
0.0385975794648276
 50
219.5038056987505968
 51
239.2039161358511024
  0
ARC
  5
2DE18
  8
0
 10
6044.4879229910620779
 20
329.0425565741082892
 30
0.0
 40
0.0193442797891774
 50
241.7049881656000991
 51
304.6943520167371275
  0
ARC
  5
2DE19
  8
0
 10
6044.5465168259361235
 20
329.1290311518089879
 30
0.0
 40
0.1160873527267141
 50
199.3302107673029866
 51
223.0593723423289987
  0
ARC
  5
2DE1A
  8
0
 10
6044.3559793849790367
 20
329.0136612481248903
 30
0.0
 40
0.1117157072310143
 50
18.8587625602110691
 51
43.5308205494460196
  0
ARC
  5
2DE1B
  8
0
 10
6044.4727542367600108
 20
329.1713798037836227
 30
0.0
 40
0.0203529221323644
 50
240.5324290390065016
 51
304.1473873515005266
  0
ARC
  5
2DE1C
  8
0
 10
6044.4852989402661478
 20
329.1914732868004876
 30
0.0
 40
0.0440303429337483
 50
221.4762606978572137
 51
239.1825595962278896
  0
ARC
  5
2DE1D
  8
0
 10
6044.6479303749010796
 20
329.3271932093578016
 30
0.0
 40
0.2558383424693609
 50
202.5603691197941885
 51
220.126391255063794
  0
ARC
  5
2DE1E
  8
0
 10
6044.4708712562969595
 20
329.252882148408105
 30
0.0
 40
0.063822375913317
 50
188.2005264330601904
 51
201.9368258296609042
  0
ARC
  5
2DE1F
  8
0
 10
6044.4278692968346149
 20
329.2464613676946783
 30
0.0
 40
0.0203454722301468
 50
125.1717230125899931
 51
187.5769831429230123
  0
ARC
  5
2DE20
  8
0
 10
6044.4656170036978438
 20
329.3187659286576263
 30
0.0
 40
0.0208829931164433
 50
246.5851675763223056
 51
304.4899036087513196
  0
ARC
  5
2DE21
  8
0
 10
6044.4778615446757613
 20
329.341653837246497
 30
0.0
 40
0.0468009191309981
 50
221.9486535836734902
 51
243.9632636338247949
  0
ARC
  5
2DE22
  8
0
 10
6044.6111224316518928
 20
329.4548331393880858
 30
0.0
 40
0.2216235145543826
 50
201.4177005332375927
 51
220.6808070578709078
  0
ARC
  5
2DE23
  8
0
 10
6044.4688930176062058
 20
329.3981793638022282
 30
0.0
 40
0.0685328082007225
 50
187.8988631655008987
 51
200.745246066687514
  0
ARC
  5
2DE24
  8
0
 10
6044.4238877421694269
 20
329.3920567284671961
 30
0.0
 40
0.0231134448230963
 50
127.5699102015303055
 51
188.1970759993268985
  0
ARC
  5
2DE25
  8
0
 10
6044.4986101887725454
 20
329.3869478335658982
 30
0.0
 40
0.0863906809698773
 50
195.5900504998209897
 51
225.6704496995720888
  0
ARC
  5
2DE26
  8
0
 10
6044.439159713781919
 20
329.3264522294795142
 30
0.0
 40
0.0015934438161506
 50
234.8235391002237122
 51
9.8495828687704687
  0
ARC
  5
2DE27
  8
0
 10
6044.3605365055937
 20
329.305489895804385
 30
0.0
 40
0.0829570080719392
 50
14.83136009928959
 51
45.9102228572040687
  0
ARC
  5
2DE28
  8
0
 10
6044.4170816548657967
 20
329.3638607994196263
 30
0.0
 40
0.0016888329054274
 50
45.9102228572018021
 51
184.4380109858988135
  0
ARC
  5
2DE29
  8
0
 10
6044.4993508991792623
 20
329.2369055768106136
 30
0.0
 40
0.0790813058397054
 50
193.4232472500806068
 51
228.4566272368433033
  0
ARC
  5
2DE2A
  8
0
 10
6044.3713386965828249
 20
329.1601706135180052
 30
0.0
 40
0.0775768673947637
 50
13.0722118805381093
 51
48.8076626063556418
  0
ARC
  5
2DE2B
  8
0
 10
6044.2953894056709032
 20
329.3411419997574967
 30
0.0
 40
0.0194462220212855
 50
125.5336528256170965
 51
185.0722651605362046
  0
ARC
  5
2DE2C
  8
0
 10
6044.3189347813404311
 20
329.3450643255101227
 30
0.0
 40
0.0432846766663992
 50
187.4890839419869906
 51
201.9640239360518876
  0
ARC
  5
2DE2D
  8
0
 10
6044.6682629261604234
 20
329.5021884157800969
 30
0.0
 40
0.4262926246685902
 50
203.9889340405983091
 51
214.980207779754096
  0
ARC
  5
2DE2E
  8
0
 10
6044.3632089432767316
 20
329.2897820914690783
 30
0.0
 40
0.0545820759947051
 50
215.8728146812946989
 51
230.2781569553592931
  0
ARC
  5
2DE2F
  8
0
 10
6044.3397777201607823
 20
329.2631860046233214
 30
0.0
 40
0.0191790029805544
 50
233.3439413746149
 51
304.6293765908637283
  0
ARC
  5
2DE30
  8
0
 10
6044.4223510330093632
 20
329.3606095391015174
 30
0.0
 40
0.1407999885977505
 50
200.0360746467744093
 51
219.5995963690176893
  0
ARC
  5
2DE31
  8
0
 10
6044.1833926545114082
 20
329.2236579851697229
 30
0.0
 40
0.1387458603445554
 50
19.8898000314569607
 51
39.7458709843281994
  0
ARC
  5
2DE32
  8
0
 10
6044.198299484666677
 20
329.7225073105640263
 30
0.0
 40
0.020919778425498
 50
125.7008824957453044
 51
178.1526637860644087
  0
ARC
  5
2DE33
  8
0
 10
6044.2235615242616404
 20
329.7228006000188998
 30
0.0
 40
0.0461725180745888
 50
179.5270959920418079
 51
196.5032044074517898
  0
ARC
  5
2DE34
  8
0
 10
6044.3084818882025502
 20
329.7477794124482102
 30
0.0
 40
0.134690307065844
 50
196.4294169603130058
 51
202.0918894140887119
  0
ARC
  5
2DE35
  8
0
 10
6044.4420710994099863
 20
329.8045870591093944
 30
0.0
 40
0.2798468617731094
 50
202.582237903317008
 51
213.6564489771575097
  0
ARC
  5
2DE36
  8
0
 10
6044.3024268601548101
 20
329.7105619048053882
 30
0.0
 40
0.1115039501373182
 50
213.2085005640583972
 51
222.9039881727547936
  0
ARC
  5
2DE37
  8
0
 10
6044.2445806535479278
 20
329.6563941552599886
 30
0.0
 40
0.0322573563179338
 50
222.3754449774993986
 51
249.1344784352590125
  0
ARC
  5
2DE38
  8
0
 10
6044.2395265618579288
 20
329.6454952443053799
 30
0.0
 40
0.0202904865163411
 50
251.5091380221651036
 51
304.4304451959544053
  0
ARC
  5
2DE39
  8
0
 10
6044.2669507058799354
 20
329.7083028731303784
 30
0.0
 40
0.076700859303182
 50
190.5129236049793917
 51
226.6626315972332861
  0
ARC
  5
2DE3A
  8
0
 10
6044.1429629016220133
 20
329.6407368353255265
 30
0.0
 40
0.0723144103603711
 50
9.3748966862869967
 51
47.8006585159617785
  0
ARC
  5
2DE3B
  8
0
 10
6044.1698195415910959
 20
329.6322374718664037
 30
0.0
 40
0.0198978691204005
 50
125.5875833504506005
 51
179.4150440686987906
  0
ARC
  5
2DE3C
  8
0
 10
6044.1947197868203148
 20
329.6343490883625122
 30
0.0
 40
0.0448377119776453
 50
182.4394773594858066
 51
199.3286653613781141
  0
ARC
  5
2DE3D
  8
0
 10
6044.4437862037211744
 20
329.7311952903858128
 30
0.0
 40
0.3120487803001762
 50
200.9721927137995863
 51
217.0549312519889043
  0
ARC
  5
2DE3E
  8
0
 10
6044.2168899617308853
 20
329.5622658253627151
 30
0.0
 40
0.0292410889717308
 50
220.7955766906061115
 51
244.4675013053318082
  0
ARC
  5
2DE3F
  8
0
 10
6044.2120744794556231
 20
329.5539702457525095
 30
0.0
 40
0.0196951071680525
 50
246.7070061172171052
 51
304.1907644133609097
  0
ARC
  5
2DE40
  8
0
 10
6044.267097427097724
 20
329.6324567311493752
 30
0.0
 40
0.1073283247449909
 50
195.715462862077402
 51
221.4000522577869106
  0
ARC
  5
2DE41
  8
0
 10
6044.0865834645846917
 20
329.534209903824717
 30
0.0
 40
0.1036570551848814
 50
15.25241666295363
 51
41.8630984568979727
  0
ARC
  5
2DE42
  8
0
 10
6044.1803759162166898
 20
329.6075831798816012
 30
0.0
 40
0.071921559934132
 50
143.1267104076555086
 51
203.5995359930010125
  0
ARC
  5
2DE43
  8
0
 10
6044.2337664527303787
 20
329.5144267422205075
 30
0.0
 40
0.0730903436179578
 50
211.2069168556398893
 51
275.3489277918228026
  0
ARC
  5
2DE44
  8
0
 10
6044.8344217144422146
 20
329.9117809437162236
 30
0.0
 40
0.7932302605285462
 50
204.8213957568574983
 51
213.2760654552195092
  0
ARC
  5
2DE45
  8
0
 10
6043.7024700622478122
 20
329.2752142230725099
 30
0.0
 40
0.5116609118917268
 50
22.4198376905089702
 51
36.3278047553414325
  0
ARC
  5
2DE46
  8
0
 10
6044.066634424253607
 20
329.6869651852255743
 30
0.0
 40
0.0188098504685907
 50
125.4862488679120958
 51
204.7546237335959916
  0
ARC
  5
2DE47
  8
0
 10
6046.9591127659896301
 20
331.1567992264216969
 30
0.0
 40
3.263305957116748
 50
206.9251533503752967
 51
208.5540624471827016
  0
ARC
  5
2DE48
  8
0
 10
6044.1092391323682023
 20
329.606604509304816
 30
0.0
 40
0.0191067140477022
 50
210.2505507387396051
 51
276.1439421491703001
  0
ARC
  5
2DE49
  8
0
 10
6043.9779206961338787
 20
329.918822288086119
 30
0.0
 40
0.0191474816952205
 50
125.2703715473274002
 51
183.4213141962630118
  0
ARC
  5
2DE4A
  8
0
 10
6043.9952858406941232
 20
329.9208813854223763
 30
0.0
 40
0.0366187424812145
 50
185.016086067990102
 51
198.7795700829067016
  0
ARC
  5
2DE4B
  8
0
 10
6044.4037977031230184
 20
330.0830335610904172
 30
0.0
 40
0.4760934227329626
 50
201.4291299498171099
 51
212.1231808593568928
  0
ARC
  5
2DE4C
  8
0
 10
6044.0291110950129223
 20
329.8494048732968054
 30
0.0
 40
0.0345660931513937
 50
214.4022695825576079
 51
230.2928945796321898
  0
ARC
  5
2DE4D
  8
0
 10
6044.0187282572260301
 20
329.8378201605053164
 30
0.0
 40
0.0190295706098328
 50
232.0596020779682078
 51
304.5353768537548262
  0
ARC
  5
2DE4E
  8
0
 10
6043.8353832660222906
 20
329.7931557676362218
 30
0.0
 40
0.1668236834454702
 50
18.6146954174843913
 51
35.0905797832331885
  0
ARC
  5
2DE4F
  8
0
 10
6044.1329749608412385
 20
329.9438234671275154
 30
0.0
 40
0.1701440527074353
 50
198.7765434025353954
 51
214.9287317981807917
  0
ARC
  5
2DE50
  8
0
 10
6044.0878290781929536
 20
329.9988597894849249
 30
0.0
 40
0.0928903015632804
 50
191.9837514454106042
 51
221.7239406060398892
  0
ARC
  5
2DE51
  8
0
 10
6043.9296092785198198
 20
329.9187504945031719
 30
0.0
 40
0.0907517149091975
 50
11.6249477342902008
 51
42.0827443171398272
  0
ARC
  5
2DE52
  8
0
 10
6044.0039180426247185
 20
330.0085696602386065
 30
0.0
 40
0.0203881408644457
 50
125.6489886922123986
 51
181.593946488041297
  0
ARC
  5
2DE53
  8
0
 10
6044.0453766526752588
 20
330.0124557772039111
 30
0.0
 40
0.0619990010919003
 50
184.1189602579680127
 51
198.8043046910214002
  0
ARC
  5
2DE54
  8
0
 10
6044.2732970926936105
 20
330.094903818961825
 30
0.0
 40
0.3043647020619904
 50
199.6665527496818981
 51
214.3989482511049118
  0
ARC
  5
2DE55
  8
0
 10
6044.0596494596538832
 20
329.9501145101028783
 30
0.0
 40
0.0462963339718798
 50
215.9232327517385954
 51
234.1398788206604138
  0
ARC
  5
2DE56
  8
0
 10
6044.0434317766694221
 20
329.9295945589515782
 30
0.0
 40
0.0201967304494931
 50
237.3269290325930001
 51
303.7432268007194125
  0
ARC
  5
2DE57
  8
0
 10
6043.8759287985558331
 20
330.0714790245407926
 30
0.0
 40
0.0186766460602666
 50
125.1177461171367042
 51
193.9699852970495897
  0
ARC
  5
2DE58
  8
0
 10
6043.912698166552218
 20
330.0829878044062866
 30
0.0
 40
0.0571827797648238
 50
196.2668818350014988
 51
203.9046581919747894
  0
ARC
  5
2DE59
  8
0
 10
6045.0837049193478379
 20
330.610087761231398
 30
0.0
 40
1.3413513281537921
 50
204.2196948075732905
 51
207.9622695307741083
  0
ARC
  5
2DE5A
  8
0
 10
6043.92001014559537
 20
329.9927507630014247
 30
0.0
 40
0.0240500984327572
 50
208.8626334046116995
 51
230.5396709531057979
  0
ARC
  5
2DE5B
  8
0
 10
6043.9160869401030141
 20
329.9893119031008837
 30
0.0
 40
0.0189205148146104
 50
233.0946006973196916
 51
303.6158372063695765
  0
ARC
  5
2DE5C
  8
0
 10
6044.3831557455150687
 20
330.2646481374717951
 30
0.0
 40
0.5597594690688839
 50
203.5310794270091037
 51
208.4312413739478984
  0
ARC
  5
2DE5D
  8
0
 10
6043.4489108527150165
 20
329.8093666642511721
 30
0.0
 40
0.4806243589598002
 50
23.1273617494504009
 51
28.8349590515331009
  0
ARC
  5
2DE5E
  8
0
 10
6043.8491861350839827
 20
330.2369528321551115
 30
0.0
 40
0.0199145376968982
 50
125.7185187178439065
 51
187.5220527442905052
  0
ARC
  5
2DE5F
  8
0
 10
6043.887183136069325
 20
330.2422363329135919
 30
0.0
 40
0.058276806396701
 50
187.7815413480437883
 51
198.0313287481965006
  0
ARC
  5
2DE60
  8
0
 10
6044.2003261100408054
 20
330.3546828392517227
 30
0.0
 40
0.3909746377138641
 50
199.4961627350947992
 51
211.7789275496903088
  0
ARC
  5
2DE61
  8
0
 10
6043.8982814405771933
 20
330.1686244533407262
 30
0.0
 40
0.0362354585329562
 50
213.208574566747302
 51
233.7123888063023003
  0
ARC
  5
2DE62
  8
0
 10
6043.8875236218946156
 20
330.1552893759258041
 30
0.0
 40
0.0191356107733924
 50
236.0460809129230881
 51
304.7351630194543191
  0
ARC
  5
2DE63
  8
0
 10
6043.7424122578822789
 20
330.1331842420588032
 30
0.0
 40
0.1241989086495776
 50
14.4510314919430805
 51
36.6141269788027017
  0
ARC
  5
2DE64
  8
0
 10
6043.9657225859646132
 20
330.2398537127594977
 30
0.0
 40
0.1278443778689744
 50
194.7708474778210075
 51
216.2943109929109937
  0
ARC
  5
2DE65
  8
0
 10
6043.7792588823731421
 20
330.3130313239821021
 30
0.0
 40
0.018827869251998
 50
247.8926581490227079
 51
304.6649591811437858
  0
ARC
  5
2DE66
  8
0
 10
6043.7826459695761514
 20
330.3177347668270158
 30
0.0
 40
0.0244984458926434
 50
211.5840268033298059
 51
244.6916693847410045
  0
ARC
  5
2DE67
  8
0
 10
6044.267552825464918
 20
330.5882133210523079
 30
0.0
 40
0.5797189866116741
 50
200.452071663308601
 51
209.2552749933539928
  0
ARC
  5
2DE68
  8
0
 10
6043.7586286724354068
 20
330.3979017122920254
 30
0.0
 40
0.0363788061662129
 50
180.508322606254012
 51
199.6880164399969999
  0
ARC
  5
2DE69
  8
0
 10
6043.741052054220745
 20
330.3964782981436201
 30
0.0
 40
0.0188329474212706
 50
125.0037240727500034
 51
176.6495073238953921
  0
ARC
  5
2DE6A
  8
0
 10
6043.5591642652861992
 20
330.2590159653706792
 30
0.0
 40
0.2053542241924889
 50
17.9821431180484304
 51
31.3460279374041093
  0
ARC
  5
2DE6B
  8
0
 10
6043.9337993554190689
 20
330.4310444263934983
 30
0.0
 40
0.2096509422876174
 50
198.1196920713308884
 51
211.2084789841134125
  0
ARC
  5
2DE6C
  8
0
 10
6043.6859551325942448
 20
330.4781336160198748
 30
0.0
 40
0.0186154847696606
 50
125.0430994244413938
 51
185.9665978834653117
  0
ARC
  5
2DE6D
  8
0
 10
6043.7020114441947953
 20
330.481806929230288
 30
0.0
 40
0.0350229121786357
 50
189.2146889437196933
 51
202.2109910274375011
  0
ARC
  5
2DE6E
  8
0
 10
6045.150785045631892
 20
331.0877658131414023
 30
0.0
 40
1.605413704087179
 50
202.6868219329456053
 51
205.9131629731762985
  0
ARC
  5
2DE6F
  8
0
 10
6043.7263913515644163
 20
330.3962607615198976
 30
0.0
 40
0.0220442117883856
 50
207.1939253919364887
 51
229.5258364709164027
  0
ARC
  5
2DE70
  8
0
 10
6043.7238224897337204
 20
330.3937975980077795
 30
0.0
 40
0.0185064356483736
 50
230.6258419268079081
 51
283.5202350073466846
  0
ARC
  5
2DE71
  8
0
 10
6043.1363216468780593
 20
330.1764591959856148
 30
0.0
 40
0.6068691223690365
 50
21.9819347304399884
 51
26.4966219432501191
  0
ARC
  5
2DE72
  8
0
 10
6044.2601433980562433
 20
330.6824510299472877
 30
0.0
 40
0.6265363730388323
 50
202.0528287077814014
 51
206.4257279659015865
  0
LINE
  5
2DE73
  8
0
 10
6043.8218441634098781
 20
330.3192045107945205
 30
0.0
 11
6043.8491022667631114
 21
330.2611806033721109
 31
0.0
  0
LINE
  5
2DE74
  8
0
 10
6043.9043916613700276
 20
330.1437287278574786
 30
0.0
 11
6043.912346465533119
 21
330.1273408247275825
 31
0.0
  0
LINE
  5
2DE75
  8
0
 10
6043.9756686213049761
 20
329.9965858589827121
 30
0.0
 11
6043.9964604407541628
 21
329.9551201124905901
 31
0.0
  0
LINE
  5
2DE76
  8
0
 10
6044.0542705331354227
 20
329.8394282794188257
 30
0.0
 11
6044.1019593887003793
 21
329.7473515724835238
 31
0.0
  0
LINE
  5
2DE77
  8
0
 10
6044.2636252077682002
 20
329.445203045414587
 30
0.0
 11
6044.3045198447816801
 21
329.3712333477373022
 31
0.0
  0
LINE
  5
2DE78
  8
0
 10
6044.4854792806627302
 20
329.0233672687522812
 30
0.0
 11
6044.5477297262577849
 21
328.8761728691811754
 31
0.0
  0
ARC
  5
2DE79
  8
0
 10
6044.5549818631516246
 20
328.8792398932379797
 30
0.0
 40
0.0078740158803652
 50
202.9241410547382998
 51
292.9241398688250229
  0
LINE
  5
2DE7A
  8
0
 10
6044.5580488870582485
 20
328.8719877562812144
 30
0.0
 11
6044.5769589104584156
 21
328.879985053681196
 31
0.0
  0
ARC
  5
2DE7B
  8
0
 10
6044.5846264703632187
 20
328.8618547116446962
 30
0.0
 40
0.0196850394274518
 50
56.3611860285562969
 51
112.9241406432176973
  0
LINE
  5
2DE7C
  8
0
 10
6044.5955311095567595
 20
328.8782434157220109
 30
0.0
 11
6044.5980919113962955
 21
328.8765549279580114
 31
0.0
  0
LINE
  5
2DE7D
  8
0
 10
6044.3518407608089547
 20
329.2482175918323151
 30
0.0
 11
6044.4231185250300769
 21
329.1245588023792266
 31
0.0
  0
ARC
  5
2DE7E
  8
0
 10
6042.5168961053950625
 20
327.6667891239372921
 30
0.0
 40
2.4069339625024502
 50
32.0613836369024199
 51
34.4543894556477213
  0
ARC
  5
2DE7F
  8
0
 10
6042.1460484640429058
 20
327.4292342747239104
 30
0.0
 40
2.847324031609352
 50
30.4827385348265487
 51
32.1512681343628017
  0
ARC
  5
2DE80
  8
0
 10
6043.3531882543147731
 20
328.1387741674354857
 30
0.0
 40
1.447098413253771
 50
27.9510307377979998
 51
30.5178835950649017
  0
ARC
  5
2DE81
  8
0
 10
6044.7258007196151084
 20
328.8686347231382001
 30
0.0
 40
0.0265602710598205
 50
309.4824446385226224
 51
13.5220866175489398
  0
ARC
  5
2DE82
  8
0
 10
6044.7206415378550446
 20
328.8069493010106044
 30
0.0
 40
0.0211519451946097
 50
126.2010361813825057
 51
184.6374456978738863
  0
ARC
  5
2DE83
  8
0
 10
6044.7577882658188173
 20
328.8126363013874993
 30
0.0
 40
0.0586973925200445
 50
187.2397589414210017
 51
206.1643828302734107
  0
ARC
  5
2DE84
  8
0
 10
6044.7166249663559938
 20
328.778252451412186
 30
0.0
 40
0.0015377007956457
 50
51.7025915979844086
 51
197.5091859257263991
  0
ARC
  5
2DE85
  8
0
 10
6030.0590684234148284
 20
319.5929490839636173
 30
0.0
 40
17.2613258903609115
 50
32.3785599678505989
 51
33.1583030279084525
  0
ARC
  5
2DE86
  8
0
 10
6022.6458571833263704
 20
314.8233017461186023
 30
0.0
 40
26.0933101140216195
 50
32.5276718292757323
 51
33.0239419349463503
  0
LINE
  5
2DE87
  8
0
 10
6045.0098076697022407
 20
328.6094340480410096
 30
0.0
 11
6044.9745310362850432
 21
328.5848026246201243
 31
0.0
  0
LINE
  5
2DE88
  8
0
 10
6044.9317359547576416
 20
328.71097848218119
 30
0.0
 11
6044.8986465271582347
 21
328.6878742451812059
 31
0.0
  0
ARC
  5
2DE89
  8
0
 10
6045.0252327568823603
 20
328.5808836997010189
 30
0.0
 40
0.0324508197869597
 50
66.1110136172086413
 51
118.3813181210710042
  0
ARC
  5
2DE8A
  8
0
 10
6044.9112749534851901
 20
328.7331892192166833
 30
0.0
 40
0.030198831314438
 50
312.6519273003286798
 51
11.1289414516493395
  0
ARC
  5
2DE8B
  8
0
 10
6044.7945364336928833
 20
328.5267566598491271
 30
0.0
 40
0.2578351253582698
 50
18.9659136119777791
 51
55.410957811683538
  0
ARC
  5
2DE8C
  8
0
 10
6044.859221052815883
 20
328.5788783714015722
 30
0.0
 40
0.0823276247590305
 50
21.6249351192082493
 51
52.2644092249650285
  0
ARC
  5
2DE8D
  8
0
 10
6044.9845897088398488
 20
328.6732970710909854
 30
0.0
 40
0.0843462234670426
 50
202.2983969185893898
 51
231.699169022140012
  0
ARC
  5
2DE8E
  8
0
 10
6044.9336020380596892
 20
328.6088641199922904
 30
0.0
 40
0.0021810899737667
 50
233.7626898635120085
 51
9.3508209181275657
  0
ARC
  5
2DE8F
  8
0
 10
6044.9086347475722505
 20
328.6420093842330061
 30
0.0
 40
0.0022033971158465
 50
63.8140653225289185
 51
198.9578671190868135
  0
ARC
  5
2DE90
  8
0
 10
6044.9622124980687659
 20
328.6032559055315119
 30
0.0
 40
0.0221871575510553
 50
246.1523062570479112
 51
303.7252003745077786
  0
ARC
  5
2DE91
  8
0
 10
6044.9760561460625468
 20
328.6332593833238889
 30
0.0
 40
0.0552286760493736
 50
230.1251645999724929
 51
245.6013037721741057
  0
ARC
  5
2DE92
  8
0
 10
6045.0787777548812301
 20
328.7446450265521207
 30
0.0
 40
0.2067006690299379
 50
209.3959604869376108
 51
228.067228698421502
  0
ARC
  5
2DE93
  8
0
 10
6044.9662482545672901
 20
328.6824809189391772
 30
0.0
 40
0.0781541223428127
 50
192.7495146966178936
 51
210.1832468205913074
  0
ARC
  5
2DE94
  8
0
 10
6044.9114219058983508
 20
328.6700437472117073
 30
0.0
 40
0.0219348343918075
 50
125.6212303926131995
 51
192.6686924106599861
  0
LINE
  5
2DE95
  8
0
 10
6045.2488160079319641
 20
328.2507939292777905
 30
0.0
 11
6045.2123230093438906
 21
328.2253131956160246
 31
0.0
  0
LINE
  5
2DE96
  8
0
 10
6045.1652233337199505
 20
328.3484834296929193
 30
0.0
 11
6045.1334667336632265
 21
328.3263098211314173
 31
0.0
  0
LINE
  5
2DE97
  8
0
 10
6045.112318068330751
 20
328.3072076748119912
 30
0.0
 11
6045.0762442067443772
 21
328.2820195978928268
 31
0.0
  0
LINE
  5
2DE98
  8
0
 10
6045.0294350804360874
 20
328.4053927039034875
 30
0.0
 11
6044.9977696054356784
 21
328.3832827222034894
 31
0.0
  0
LINE
  5
2DE99
  8
0
 10
6044.9903051889214112
 20
328.3602003718069113
 30
0.0
 11
6044.9566328054070254
 21
328.3369681669526017
 31
0.0
  0
LINE
  5
2DE9A
  8
0
 10
6044.9144219150457502
 20
328.4632728547995839
 30
0.0
 11
6044.8827972806584512
 21
328.4411913894812187
 31
0.0
  0
ARC
  5
2DE9B
  8
0
 10
6045.2617971195959399
 20
328.2283218457631051
 30
0.0
 40
0.0259519517098553
 50
55.5706203129369314
 51
120.0130936159860937
  0
ARC
  5
2DE9C
  8
0
 10
6045.142119420122981
 20
328.3732112178519742
 30
0.0
 40
0.0338416065029915
 50
313.0555691261986908
 51
5.3214566581480822
  0
ARC
  5
2DE9D
  8
0
 10
6045.0178653895418392
 20
328.1474742749257985
 30
0.0
 40
0.2780865727980526
 50
21.5740444881239597
 51
55.3899721332456991
  0
ARC
  5
2DE9E
  8
0
 10
6045.1223841583414469
 20
328.2927063075114233
 30
0.0
 40
0.017652643475655
 50
82.4971083583544242
 51
124.7663572627454016
  0
ARC
  5
2DE9F
  8
0
 10
6045.010755424049421
 20
328.4266128948257233
 30
0.0
 40
0.0282705865785128
 50
311.3567361781182967
 51
13.2690905517020603
  0
ARC
  5
2DEA0
  8
0
 10
6044.7814961070980644
 20
328.1159631914803754
 30
0.0
 40
0.4080567501048267
 50
30.82836017263039
 51
51.0042050072869273
  0
ARC
  5
2DEA1
  8
0
 10
6044.8985165988624431
 20
328.4823939333884937
 30
0.0
 40
0.0248715646738759
 50
309.7543977565139812
 51
19.6573830549369291
  0
ARC
  5
2DEA2
  8
0
 10
6044.5419125277048806
 20
328.0760928974597164
 30
0.0
 40
0.5624670444234187
 50
33.9965150566506011
 51
47.4960043046111124
  0
ARC
  5
2DEA3
  8
0
 10
6044.9455406407651026
 20
328.3532361300905222
 30
0.0
 40
0.0196896607666079
 50
243.9824407331460918
 51
304.2877703897519837
  0
ARC
  5
2DEA4
  8
0
 10
6044.9555996035542194
 20
328.3719845085851148
 30
0.0
 40
0.0409585244538486
 50
227.8611222786807105
 51
242.8413436402076968
  0
ARC
  5
2DEA5
  8
0
 10
6045.1822007072887573
 20
328.5734931751749173
 30
0.0
 40
0.3439851971272546
 50
208.3281074447183983
 51
222.3842631739879039
  0
ARC
  5
2DEA6
  8
0
 10
6044.9127194212724135
 20
328.4297646974576992
 30
0.0
 40
0.0385975794648276
 50
190.6443649701205914
 51
210.3444754072095009
  0
ARC
  5
2DEA7
  8
0
 10
6044.8939352347588283
 20
328.4253753489202268
 30
0.0
 40
0.0193442797891774
 50
125.1539290891956
 51
188.1432929403599132
  0
ARC
  5
2DEA8
  8
0
 10
6044.9990095018238208
 20
328.4386964989192847
 30
0.0
 40
0.1146960615081697
 50
200.6382170168189987
 51
224.511384682023305
  0
ARC
  5
2DEA9
  8
0
 10
6044.8136055398099415
 20
328.3202405786897771
 30
0.0
 40
0.1103779767568276
 50
20.1639515904989786
 51
44.9856501083535321
  0
ARC
  5
2DEAA
  8
0
 10
6045.0096466320928812
 20
328.3667546346828772
 30
0.0
 40
0.0203529221323644
 50
125.7008937544345031
 51
189.3158520669421137
  0
ARC
  5
2DEAB
  8
0
 10
6045.032831806827744
 20
328.3716090469367828
 30
0.0
 40
0.0440303429337483
 50
190.665721509726211
 51
208.3720204080916005
  0
ARC
  5
2DEAC
  8
0
 10
6045.21627115946103
 20
328.4775282841716262
 30
0.0
 40
0.2558383424693609
 50
209.721889850921599
 51
227.2879119861696893
  0
ARC
  5
2DEAD
  8
0
 10
6045.0855110010706994
 20
328.3369087754322209
 30
0.0
 40
0.063822375913317
 50
227.9114552763057873
 51
241.6477546729244068
  0
ARC
  5
2DEAE
  8
0
 10
6045.0646687906000807
 20
328.2987512439968896
 30
0.0
 40
0.0203454722301468
 50
242.2712979630406096
 51
304.6765580933587785
  0
ARC
  5
2DEAF
  8
0
 10
6045.1455514893559666
 20
328.3092787295237258
 30
0.0
 40
0.0208829931164433
 50
125.3583774972127998
 51
183.2631135296410037
  0
ARC
  5
2DEB0
  8
0
 10
6045.1712566169908314
 20
328.3128886542544933
 30
0.0
 40
0.0468009191309981
 50
185.8850174721181929
 51
207.899627522297493
  0
ARC
  5
2DEB1
  8
0
 10
6045.3234168371227497
 20
328.3990007082326201
 30
0.0
 40
0.2216235145543826
 50
209.1674740480978869
 51
228.4305805727362895
  0
ARC
  5
2DEB2
  8
0
 10
6045.2212321351680657
 20
328.2849956943334178
 30
0.0
 40
0.0685328082007225
 50
229.1030350392742037
 51
241.9494179404443912
  0
ARC
  5
2DEB3
  8
0
 10
6045.1999796618438268
 20
328.2448547693520027
 30
0.0
 40
0.0231134448230963
 50
241.6512051066515028
 51
302.2783709044130092
  0
ARC
  5
2DEB4
  8
0
 10
6045.2209259387827842
 20
328.3167630325497157
 30
0.0
 40
0.0863906809698773
 50
204.177831406405403
 51
234.2582306061430018
  0
ARC
  5
2DEB5
  8
0
 10
6045.1436525349936346
 20
328.2817930717654917
 30
0.0
 40
0.0015934438161506
 50
59.9986982372191804
 51
195.024742005736698
  0
ARC
  5
2DEB6
  8
0
 10
6045.0968871740569739
 20
328.2152045643840097
 30
0.0
 40
0.0829570080719392
 50
23.9380582487668612
 51
55.0169210066715735
  0
ARC
  5
2DEB7
  8
0
 10
6045.1711650380111678
 20
328.2481790275547269
 30
0.0
 40
0.0016888329054274
 50
245.4102701200675938
 51
23.9380582487683391
  0
ARC
  5
2DEB8
  8
0
 10
6045.0803238999342284
 20
328.3691490434275124
 30
0.0
 40
0.0790813058397054
 50
201.3916538691343021
 51
236.425033855898306
  0
ARC
  5
2DEB9
  8
0
 10
6044.9641852393915542
 20
328.275409029919615
 30
0.0
 40
0.0775768673947637
 50
21.0406184995893391
 51
56.7760692254217503
  0
LINE
  5
2DEBA
  8
0
 10
6044.3883015785932002
 20
329.2374267818861995
 30
0.0
 11
6044.371286559589862
 21
329.2617953529262991
 31
0.0
  0
LINE
  5
2DEBB
  8
0
 10
6045.1364637203032544
 20
328.1381380758527939
 30
0.0
 11
6045.0999734656543296
 21
328.1126592583216279
 31
0.0
  0
LINE
  5
2DEBC
  8
0
 10
6045.0557847849586324
 20
328.2377059845812255
 30
0.0
 11
6045.0249333958581701
 21
328.2161644271811838
 31
0.0
  0
ARC
  5
2DEBD
  8
0
 10
6045.1483426520153444
 20
328.1196807166041935
 30
0.0
 40
0.0219495587437802
 50
48.317498595922153
 51
122.7648393565190048
  0
ARC
  5
2DEBE
  8
0
 10
6045.0419619987742408
 20
328.2555473952181728
 30
0.0
 40
0.022569566930118
 50
307.7670418837103057
 51
27.0839777788152212
  0
ARC
  5
2DEBF
  8
0
 10
6044.6708518337800342
 20
327.8575611155595197
 30
0.0
 40
0.565437099854787
 50
29.5090684905184091
 51
46.2222723011059529
  0
ARC
  5
2DEC0
  8
0
 10
6045.0890109119218323
 20
328.128720950840318
 30
0.0
 40
0.0194462220212855
 50
244.7760158579102949
 51
304.314628192785392
  0
ARC
  5
2DEC1
  8
0
 10
6045.1008046797123825
 20
328.1494736951411824
 30
0.0
 40
0.0432846766663992
 50
227.8842570823910876
 51
242.3591970764227028
  0
ARC
  5
2DEC2
  8
0
 10
6045.3859881367561684
 20
328.398122920455819
 30
0.0
 40
0.4213710850841854
 50
210.726423891926089
 51
221.7817488998190925
  0
ARC
  5
2DEC3
  8
0
 10
6045.0690341610870746
 20
328.2133303560776767
 30
0.0
 40
0.0545820759947051
 50
199.5701240630596089
 51
213.9754663371296033
  0
ARC
  5
2DEC4
  8
0
 10
6045.035993963265355
 20
328.2004960512609841
 30
0.0
 40
0.0191790029805544
 50
125.2189044275823022
 51
196.5043396438173886
  0
ARC
  5
2DEC5
  8
0
 10
6045.1437707075610888
 20
328.2259698420144787
 30
0.0
 40
0.1227179416214892
 50
205.6750843700478981
 51
228.0329529367089947
  0
ARC
  5
2DEC6
  8
0
 10
6044.9576067310417784
 20
328.0864274578979121
 30
0.0
 40
0.1147603728237398
 50
24.8888498698560205
 51
48.819187436895028
  0
LINE
  5
2DEC7
  8
0
 10
6045.3517763256377293
 20
327.7835486694669953
 30
0.0
 11
6045.3141374538581658
 21
327.7572678458811879
 31
0.0
  0
LINE
  5
2DEC8
  8
0
 10
6045.4773730384231385
 20
327.9250640632133127
 30
0.0
 11
6045.4381870723600514
 21
327.8976214957502862
 31
0.0
  0
LINE
  5
2DEC9
  8
0
 10
6045.3887232238412253
 20
328.019222485078501
 30
0.0
 11
6045.3565906148232898
 21
327.996704826950122
 31
0.0
  0
LINE
  5
2DECA
  8
0
 10
6045.3622835199375913
 20
327.916334152297793
 30
0.0
 11
6045.3258775739577686
 21
327.8909142020812055
 31
0.0
  0
LINE
  5
2DECB
  8
0
 10
6045.2745868018482724
 20
328.0111580606885013
 30
0.0
 11
6045.2466437398861672
 21
327.99171478464541
 31
0.0
  0
ARC
  5
2DECC
  8
0
 10
6045.3603766076430475
 20
327.7629182825223779
 30
0.0
 40
0.0223512352241966
 50
49.8816515157837586
 51
112.630010076324993
  0
ARC
  5
2DECD
  8
0
 10
6044.0879583663681842
 20
326.8691080461262004
 30
0.0
 40
1.5765947252823309
 50
35.2935561026021674
 51
38.5698041330769712
  0
ARC
  5
2DECE
  8
0
 10
6045.2439566735129119
 20
328.0273186517136992
 30
0.0
 40
0.1912881434670338
 50
287.0952667258832207
 51
294.3393354243422095
  0
ARC
  5
2DECF
  8
0
 10
6045.3273182822549643
 20
327.8170728408696846
 30
0.0
 40
0.0362427312546715
 50
41.4587521594500004
 51
97.170841325624167
  0
ARC
  5
2DED0
  8
0
 10
6044.8621609571737281
 20
327.5733380648334219
 30
0.0
 40
0.5604082168361639
 50
28.5380141588921497
 51
34.4125427341861112
  0
ARC
  5
2DED1
  8
0
 10
6045.4905433414487561
 20
327.9021002145829016
 30
0.0
 40
0.0264725371985422
 50
58.7522499996342091
 51
119.8352770598416015
  0
ARC
  5
2DED2
  8
0
 10
6045.3681876022319557
 20
328.0422030337214778
 30
0.0
 40
0.0308191072356527
 50
311.7842556478120741
 51
9.6495282118892707
  0
ARC
  5
2DED3
  8
0
 10
6045.2133043711310165
 20
327.7808071445253972
 30
0.0
 40
0.3246210147893979
 50
26.3187201141741802
 51
55.1998544895133278
  0
ARC
  5
2DED4
  8
0
 10
6045.2550218559317727
 20
328.038103081020779
 30
0.0
 40
0.0332989673924797
 50
305.9836334879964852
 51
5.9498626730216806
  0
ARC
  5
2DED5
  8
0
 10
6045.0239492979026181
 20
327.7079632999934802
 30
0.0
 40
0.4255358635638412
 50
40.3361875876821188
 51
51.6220761605646175
  0
ARC
  5
2DED6
  8
0
 10
6045.6045011336518655
 20
327.7449559736256788
 30
0.0
 40
0.5397067122203565
 50
144.8391227162956909
 51
148.3134208352535097
  0
ARC
  5
2DED7
  8
0
 10
6045.1399885924211048
 20
328.0703091454623745
 30
0.0
 40
0.0274542616710285
 50
327.9964355253499093
 51
34.5231680078595176
  0
ARC
  5
2DED8
  8
0
 10
6044.6122310178316184
 20
327.4916775847516988
 30
0.0
 40
0.8099245779863519
 50
38.2357649521178118
 51
47.1922044750215406
  0
ARC
  5
2DED9
  8
0
 10
6045.4264443023339481
 20
327.9149346260712719
 30
0.0
 40
0.020919778425498
 50
251.6956172336315944
 51
304.1473985239459807
  0
ARC
  5
2DEDA
  8
0
 10
6045.4354225933047928
 20
327.9385491757054751
 30
0.0
 40
0.0461725180745888
 50
233.345076612259902
 51
250.3211850276605048
  0
ARC
  5
2DEDB
  8
0
 10
6045.4881279747332883
 20
328.0096656439151843
 30
0.0
 40
0.134690307065844
 50
227.7563916056269022
 51
233.4188640593827131
  0
ARC
  5
2DEDC
  8
0
 10
6045.5874805160492542
 20
328.1155063667226273
 30
0.0
 40
0.2798468617731094
 50
216.1918320425450872
 51
227.2660431163805868
  0
ARC
  5
2DEDD
  8
0
 10
6045.4511027856906367
 20
328.0168029834903223
 30
0.0
 40
0.1115039501373182
 50
206.9442928469443075
 51
216.6397804556621054
  0
ARC
  5
2DEDE
  8
0
 10
6045.3803225503706926
 20
327.981159092041878
 30
0.0
 40
0.0322573563179338
 50
180.713802584467004
 51
207.4728360422193987
  0
ARC
  5
2DEDF
  8
0
 10
6045.3683496596650002
 20
327.9801691471187723
 30
0.0
 40
0.0202904865163411
 50
125.4178358237508064
 51
178.339142997561197
  0
ARC
  5
2DEE0
  8
0
 10
6045.4367602515540057
 20
327.9842768023311805
 30
0.0
 40
0.076700859303182
 50
203.1856494224537926
 51
239.3353574147078859
  0
ARC
  5
2DEE1
  8
0
 10
6045.3306156626713346
 20
327.8911560671526786
 30
0.0
 40
0.0723144103603711
 50
22.0476225037559814
 51
60.4733843334270489
  0
ARC
  5
2DEE2
  8
0
 10
6045.314675884481403
 20
327.9073594855498186
 30
0.0
 40
0.0198978691204005
 50
250.4332369510242984
 51
304.2606976692757144
  0
ARC
  5
2DEE3
  8
0
 10
6045.3252365503849433
 20
327.9300079617096912
 30
0.0
 40
0.0448377119776453
 50
230.5196156583319862
 51
247.4088036602362024
  0
ARC
  5
2DEE4
  8
0
 10
6045.4512120695353588
 20
328.077220639804807
 30
0.0
 40
0.2385873518837522
 50
208.8646917088676105
 51
229.6470473514987134
  0
ARC
  5
2DEE5
  8
0
 10
6045.2754450176416867
 20
327.9789481095863266
 30
0.0
 40
0.0372366247876674
 50
186.6546778746759117
 51
206.997789238581106
  0
ARC
  5
2DEE6
  8
0
 10
6045.2581247842163066
 20
327.9757121952471834
 30
0.0
 40
0.0196951071680525
 50
125.6575166063629041
 51
183.14127490249831
  0
ARC
  5
2DEE7
  8
0
 10
6045.3317650525468707
 20
327.9797350427676861
 30
0.0
 40
0.081547171513076
 50
202.0574892675982142
 51
235.9775370349784112
  0
ARC
  5
2DEE8
  8
0
 10
6045.2132183806807006
 20
327.8836778293565999
 30
0.0
 40
0.0782800874717629
 50
21.3267828072362491
 51
56.7082434953538268
  0
ARC
  5
2DEE9
  8
0
 10
6045.2794960849159907
 20
327.913362878866792
 30
0.0
 40
0.071921559934132
 50
226.2487450267138911
 51
286.7215706120501864
  0
ARC
  5
2DEEA
  8
0
 10
6045.2112174189205689
 20
327.9969845910773074
 30
0.0
 40
0.0730903436179578
 50
154.4993532278928114
 51
218.6413641640716889
  0
ARC
  5
2DEEB
  8
0
 10
6045.8032407708124083
 20
328.420460515193497
 30
0.0
 40
0.8008850801719752
 50
215.8558407358158888
 51
224.2699905170088073
  0
ARC
  5
2DEEC
  8
0
 10
6044.7956339877373466
 20
327.5816062004988112
 30
0.0
 40
0.5163760345552162
 50
32.8583503219690982
 51
46.7025959868524865
  0
ARC
  5
2DEED
  8
0
 10
6045.3035207960538173
 20
327.772795146088697
 30
0.0
 40
0.0188098504685907
 50
225.093657286093304
 51
304.362032151793187
  0
ARC
  5
2DEEE
  8
0
 10
6046.3251244071016117
 20
328.6282053767458819
 30
0.0
 40
1.3511764638920729
 50
216.1023540447868072
 51
220.0117937131915937
  0
ARC
  5
2DEEF
  8
0
 10
6045.2481426612594078
 20
327.8442307665235944
 30
0.0
 40
0.0191067140477022
 50
136.3902049845831073
 51
219.5977302809737068
  0
ARC
  5
2DEF0
  8
0
 10
6045.380755910341577
 20
327.877595431443126
 30
0.0
 40
0.0428838850876369
 50
81.263361101680502
 51
115.7688674135030027
  0
LINE
  5
2DEF1
  8
0
 10
6045.5373064641717065
 20
327.6188799153496234
 30
0.0
 11
6045.5007818182575647
 21
327.5933770845812205
 31
0.0
  0
LINE
  5
2DEF2
  8
0
 10
6045.4504286962392143
 20
327.7142756444085876
 30
0.0
 11
6045.4210807715589908
 21
327.6937838602812008
 31
0.0
  0
ARC
  5
2DEF3
  8
0
 10
6045.4378070322200074
 20
327.7344508368813081
 30
0.0
 40
0.0237979997887044
 50
302.0302272484764785
 51
21.3859050412554907
  0
ARC
  5
2DEF4
  8
0
 10
6045.1629490951745538
 20
327.3877606154587738
 30
0.0
 40
0.4631476995993004
 50
30.1839449040250294
 51
50.1110584311012772
  0
ARC
  5
2DEF5
  8
0
 10
6045.4893674549994103
 20
327.6117681633032817
 30
0.0
 40
0.0216453104661368
 50
247.2020783537118973
 51
301.8256719829000758
  0
ARC
  5
2DEF6
  8
0
 10
6045.4965531653260769
 20
327.6249562295280953
 30
0.0
 40
0.0366187424812145
 50
231.0687109997568882
 51
244.8321950146857944
  0
ARC
  5
2DEF7
  8
0
 10
6045.6845261619037046
 20
327.8307655687161173
 30
0.0
 40
0.3152908642874375
 50
212.122087254909502
 51
227.9968194617582071
  0
ARC
  5
2DEF8
  8
0
 10
6045.4518155376026698
 20
327.6830349605294828
 30
0.0
 40
0.0396761253699381
 50
194.6133234074872007
 51
210.1324803710704998
  0
ARC
  5
2DEF9
  8
0
 10
6045.4329427102948102
 20
327.6776161112695718
 30
0.0
 40
0.0200524736302242
 50
126.2667166097956937
 51
193.2358498297647884
  0
ARC
  5
2DEFA
  8
0
 10
6045.3679586412217759
 20
327.5679514613157721
 30
0.0
 40
0.1039170915396927
 50
26.5772510613500401
 51
53.1213761532955431
  0
ARC
  5
2DEFB
  8
0
 10
6045.5254761906408021
 20
327.6994199842573039
 30
0.0
 40
0.1067313459333236
 50
206.9333419437272994
 51
232.7652852708912121
  0
ARC
  5
2DEFC
  8
0
 10
6045.5519840316255795
 20
327.5946646335320906
 30
0.0
 40
0.0283162649353827
 50
66.4423288177613358
 51
121.2212393403519997
  0
LINE
  5
2DEFD
  8
0
 10
6045.6629610139489159
 20
327.6337680606695812
 30
0.0
 11
6045.6244318177859896
 21
327.6068655802160947
 31
0.0
  0
LINE
  5
2DEFE
  8
0
 10
6045.5700882896571784
 20
327.7249778939811904
 30
0.0
 11
6045.5405431444587521
 21
327.7043484033811751
 31
0.0
  0
ARC
  5
2DEFF
  8
0
 10
6045.6764427465486733
 20
327.6089329315748273
 30
0.0
 40
0.0282584633529206
 50
63.7652942085867735
 51
118.495291815071198
  0
ARC
  5
2DF00
  8
0
 10
6045.5527528812026503
 20
327.7449897595313928
 30
0.0
 40
0.0264762374429178
 50
310.900959724714312
 51
19.4977295224934188
  0
ARC
  5
2DF01
  8
0
 10
6045.3441428534615625
 20
327.4250062018986114
 30
0.0
 40
0.4033322867587068
 50
31.2560329618136201
 51
54.6130385204818722
  0
ARC
  5
2DF02
  8
0
 10
6045.6327646825002375
 20
327.7058477868608861
 30
0.0
 40
0.0928903015632804
 50
208.1243404308534934
 51
237.864529591488207
  0
ARC
  5
2DF03
  8
0
 10
6045.5030515184025717
 20
327.5849118566695211
 30
0.0
 40
0.0907517149091975
 50
27.7655367197397283
 51
58.2233333025994497
  0
ARC
  5
2DF04
  8
0
 10
6045.6129721909710497
 20
327.6237283570088721
 30
0.0
 40
0.0203881408644457
 50
248.2543345488346063
 51
304.1992923446603072
  0
ARC
  5
2DF05
  8
0
 10
6045.6309032055278294
 20
327.6613102272295919
 30
0.0
 40
0.0619990010919003
 50
231.0439763458510072
 51
245.7293207789049063
  0
ARC
  5
2DF06
  8
0
 10
6045.7868243223301761
 20
327.8468742644345184
 30
0.0
 40
0.3043647020619904
 50
215.4493327857659892
 51
230.1817282871822101
  0
ARC
  5
2DF07
  8
0
 10
6045.5772953280411457
 20
327.6961863232576775
 30
0.0
 40
0.0462963339718798
 50
195.7084022162243002
 51
213.9250482851346931
  0
ARC
  5
2DF08
  8
0
 10
6045.5524444239499644
 20
327.6880306992750889
 30
0.0
 40
0.0201967304494931
 50
126.1050542361714975
 51
192.5213520043049868
  0
LINE
  5
2DF09
  8
0
 10
6045.622425326467237
 20
327.4550132836827743
 30
0.0
 11
6045.5836374507589426
 21
327.4279325958812024
 31
0.0
  0
LINE
  5
2DF0A
  8
0
 10
6045.5336051340582344
 20
327.5490542524811985
 30
0.0
 11
6045.504623574359357
 21
327.5288191787811911
 31
0.0
  0
ARC
  5
2DF0B
  8
0
 10
6045.6340984412008766
 20
327.4377471291684856
 30
0.0
 40
0.0208418257188873
 50
52.4955684374834277
 51
124.0614133658055067
  0
ARC
  5
2DF0C
  8
0
 10
6045.5178876962354479
 20
327.5689456907934982
 30
0.0
 40
0.0253516699616339
 50
308.3144132458882041
 51
10.4951835056429505
  0
ARC
  5
2DF0D
  8
0
 10
6043.9627485363353117
 20
326.0913490014702916
 30
0.0
 40
2.1664650495275928
 50
38.9840566752763706
 51
43.1697934520773998
  0
ARC
  5
2DF0E
  8
0
 10
6045.5729976786078623
 20
327.4432822654742949
 30
0.0
 40
0.0186766460602666
 50
235.8759005604468086
 51
304.7281397403152141
  0
ARC
  5
2DF0F
  8
0
 10
6045.5964705239202885
 20
327.4738349080719217
 30
0.0
 40
0.0571827797648238
 50
225.9412276655083929
 51
233.5790040224684105
  0
ARC
  5
2DF10
  8
0
 10
6045.9824544633411278
 20
327.8318715487257009
 30
0.0
 40
0.5835806827232743
 50
214.6246711892003987
 51
223.1517022174377871
  0
ARC
  5
2DF11
  8
0
 10
6045.5203861660565963
 20
327.5160550744215016
 30
0.0
 40
0.0240500984327572
 50
199.3062149043828981
 51
220.9832524528667932
  0
ARC
  5
2DF12
  8
0
 10
6045.5158061434312913
 20
327.513556936816201
 30
0.0
 40
0.0189205148146104
 50
126.2300486511266939
 51
196.7512851601773036
  0
ARC
  5
2DF13
  8
0
 10
6045.7168243683154287
 20
327.6231666053267872
 30
0.0
 40
0.2449655899866336
 50
213.9994324573414985
 51
225.1375404683886927
  0
ARC
  5
2DF14
  8
0
 10
6045.3173256990166919
 20
327.2930425044708045
 30
0.0
 40
0.2754664852246484
 50
34.6176992929263392
 51
44.5192736328122578
  0
LINE
  5
2DF15
  8
0
 10
6045.7992268544112449
 20
327.393005217305074
 30
0.0
 11
6045.759986424559429
 21
327.3656061277811773
 31
0.0
  0
LINE
  5
2DF16
  8
0
 10
6045.7031352970279841
 20
327.4819675447797067
 30
0.0
 11
6045.6743495563277975
 21
327.4618682978796755
 31
0.0
  0
ARC
  5
2DF17
  8
0
 10
6045.812111432634083
 20
327.3723686079210893
 30
0.0
 40
0.024328625173372
 50
59.7949988221190267
 51
121.9788164842577061
  0
ARC
  5
2DF18
  8
0
 10
6045.6876486220908191
 20
327.5013970869426885
 30
0.0
 40
0.0248464124024176
 50
308.5572435266208231
 51
20.8873711370315398
  0
ARC
  5
2DF19
  8
0
 10
6045.3698435056139715
 20
327.0655412273702041
 30
0.0
 40
0.5604147152935804
 50
35.8042911454400112
 51
52.5180604863430034
  0
ARC
  5
2DF1A
  8
0
 10
6045.7488129936846235
 20
327.3820907646950786
 30
0.0
 40
0.0199145376968982
 50
242.3262283728988962
 51
304.1297623993127104
  0
ARC
  5
2DF1B
  8
0
 10
6045.7668632998711473
 20
327.4159415240777093
 30
0.0
 40
0.058276806396701
 50
231.8169523689828964
 51
242.06673976914891
  0
ARC
  5
2DF1C
  8
0
 10
6045.9803062648943524
 20
327.6711763955531751
 30
0.0
 40
0.3909746377138641
 50
218.0693535674674877
 51
230.3521183820753038
  0
ARC
  5
2DF1D
  8
0
 10
6045.7015811164174011
 20
327.4517202565980938
 30
0.0
 40
0.0362354585329562
 50
196.1358923108712133
 51
216.6397065504318107
  0
ARC
  5
2DF1E
  8
0
 10
6045.6853562171927479
 20
327.4462150229413737
 30
0.0
 40
0.0191356107733924
 50
125.1131180977269963
 51
193.8022002042573888
  0
ARC
  5
2DF1F
  8
0
 10
6045.6146123629478097
 20
327.3176022242161025
 30
0.0
 40
0.1241989086495776
 50
33.2341541383628467
 51
55.3972496252450526
  0
ARC
  5
2DF20
  8
0
 10
6045.7916839442550554
 20
327.4904939062060976
 30
0.0
 40
0.1278443778689744
 50
213.55397012424541
 51
235.077433639356002
  0
ARC
  5
2DF21
  8
0
 10
5955.2910193106963561
 20
273.856176555366801
 30
0.0
 40
104.8763614383724985
 50
31.5769080013907413
 51
31.6442975884042212
  0
ARC
  5
2DF22
  8
0
 10
6046.4585141397246844
 20
330.0674096663875048
 30
0.0
 40
2.2243474911086141
 50
212.2580818022466929
 51
214.7870011326712927
  0
LINE
  5
2DF23
  8
0
 10
6044.814417380877785
 20
328.7412008892778204
 30
0.0
 11
6044.7789996388391955
 21
328.7183921901847157
 31
0.0
  0
ARC
  5
2DF24
  8
0
 10
6044.8082647109476966
 20
328.633391998094794
 30
0.0
 40
0.0209502182689815
 50
31.2132010222037586
 51
105.2044982329579028
  0
ARC
  5
2DF25
  8
0
 10
6044.7521466216639965
 20
328.8490151116649827
 30
0.0
 40
0.2018572394651522
 50
274.4456706706702107
 51
284.5242078928582146
  0
ARC
  5
2DF26
  8
0
 10
6044.7623220016339474
 20
328.7187073127674921
 30
0.0
 40
0.0711527816634594
 50
243.7957908774386908
 51
274.410144696181078
  0
ARC
  5
2DF27
  8
0
 10
6044.768039324282654
 20
328.7285706931505729
 30
0.0
 40
0.0825307032741355
 50
225.558738372052801
 51
243.2582084487372924
  0
ARC
  5
2DF28
  8
0
 10
6044.8443138245702357
 20
328.8019748941640046
 30
0.0
 40
0.1883695856463153
 50
216.6085740385690883
 51
224.6274550832665966
  0
ARC
  5
2DF29
  8
0
 10
6044.8282186411242947
 20
328.6473116157969798
 30
0.0
 40
0.0036779028336037
 50
236.3804930519499123
 51
359.3441961928097044
  0
ARC
  5
2DF2A
  8
0
 10
6044.6780851180492391
 20
328.6094782472214888
 30
0.0
 40
0.1583857976657186
 50
13.8040828323709803
 51
27.1250166624208191
  0
ARC
  5
2DF2B
  8
0
 10
6044.1915762554926914
 20
328.3603992082448144
 30
0.0
 40
0.7049489112149337
 50
27.1142941058445288
 51
31.3937162449767584
  0
ARC
  5
2DF2C
  8
0
 10
6044.8269777944951784
 20
328.7177982396726748
 30
0.0
 40
0.0265602710598205
 50
54.1832155021890998
 51
118.2228574812093029
  0
ARC
  5
2DF2D
  8
0
 10
6044.7679464350740091
 20
328.7364263652992236
 30
0.0
 40
0.0211519451946097
 50
243.0678564218540032
 51
301.5042659383555019
  0
ARC
  5
2DF2E
  8
0
 10
6044.787300676994164
 20
328.7686387028641093
 30
0.0
 40
0.0586973925200445
 50
221.5409192894649948
 51
240.4655431782960022
  0
ARC
  5
2DF2F
  8
0
 10
6044.7398710544757705
 20
328.7435967926035119
 30
0.0
 40
0.0015377007956457
 50
230.1961161939914007
 51
16.0027105217382584
  0
ARC
  5
2DF30
  8
0
 10
6046.2222834098765816
 20
329.7630835693183258
 30
0.0
 40
1.868332553889519
 50
212.6374972902158902
 51
215.0678048294967937
  0
ARC
  5
2DF31
  8
0
 10
6044.4295315659774133
 20
328.5514487257669884
 30
0.0
 40
0.3055587678000941
 50
22.4204680206443996
 51
46.6408257579142997
  0
ARC
  5
2DF32
  8
0
 10
6044.5417033184348838
 20
328.6357954368432956
 30
0.0
 40
0.3181378937262403
 50
18.9932875205170291
 51
48.7120145992158271
  0
ARC
  5
2DF33
  8
0
 10
6044.9248174000804283
 20
328.8927781059953759
 30
0.0
 40
0.2439559352712512
 50
205.7601185610093069
 51
221.9451835587115056
  0
ARC
  5
2DF34
  8
0
 10
6044.8029798617244523
 20
328.8110527471282012
 30
0.0
 40
0.093909596056897
 50
200.7445184017848021
 51
226.9607837179131877
  0
ARC
  5
2DF35
  8
0
 10
6044.6532178713332542
 20
328.7105964134349847
 30
0.0
 40
0.0942566122347599
 50
20.7695178233001485
 51
46.9357842964371699
  0
ARC
  5
2DF36
  8
0
 10
6067.4527661201263982
 20
343.9556715011647157
 30
0.0
 40
27.40521873814847
 50
213.8571579821411035
 51
214.2508817930497003
  0
ARC
  5
2DF37
  8
0
 10
6046.7918155198722161
 20
329.8931678737528728
 30
0.0
 40
2.4096075022419412
 50
210.7679842783425102
 51
213.9956184769403933
  0
LINE
  5
2DF38
  8
0
 10
6044.7628601700926083
 20
328.6196628496928724
 30
0.0
 11
6044.8181980941590155
 21
328.4888134644812112
 31
0.0
  0
ARC
  5
2DF39
  8
0
 10
6044.8254502308882365
 20
328.4918804883803887
 30
0.0
 40
0.0078740156679953
 50
202.9241404630255943
 51
292.9241410273331212
  0
LINE
  5
2DF3A
  8
0
 10
6044.8285172548594346
 20
328.4846283516811809
 30
0.0
 11
6044.8474272783587367
 21
328.4926256489811749
 31
0.0
  0
ARC
  5
2DF3B
  8
0
 10
6044.8550948364490978
 20
328.4744953131291823
 30
0.0
 40
0.0196850330249641
 50
103.5809395099501984
 51
112.9241427921862027
  0
ARC
  5
2DF3C
  8
0
 10
6043.1527338301593772
 20
327.4090977980616231
 30
0.0
 40
2.014441504433139
 50
33.5209219753595207
 51
38.0884737405903877
  0
ARC
  5
2DF3D
  8
0
 10
6041.5103849680199346
 20
326.3211881444839833
 30
0.0
 40
3.9844306412856141
 50
32.1554534477001184
 51
33.5209219753595207
  0
ARC
  5
2DF3E
  8
0
 10
6032.4555154998943181
 20
320.3540172515681093
 30
0.0
 40
14.83832319847901
 50
33.0558843899230794
 51
33.9818448342818229
  0
ARC
  5
2DF3F
  8
0
 10
6394.6421429188758339
 20
563.4395191371072542
 30
0.0
 40
421.3918473035225247
 50
213.8876449608123949
 51
213.8984793656759962
  0
ARC
  5
2DF40
  8
0
 10
6046.9928523142143604
 20
329.9836217058104921
 30
0.0
 40
2.6267397004609871
 50
214.7333315962657991
 51
216.2699494153837065
  0
ARC
  5
2DF41
  8
0
 10
6025.7973248575935941
 20
315.9661692235927148
 30
0.0
 40
22.8294639560318515
 50
33.1724183544086628
 51
33.7484977079077524
  0
ARC
  5
2DF42
  8
0
 10
6060.9107239156355718
 20
339.6597589570538958
 30
0.0
 40
19.5835730376536787
 50
215.3123700815633015
 51
215.7696424464498932
  0
ARC
  5
2DF43
  8
0
 10
6043.1975279359630804
 20
327.2321754226654207
 30
0.0
 40
2.081864416129287
 50
28.3211718018650203
 51
32.136041021854858
  0
ARC
  5
2DF44
  8
0
 10
6042.5254377826568088
 20
326.813471660031496
 30
0.0
 40
2.8912409295588941
 50
29.3496044795909299
 51
32.0925034562121567
  0
LINE
  5
2DF45
  8
0
 10
6045.1120472505208454
 20
328.1210896122470899
 30
0.0
 11
6045.1620813411636846
 21
328.0540644698353958
 31
0.0
  0
LINE
  5
2DF46
  8
0
 10
6045.3697073193316101
 20
327.7832287609858213
 30
0.0
 11
6045.4335685481009932
 21
327.7025032782273115
 31
0.0
  0
LINE
  5
2DF47
  8
0
 10
6045.5136655279147817
 20
327.6023729573354899
 30
0.0
 11
6045.5430713602063406
 21
327.5660318893442877
 31
0.0
  0
ARC
  5
2DF48
  8
0
 10
6000.629273181742974
 20
290.0572541780941833
 30
0.0
 40
58.5139197966218916
 50
38.8378346500856821
 51
39.7306624740280299
  0
ARC
  5
2DF49
  8
0
 10
6045.8569507945676378
 20
327.2169525350610115
 30
0.0
 40
0.0045046579305604
 50
71.2648727963692892
 51
196.4310001040257987
  0
ARC
  5
2DF4A
  8
0
 10
6045.9068387799361517
 20
327.2307370476867163
 30
0.0
 40
0.0562614012637232
 50
195.5248333205169047
 51
211.0514430036419924
  0
ARC
  5
2DF4B
  8
0
 10
6046.4408617022627368
 20
327.5590165890652088
 30
0.0
 40
0.6831147987973221
 50
211.5367081890570091
 51
217.8551736281497995
  0
ARC
  5
2DF4C
  8
0
 10
6048.9822761751283906
 20
329.4970692646014072
 30
0.0
 40
3.87915669916599
 50
217.421423065187895
 51
219.0285041412435021
  0
ARC
  5
2DF4D
  8
0
 10
6050.9391229618031502
 20
331.0493745284949227
 30
0.0
 40
6.3768513040472561
 50
218.791674413989
 51
220.6354958409085896
  0
ARC
  5
2DF4E
  8
0
 10
6046.8818494474344334
 20
327.5670332471642041
 30
0.0
 40
1.030060830685428
 50
220.6154500603468023
 51
226.1702084215042987
  0
ARC
  5
2DF4F
  8
0
 10
6046.2811955356937688
 20
326.9456739314795186
 30
0.0
 40
0.165875499500913
 50
227.2096652352566082
 51
239.5576454283664987
  0
ARC
  5
2DF50
  8
0
 10
6046.2122340025771337
 20
326.8310831423389118
 30
0.0
 40
0.0321716869789955
 50
242.0421150761405045
 51
263.2965626562753982
  0
ARC
  5
2DF51
  8
0
 10
6046.2094312617709875
 20
326.8082557128603867
 30
0.0
 40
0.0091739198995485
 50
264.0393436886055838
 51
343.5079780642442984
  0
ARC
  5
2DF52
  8
0
 10
6046.1880473703686221
 20
326.8130893643444779
 30
0.0
 40
0.0310834228069388
 50
346.1553446015656732
 51
7.596752407962776
  0
ARC
  5
2DF53
  8
0
 10
6046.0819199787028992
 20
326.7922703816960848
 30
0.0
 40
0.1391884725075705
 50
10.3171585466213696
 51
23.9954426531689506
  0
ARC
  5
2DF54
  8
0
 10
6045.843669324774055
 20
326.6784845509527031
 30
0.0
 40
0.4031834727147744
 50
24.999383815809729
 51
33.2411166118586792
  0
ARC
  5
2DF55
  8
0
 10
6045.3154309847823242
 20
326.3073959923851248
 30
0.0
 40
1.0486104558585001
 50
34.3780665476567222
 51
42.3172919051860177
  0
ARC
  5
2DF56
  8
0
 10
6044.7206106085141073
 20
325.7638921797041007
 30
0.0
 40
1.8543439862172051
 50
42.3614018739816203
 51
48.3842188432833993
  0
ARC
  5
2DF57
  8
0
 10
6045.3840148696763208
 20
326.5274838969554025
 30
0.0
 40
0.8429569209910811
 50
47.626011284768488
 51
53.451545652589239
  0
ARC
  5
2DF58
  8
0
 10
6045.7492315922108901
 20
327.0191865992508724
 30
0.0
 40
0.2304591355552471
 50
53.5977353903655072
 51
59.5160425788735168
  0
ARC
  5
2DF59
  8
0
 10
6045.8440380601878132
 20
327.1783207603511983
 30
0.0
 40
0.0452373169290163
 50
60.7487413964603888
 51
71.492533154102901
  0
ARC
  5
2DF5A
  8
0
 10
6044.2235802867617167
 20
324.7675703097190194
 30
0.0
 40
2.806100128266193
 50
39.5487646813667411
 51
45.0179483591606129
  0
ARC
  5
2DF5B
  8
0
 10
6045.5370174975587361
 20
325.867951433387816
 30
0.0
 40
1.0927480549417199
 50
23.2576336459389807
 51
38.9104337633778172
  0
ARC
  5
2DF5C
  8
0
 10
6046.5615074734860173
 20
326.3074857360326178
 30
0.0
 40
0.0220594430250514
 50
201.3887871293746059
 51
213.9582322034071069
  0
ARC
  5
2DF5D
  8
0
 10
6040.9880299336964526
 20
322.538963950106222
 30
0.0
 40
6.7058978139489858
 50
31.2051744336394492
 51
34.0650474070433233
  0
ARC
  5
2DF5E
  8
0
 10
6046.7338582659222084
 20
326.0194672224450869
 30
0.0
 40
0.0118731152173426
 50
211.1914272997663033
 51
298.4197352333160893
  0
ARC
  5
2DF5F
  8
0
 10
31840.2898015696882794
 20
18341.8734200433391379
 30
0.0
 40
31461.563931332759239
 50
214.9222084778407975
 51
214.9299694714603106
  0
ARC
  5
2DF60
  8
0
 10
6016.2971840332147622
 20
306.637074781548904
 30
0.0
 40
36.8225115366513833
 50
32.5220905614727371
 51
35.0332500099845419
  0
ARC
  5
2DF61
  8
0
 10
6033.1092411181452917
 20
318.4820907558230942
 30
0.0
 40
16.3063123368040301
 50
17.0417267963524992
 51
29.1858533079051909
  0
ARC
  5
2DF62
  8
0
 10
6048.6775253316891394
 20
323.2533090733675181
 30
0.0
 40
0.0233304892515867
 50
349.8397545703929836
 51
19.1184494587205016
  0
ARC
  5
2DF63
  8
0
 10
6028.0325011939303295
 20
343.1610285619519232
 30
0.0
 40
0.0299212599707097
 50
180.0000003268986859
 51
269.9999998646176778
  0
LINE
  5
2DF64
  8
0
 10
6032.5891941071586189
 20
345.6322569002812202
 30
0.0
 11
6033.4159657608588532
 21
345.6322569002812202
 31
0.0
  0
LINE
  5
2DF65
  8
0
 10
6032.5265169418580626
 20
345.58976871928121
 30
0.0
 11
6033.4786429261594094
 21
345.58976871928121
 31
0.0
  0
LINE
  5
2DF66
  8
0
 10
6032.5478555245581447
 20
345.4204773806811772
 30
0.0
 11
6032.5065169418576261
 21
345.4618159633811842
 31
0.0
  0
LINE
  5
2DF67
  8
0
 10
6032.5478555245581447
 20
344.9218820767811735
 30
0.0
 11
6032.5478555245581447
 21
345.4204773806811772
 31
0.0
  0
LINE
  5
2DF68
  8
0
 10
6032.3136035560582968
 20
344.6192962782811833
 30
0.0
 11
6033.6915563119582657
 21
344.6192962782811833
 31
0.0
  0
LINE
  5
2DF69
  8
0
 10
6032.3136035560582968
 20
344.1468553334811986
 30
0.0
 11
6032.3136035560582968
 21
344.6192962782811833
 31
0.0
  0
LINE
  5
2DF6A
  8
0
 10
6032.2840759969576538
 20
344.1468553334811986
 30
0.0
 11
6032.3136035560582968
 21
344.1468553334811986
 31
0.0
  0
LINE
  5
2DF6B
  8
0
 10
6032.2840759969576538
 20
344.1468553334811986
 30
0.0
 11
6032.2840759969576538
 21
343.5523671444811953
 31
0.0
  0
ARC
  5
2DF6C
  8
0
 10
6032.7348633990441158
 20
345.0529170319783816
 30
0.0
 40
0.2283464573914162
 50
215.0186283067017996
 51
248.087787665970211
  0
ARC
  5
2DF6D
  8
0
 10
6032.6235248158582181
 20
344.7761240975812029
 30
0.0
 40
0.0700000000000127
 50
309.3700284749687057
 51
68.0877877329803169
  0
ARC
  5
2DF6E
  8
0
 10
6033.0025926804119081
 20
344.3141638290744027
 30
0.0
 40
0.5275782255337789
 50
129.3711993614012954
 51
144.6644166627756078
  0
LINE
  5
2DF6F
  8
0
 10
6032.5065169418576261
 20
345.4618159633811842
 30
0.0
 11
6032.5065169418576261
 21
345.5697687192812282
 31
0.0
  0
ARC
  5
2DF70
  8
0
 10
6032.5265169418580626
 20
345.5697687192812282
 30
0.0
 40
0.020000000000007
 50
89.9999899732664517
 51
179.9999999999886029
  0
LINE
  5
2DF71
  8
0
 10
6032.5891941071586189
 20
345.6322569002812202
 30
0.0
 11
6032.5891941071586189
 21
345.58976871928121
 31
0.0
  0
LINE
  5
2DF72
  8
0
 10
6033.3667655749577534
 20
345.6814695162311182
 30
0.0
 11
6033.3667655749577534
 21
345.7995797429310869
 31
0.0
  0
LINE
  5
2DF73
  8
0
 10
6033.3667655749577534
 20
345.6814695162311182
 30
0.0
 11
6033.4159657608588532
 21
345.6322569002812202
 31
0.0
  0
LINE
  5
2DF74
  8
0
 10
6033.4573043434593274
 20
345.4204773806811772
 30
0.0
 11
6033.4986429261589365
 21
345.4618159633811842
 31
0.0
  0
LINE
  5
2DF75
  8
0
 10
6033.4573043434593274
 20
344.9218820767811735
 30
0.0
 11
6033.4573043434593274
 21
345.4204773806811772
 31
0.0
  0
LINE
  5
2DF76
  8
0
 10
6033.6915563119582657
 20
344.1468553334811986
 30
0.0
 11
6033.6915563119582657
 21
344.6192962782811833
 31
0.0
  0
LINE
  5
2DF77
  8
0
 10
6033.7210838710589087
 20
344.1468553334811986
 30
0.0
 11
6033.6915563119582657
 21
344.1468553334811986
 31
0.0
  0
LINE
  5
2DF78
  8
0
 10
6033.7210838710589087
 20
344.1468553334811986
 30
0.0
 11
6033.7210838710589087
 21
343.5523671444811953
 31
0.0
  0
ARC
  5
2DF79
  8
0
 10
6033.2702964689724467
 20
345.0529170319783816
 30
0.0
 40
0.2283464573914162
 50
291.912212334029789
 51
324.981371693298172
  0
ARC
  5
2DF7A
  8
0
 10
6033.3816350521583445
 20
344.7761240975812029
 30
0.0
 40
0.0700000000000138
 50
111.912212267017793
 51
230.6299715250355007
  0
ARC
  5
2DF7B
  8
0
 10
6033.0025671876046545
 20
344.3141638290744027
 30
0.0
 40
0.5275782255337981
 50
35.3355833372230066
 51
50.628800638597653
  0
LINE
  5
2DF7C
  8
0
 10
6033.4986429261589365
 20
345.4618159633811842
 30
0.0
 11
6033.4986429261589365
 21
345.5697687192812282
 31
0.0
  0
ARC
  5
2DF7D
  8
0
 10
6033.4786429261594094
 20
345.5697687192812282
 30
0.0
 40
0.020000000000007
 50
0.0000000000097707
 51
90.0000100267335483
  0
LINE
  5
2DF7E
  8
0
 10
6033.4159657608588532
 20
345.6322569002812202
 30
0.0
 11
6033.4159657608588532
 21
345.58976871928121
 31
0.0
  0
LINE
  5
2DF7F
  8
0
 10
6033.3555120646060459
 20
344.8410670688812161
 30
0.0
 11
6032.6496478034123356
 21
344.8410670688812161
 31
0.0
  0
LINE
  5
2DF80
  8
0
 10
6033.337232217593737
 20
344.7220095128312209
 30
0.0
 11
6032.6679276504228255
 21
344.7220095128312209
 31
0.0
  0
ARC
  5
2DF81
  8
0
 10
6047.13284645568001
 20
297.0085496050468805
 30
0.0
 40
0.3003196750072943
 50
237.7778365760310066
 51
302.2221634239688797
  0
ARC
  5
2DF82
  8
0
 10
6047.153511912745671
 20
297.0400550610717119
 30
0.0
 40
0.3379924676387338
 50
210.8931166559924861
 51
237.661905563506707
  0
ARC
  5
2DF83
  8
0
 10
6047.6477707036010543
 20
297.2813492883511231
 30
0.0
 40
0.8872491604257813
 50
188.8581788143401923
 51
207.8753141784075922
  0
ARC
  5
2DF84
  8
0
 10
6050.9925903205448776
 20
297.8404506987263858
 30
0.0
 40
4.2784323018285324
 50
183.147519439467203
 51
189.3585899856198012
  0
ARC
  5
2DF85
  8
0
 10
6057.1477557494117718
 20
298.2023736090371813
 30
0.0
 40
10.4442108451171798
 50
179.7229957471498949
 51
183.2759747725089881
  0
ARC
  5
2DF86
  8
0
 10
6047.1094777324187817
 20
297.0435948868606033
 30
0.0
 40
0.3424295271962259
 50
302.4034340610053846
 51
328.3990263240274885
  0
ARC
  5
2DF87
  8
0
 10
6046.4489355308087397
 20
297.3482608891139876
 30
0.0
 40
1.0681893594888421
 50
333.0510747690141784
 51
350.8301160211078127
  0
ARC
  5
2DF88
  8
0
 10
6046.4489355308087397
 20
297.3482608891139876
 30
0.0
 40
0.5170110999752791
 50
314.7447440890639996
 51
350.1575094633813023
  0
ARC
  5
2DF89
  8
0
 10
6034.8536559998983648
 20
298.8775787513413889
 30
0.0
 40
12.7634770122985
 50
352.3479353574612105
 51
357.208887400096728
  0
ARC
  5
2DF8A
  8
0
 10
6034.8536559998983648
 20
298.8775787513413889
 30
0.0
 40
12.2122987527849407
 50
352.3879712448891723
 51
357.2059879079727125
  0
ARC
  5
2DF8B
  8
0
 10
5768.9527052096946136
 20
311.2079982909925775
 30
0.0
 40
278.9501344334548207
 50
357.338742599117495
 51
357.9637518842495751
  0
ARC
  5
2DF8C
  8
0
 10
5768.9527052096946136
 20
311.2079982909925775
 30
0.0
 40
278.3989561739413148
 50
357.3388724987797218
 51
357.9637632132632916
  0
ARC
  5
2DF8D
  8
0
 10
6185.6582446827369495
 20
296.3647371915860731
 30
0.0
 40
138.0196852996664916
 50
175.3620340844661882
 51
177.9522902595342089
  0
ARC
  5
2DF8E
  8
0
 10
6185.6582446827369495
 20
296.3647371915860731
 30
0.0
 40
138.5708635591801112
 50
175.3620301963318866
 51
177.9523130883835051
  0
ARC
  5
2DF8F
  8
0
 10
6138.8503357250292538
 20
300.1589124676264078
 30
0.0
 40
91.058253332841872
 50
172.2232197988606117
 51
175.3600783172059892
  0
ARC
  5
2DF90
  8
0
 10
6138.8503357250292538
 20
300.1589124676264078
 30
0.0
 40
91.6094315923554348
 50
172.2220774148925955
 51
175.3600842029995874
  0
ARC
  5
2DF91
  8
0
 10
7180.3119525496877031
 20
150.2895540244304868
 30
0.0
 40
1143.2457669034979517
 50
171.6888150945603115
 51
171.8440042297930859
  0
ARC
  5
2DF92
  8
0
 10
7180.3119525496877031
 20
150.2895540244304868
 30
0.0
 40
1143.7969451630119693
 50
171.6888636331580926
 51
171.8440954723756988
  0
ARC
  5
2DF93
  8
0
 10
6035.7626115329112508
 20
319.6099780717352132
 30
0.0
 40
13.7059001814514296
 50
353.1271898273390093
 51
6.8728101726609916
  0
ARC
  5
2DF94
  8
0
 10
6035.7626115329112508
 20
319.6099780717352132
 30
0.0
 40
13.1547219219378704
 50
353.0977420069211803
 51
6.8339699816420012
  0
ARC
  5
2DF95
  8
0
 10
6044.3073790546286546
 20
320.4760024171131931
 30
0.0
 40
5.1214853250247661
 50
8.6934569746448993
 51
19.0509476508825912
  0
ARC
  5
2DF96
  8
0
 10
6044.3073790546286546
 20
320.4760024171131931
 30
0.0
 40
4.5703070655112024
 50
8.8012536520244122
 51
18.9341481922080312
  0
ARC
  5
2DF97
  8
0
 10
6048.7517330282826151
 20
322.4281085242693052
 30
0.0
 40
0.844669184730489
 50
307.4917186818448727
 51
312.9276978004857028
  0
ARC
  5
2DF98
  8
0
 10
6048.7506114276247899
 20
322.4885561239740923
 30
0.0
 40
0.8464566968334045
 50
306.393417468155917
 51
313.5013836426319926
  0
LINE
  5
2DF99
  8
0
 10
6049.2998240285578504
 20
321.8652664985683032
 30
0.0
 11
6049.2998240285578504
 21
321.8444696412312283
 31
0.0
  0
ARC
  5
2DF9A
  8
0
 10
6008.8281963628196536
 20
321.8432707536010753
 30
0.0
 40
40.7264434604587393
 50
352.7387400520348137
 51
354.5424522571788088
  0
ARC
  5
2DF9B
  8
0
 10
6008.8281963628196536
 20
321.8432707536010753
 30
0.0
 40
40.1752652009451694
 50
352.7385462922201214
 51
354.552227558449772
  0
ARC
  5
2DF9C
  8
0
 10
5973.9887989472663321
 20
326.2446079075306216
 30
0.0
 40
75.842744916332137
 50
351.8898771742823897
 51
352.7670310587391214
  0
ARC
  5
2DF9D
  8
0
 10
5973.9887989472663321
 20
326.2446079075306216
 30
0.0
 40
75.2915666568185742
 50
351.890611690355172
 51
352.7671347760133926
  0
LINE
  5
2DF9E
  8
0
 10
6048.6276534058579273
 20
322.2512441504812273
 30
0.0
 11
6048.9593839886592832
 21
322.3719842083812068
 31
0.0
  0
LINE
  5
2DF9F
  8
0
 10
6048.9593839886592832
 20
322.3719842083812068
 30
0.0
 11
6049.0066994589151363
 21
322.1758416386400086
 31
0.0
  0
LINE
  5
2DFA0
  8
0
 10
6048.6276534058579273
 20
322.2512441504812273
 30
0.0
 11
6048.7174862903975736
 21
322.0705731178372844
 31
0.0
  0
ARC
  5
2DFA1
  8
0
 10
6048.7491011371075729
 20
322.0862925878190026
 30
0.0
 40
0.0353072268662717
 50
206.437390578330394
 51
248.4524765016140861
  0
ARC
  5
2DFA2
  8
0
 10
6048.77920957007791
 20
322.1625417697424041
 30
0.0
 40
0.1172856110895942
 50
248.4524765016147114
 51
278.8007170932687018
  0
ARC
  5
2DFA3
  8
0
 10
6048.728453517142043
 20
322.4903787858131068
 30
0.0
 40
0.4490284120902352
 50
278.8007170932687018
 51
301.1995323190096769
  0
ARC
  5
2DFA4
  8
0
 10
6048.8979357345078824
 20
322.2105252271762765
 30
0.0
 40
0.121855313738022
 50
301.1995323190096769
 51
324.1454336747337948
  0
ARC
  5
2DFA5
  8
0
 10
6048.9529189787181167
 20
322.1707904043408917
 30
0.0
 40
0.0540171733628777
 50
324.1454336747337948
 51
5.3656615275774042
  0
LINE
  5
2DFA6
  8
0
 10
6046.6128158702586006
 20
298.2688891401390947
 30
0.0
 11
6046.6128158702586006
 21
298.5284579238812057
 31
0.0
  0
LINE
  5
2DFA7
  8
0
 10
6046.6128158702586006
 20
298.5284579238812057
 30
0.0
 11
6046.5724899412398372
 21
298.5284579238812057
 31
0.0
  0
LINE
  5
2DFA9
  8
0
 10
6036.9384821814937823
 20
343.131107301981217
 30
0.0
 11
6036.9439750509591249
 21
343.0792101555351792
 31
0.0
  0
LINE
  5
2DFAA
  8
0
 10
6037.0522313163110084
 20
343.0792159562283814
 30
0.0
 11
6037.0576853165011926
 21
343.131107301981217
 31
0.0
  0
LINE
  5
2DFAB
  8
0
 10
6036.9519306143047288
 20
343.0720521839310777
 30
0.0
 11
6037.0442751411474092
 21
343.0720521839310777
 31
0.0
  0
ARC
  5
2DFAC
  8
0
 10
6037.0442751411474092
 20
343.0800521839310022
 30
0.0
 40
0.008
 50
270.0
 51
354.0000000247629259
  0
ARC
  5
2DFAD
  8
0
 10
6036.9519306143047288
 20
343.0800521839310022
 30
0.0
 40
0.008
 50
186.0417748226460901
 51
270.0
  0
ARC
  5
2DFAE
  8
0
 10
6036.6385966430898407
 20
343.0799261998258203
 30
0.0
 40
0.0078740158945971
 50
186.0000005435117885
 51
269.9999986485739214
  0
LINE
  5
2DFAF
  8
0
 10
6036.6252615658440845
 20
343.131107301981217
 30
0.0
 11
6036.6307657618854137
 21
343.0791031409702896
 31
0.0
  0
LINE
  5
2DFB0
  8
0
 10
6036.7390107006613107
 20
343.0792159562283814
 30
0.0
 11
6036.7444647008496759
 21
343.131107301981217
 31
0.0
  0
LINE
  5
2DFB1
  8
0
 10
6036.6385966429043037
 20
343.0720521839310777
 30
0.0
 11
6036.7310545254977114
 21
343.0720521839310777
 31
0.0
  0
ARC
  5
2DFB2
  8
0
 10
6036.7310545254977114
 20
343.0800521839310022
 30
0.0
 40
0.008
 50
270.0
 51
354.0000000250075232
  0
LINE
  5
2DFB3
  8
0
 10
6036.2001355992952085
 20
343.131107301981217
 30
0.0
 11
6036.2056284687578227
 21
343.0792101555351792
 31
0.0
  0
LINE
  5
2DFB4
  8
0
 10
6036.3138847341097062
 20
343.0792159562283246
 30
0.0
 11
6036.3193387343007998
 21
343.131107301981217
 31
0.0
  0
LINE
  5
2DFB5
  8
0
 10
6036.2135840321061551
 20
343.0720521839310777
 30
0.0
 11
6036.3059285589479259
 21
343.0720521839310777
 31
0.0
  0
ARC
  5
2DFB6
  8
0
 10
6036.2135840321061551
 20
343.0800521839310022
 30
0.0
 40
0.008
 50
186.0417748226460901
 51
270.0
  0
ARC
  5
2DFB7
  8
0
 10
6036.3059285589479259
 20
343.0800521839310022
 30
0.0
 40
0.008
 50
270.0
 51
354.0000000245274805
  0
ARC
  5
2DFB8
  8
0
 10
6035.915506854900741
 20
343.0798528384921156
 30
0.0
 40
0.0078009342257496
 50
269.5148404501578057
 51
354.4851594007463973
  0
LINE
  5
2DFB9
  8
0
 10
6035.8095344038947587
 20
343.131107301981217
 30
0.0
 11
6035.8150272733582824
 21
343.0792101555351792
 31
0.0
  0
LINE
  5
2DFBA
  8
0
 10
6035.9232716813394291
 20
343.0791031408633103
 30
0.0
 11
6035.9287375389030785
 21
343.131107301981217
 31
0.0
  0
LINE
  5
2DFBB
  8
0
 10
6035.8229828367047958
 20
343.0720521839310777
 30
0.0
 11
6035.9154408002532364
 21
343.0720521839310777
 31
0.0
  0
ARC
  5
2DFBC
  8
0
 10
6035.8229828367047958
 20
343.0800521839310022
 30
0.0
 40
0.008
 50
186.0417748224016066
 51
270.0
  0
ARC
  5
2DFBD
  8
0
 10
6035.6893865028887376
 20
343.0799261998258203
 30
0.0
 40
0.0078740158945971
 50
186.0000005435117885
 51
269.9999986485739214
  0
ARC
  5
2DFBE
  8
0
 10
6035.7820238766516923
 20
343.0798528384921156
 30
0.0
 40
0.0078009342257496
 50
269.5148404501578057
 51
354.4851594007463973
  0
LINE
  5
2DFBF
  8
0
 10
6035.67605142564571
 20
343.131107301981217
 30
0.0
 11
6035.6815556216852201
 21
343.0791031409702896
 31
0.0
  0
LINE
  5
2DFC0
  8
0
 10
6035.7897887030876518
 20
343.0791031408633103
 30
0.0
 11
6035.7952545606513013
 21
343.131107301981217
 31
0.0
  0
LINE
  5
2DFC1
  8
0
 10
6035.6893865027032007
 20
343.0720521839310777
 30
0.0
 11
6035.7819578220032781
 21
343.0720521839310777
 31
0.0
  0
LINE
  5
2DFC2
  8
0
 10
6035.3138739738951699
 20
343.131107301981217
 30
0.0
 11
6035.3193668433586936
 21
343.0792101555351223
 31
0.0
  0
LINE
  5
2DFC3
  8
0
 10
6035.4276231087105771
 20
343.0792159562283814
 30
0.0
 11
6035.4330771089007612
 21
343.131107301981217
 31
0.0
  0
LINE
  5
2DFC4
  8
0
 10
6035.3273224067061165
 20
343.0720521839310777
 30
0.0
 11
6035.5038337562482411
 21
343.0720521839310777
 31
0.0
  0
ARC
  5
2DFC5
  8
0
 10
6035.3273224067061165
 20
343.0800521839310022
 30
0.0
 40
0.008
 50
186.0417748229511972
 51
270.0
  0
ARC
  5
2DFC6
  8
0
 10
6035.4196669335478873
 20
343.0800521839310022
 30
0.0
 40
0.008
 50
270.0
 51
354.0000000247629259
  0
ARC
  5
2DFC7
  8
0
 10
6035.1748954575014068
 20
343.0798528384921156
 30
0.0
 40
0.0078009342257496
 50
269.5148404501578057
 51
354.4851594007463973
  0
LINE
  5
2DFC8
  8
0
 10
6035.0689230064936055
 20
343.131107301981217
 30
0.0
 11
6035.0744158759580387
 21
343.0792101555350087
 31
0.0
  0
LINE
  5
2DFC9
  8
0
 10
6035.1826602839382758
 20
343.0791031408633103
 30
0.0
 11
6035.1881261415010158
 21
343.131107301981217
 31
0.0
  0
LINE
  5
2DFCA
  8
0
 10
6035.082371439306371
 20
343.0720521839310777
 30
0.0
 11
6035.1748294028529926
 21
343.0720521839310777
 31
0.0
  0
ARC
  5
2DFCB
  8
0
 10
6035.082371439306371
 20
343.0800521839310022
 30
0.0
 40
0.008
 50
186.0417748241330003
 51
270.0
  0
LINE
  5
2DFCC
  8
0
 10
6034.7145820068453759
 20
343.131107301981217
 30
0.0
 11
6034.720074876309809
 21
343.0792101555350087
 31
0.0
  0
LINE
  5
2DFCD
  8
0
 10
6034.8283311416598735
 20
343.0792159562282109
 30
0.0
 11
6034.8337851418518767
 21
343.131107301981217
 31
0.0
  0
LINE
  5
2DFCE
  8
0
 10
6034.7280304396581414
 20
343.0720521839310777
 30
0.0
 11
6034.8203749664980933
 21
343.0720521839310777
 31
0.0
  0
ARC
  5
2DFCF
  8
0
 10
6034.7280304396581414
 20
343.0800521839310022
 30
0.0
 40
0.008
 50
186.0417748241330003
 51
270.0
  0
ARC
  5
2DFD0
  8
0
 10
6034.8203749664980933
 20
343.0800521839310022
 30
0.0
 40
0.008
 50
270.0
 51
354.0000000235237962
  0
ARC
  5
2DFD1
  8
0
 10
6034.5848722541886673
 20
343.0799261998258203
 30
0.0
 40
0.0078740158945971
 50
186.0000005435117885
 51
269.9999986485739214
  0
ARC
  5
2DFD2
  8
0
 10
6034.6775096279507125
 20
343.0798528384921156
 30
0.0
 40
0.0078009342257496
 50
269.5148404501578057
 51
354.4851594007463973
  0
LINE
  5
2DFD3
  8
0
 10
6034.5715371769438207
 20
343.131107301981217
 30
0.0
 11
6034.5770413729851498
 21
343.0791031409702896
 31
0.0
  0
LINE
  5
2DFD4
  8
0
 10
6034.6852744543894005
 20
343.0791031408633103
 30
0.0
 11
6034.6907403119521405
 21
343.131107301981217
 31
0.0
  0
LINE
  5
2DFD5
  8
0
 10
6034.5848722540040399
 20
343.0720521839310777
 30
0.0
 11
6034.6774435733032078
 21
343.0720521839310777
 31
0.0
  0
ARC
  5
2DFD6
  8
0
 10
6034.1837013411395674
 20
343.0799261998258203
 30
0.0
 40
0.0078740158945971
 50
186.0000005435117885
 51
269.9999986485739214
  0
ARC
  5
2DFD7
  8
0
 10
6034.2763387149016125
 20
343.0798528384921156
 30
0.0
 40
0.0078009342257496
 50
269.5148404501578057
 51
354.4851594007463973
  0
LINE
  5
2DFD8
  8
0
 10
6034.1703662638938113
 20
343.131107301981217
 30
0.0
 11
6034.1758704599351404
 21
343.0791031409702896
 31
0.0
  0
LINE
  5
2DFD9
  8
0
 10
6034.2841035413375721
 20
343.0791031408633103
 30
0.0
 11
6034.2895693989021311
 21
343.131107301981217
 31
0.0
  0
LINE
  5
2DFDA
  8
0
 10
6034.183701340953121
 20
343.0720521839310777
 30
0.0
 11
6034.2762726602531984
 21
343.0720521839310777
 31
0.0
  0
LINE
  5
2DFDB
  8
0
 10
6034.0378808605946688
 20
343.131107301981217
 30
0.0
 11
6034.0433737300591019
 21
343.0792101555350087
 31
0.0
  0
LINE
  5
2DFDC
  8
0
 10
6034.1516299954100759
 20
343.0792159562283246
 30
0.0
 11
6034.1570839956020791
 21
343.131107301981217
 31
0.0
  0
LINE
  5
2DFDD
  8
0
 10
6034.0196243315067477
 20
343.0720521839310777
 30
0.0
 11
6034.1436738202482957
 21
343.0720521839310777
 31
0.0
  0
ARC
  5
2DFDE
  8
0
 10
6034.0196243315067477
 20
343.0800521839310022
 30
0.0
 40
0.008
 50
186.0417748246275096
 51
270.0
  0
ARC
  5
2DFDF
  8
0
 10
6034.0513292934074343
 20
343.0800521839310022
 30
0.0
 40
0.008
 50
186.0417748236368141
 51
270.0
  0
ARC
  5
2DFE0
  8
0
 10
6034.1436738202482957
 20
343.0800521839310022
 30
0.0
 40
0.008
 50
270.0
 51
354.0000000238209168
  0
LINE
  5
2DFE1
  8
0
 10
6033.6812853367437128
 20
343.131107301981217
 30
0.0
 11
6033.6867782062172409
 21
343.0792101554592932
 31
0.0
  0
LINE
  5
2DFE2
  8
0
 10
6033.795034471560939
 20
343.0792159562280972
 30
0.0
 11
6033.8004884717520326
 21
343.131107301981217
 31
0.0
  0
LINE
  5
2DFE3
  8
0
 10
6033.6650486047128652
 20
343.0720521838313744
 30
0.0
 11
6033.7870782964046157
 21
343.0720521839309072
 31
0.0
  0
ARC
  5
2DFE4
  8
0
 10
6033.6650486047055892
 20
343.0800521838312989
 30
0.0
 40
0.008
 50
186.0417748242032019
 51
270.0000000467949803
  0
ARC
  5
2DFE5
  8
0
 10
6033.6900474727153778
 20
343.0800521838518193
 30
0.0
 40
0.008
 50
186.041774823888403
 51
270.0000000467949803
  0
ARC
  5
2DFE6
  8
0
 10
6033.6947337695646638
 20
343.0800521838556278
 30
0.0
 40
0.008
 50
186.0417748248790986
 51
270.0000000467949803
  0
ARC
  5
2DFE7
  8
0
 10
6033.7870782963982492
 20
343.0800521839310022
 30
0.0
 40
0.008
 50
270.0000000467949803
 51
354.0000000237754989
  0
ARC
  5
2DFE8
  8
0
 10
6037.1436837184392061
 20
343.0799261997257759
 30
0.0
 40
0.0078740158945971
 50
186.0000005435117885
 51
269.9999986485739214
  0
LINE
  5
2DFE9
  8
0
 10
6037.1303486411834456
 20
343.131107301981217
 30
0.0
 11
6037.1358528372365981
 21
343.0791031408701883
 31
0.0
  0
LINE
  5
2DFEA
  8
0
 10
6037.2440977760106762
 20
343.0792159561286212
 30
0.0
 11
6037.2495517762117743
 21
343.131107301981217
 31
0.0
  0
LINE
  5
2DFEB
  8
0
 10
6037.1436837182545787
 20
343.0720521838312038
 30
0.0
 11
6037.3009841143566518
 21
343.0720521838312038
 31
0.0
  0
ARC
  5
2DFEC
  8
0
 10
6037.2361416008479864
 20
343.0800521838312989
 30
0.0
 40
0.008
 50
270.0
 51
354.0000000249913228
  0
ARC
  5
2DFED
  8
0
 10
6036.5150337716022477
 20
343.0798528383920143
 30
0.0
 40
0.0078009342257496
 50
269.5148404501578057
 51
354.4851594007463973
  0
LINE
  5
2DFEE
  8
0
 10
6036.409061320584442
 20
343.131107301981217
 30
0.0
 11
6036.4145541900579701
 21
343.079210155435419
 31
0.0
  0
LINE
  5
2DFEF
  8
0
 10
6036.5227985980382073
 20
343.0791031407633795
 30
0.0
 11
6036.5282644556127707
 21
343.131107301981217
 31
0.0
  0
LINE
  5
2DFF0
  8
0
 10
6036.422509753407212
 20
343.0720521838312038
 30
0.0
 11
6036.5149677169538336
 21
343.0720521838312038
 31
0.0
  0
ARC
  5
2DFF1
  8
0
 10
6036.422509753407212
 20
343.0800521838312989
 30
0.0
 40
0.008
 50
186.0417748224679997
 51
270.0
  0
LINE
  5
2DFF2
  8
0
 10
6036.1801975368825879
 20
343.131107301981217
 30
0.0
 11
6036.185690406357935
 21
343.0792101554358169
 31
0.0
  0
ARC
  5
2DFF3
  8
0
 10
6036.1936459697062674
 20
343.0800521838318105
 30
0.0
 40
0.008
 50
186.0417748236255022
 51
270.0000002874920142
  0
LINE
  5
2DFF4
  8
0
 10
6036.1936459697462851
 20
343.0720521838317723
 30
0.0
 11
6036.2134323379377747
 21
343.0720521839310777
 31
0.0
  0
ARC
  5
2DFF5
  8
0
 10
6034.9606710068392204
 20
343.0799261998258203
 30
0.0
 40
0.0078740158945971
 50
186.0000005435117885
 51
269.9999986485739214
  0
LINE
  5
2DFF6
  8
0
 10
6034.9473359295943737
 20
343.131107301981217
 30
0.0
 11
6034.9528401256366124
 21
343.0791031409702896
 31
0.0
  0
LINE
  5
2DFF7
  8
0
 10
6035.0610850644106904
 20
343.0792159562282109
 30
0.0
 11
6035.066539064601784
 21
343.131107301981217
 31
0.0
  0
LINE
  5
2DFF8
  8
0
 10
6034.9542522248493697
 20
343.0720521839310777
 30
0.0
 11
6035.0531288892489101
 21
343.0720521839310777
 31
0.0
  0
ARC
  5
2DFF9
  8
0
 10
6035.0531288892489101
 20
343.0800521839310022
 30
0.0
 40
0.008
 50
270.0
 51
354.0000000237754989
  0
ARC
  5
2DFFA
  8
0
 10
6034.9542908977400657
 20
343.0799261997257759
 30
0.0
 40
0.0078740158945971
 50
186.0000005435117885
 51
269.9999986485739214
  0
LINE
  5
2DFFB
  8
0
 10
6034.9409558204843051
 20
343.131107301981217
 30
0.0
 11
6034.9464600165347292
 21
343.0791031408701883
 31
0.0
  0
LINE
  5
2DFFC
  8
0
 10
6034.3971976316943255
 20
343.131107301981217
 30
0.0
 11
6034.4026905011596682
 21
343.0792101555347813
 31
0.0
  0
LINE
  5
2DFFD
  8
0
 10
6034.5109467665115517
 20
343.0792159562283814
 30
0.0
 11
6034.5164007667008264
 21
343.131107301981217
 31
0.0
  0
LINE
  5
2DFFE
  8
0
 10
6034.3737100220059801
 20
343.0720521839310777
 30
0.0
 11
6034.5029905913479524
 21
343.0720521839310777
 31
0.0
  0
ARC
  5
2DFFF
  8
0
 10
6034.3737100220059801
 20
343.0800521839310022
 30
0.0
 40
0.008
 50
186.041774823888403
 51
270.0
  0
ARC
  5
2E000
  8
0
 10
6034.4106460645070911
 20
343.0800521839310022
 30
0.0
 40
0.008
 50
186.0417748248790986
 51
270.0
  0
ARC
  5
2E001
  8
0
 10
6034.5029905913479524
 20
343.0800521839310022
 30
0.0
 40
0.008
 50
270.0
 51
354.0000000247629259
  0
LINE
  5
2E002
  8
0
 10
6034.3602615891941241
 20
343.131107301981217
 30
0.0
 11
6034.3657544586576478
 21
343.0792101555350087
 31
0.0
  0
LINE
  5
2E003
  8
0
 10
6034.0061758986939822
 20
343.131107301981217
 30
0.0
 11
6034.0116687681593248
 21
343.079210155534895
 31
0.0
  0
LINE
  5
2E004
  8
0
 10
6033.6765990398953363
 20
343.131107301981217
 30
0.0
 11
6033.6820919093679549
 21
343.0792101554557121
 31
0.0
  0
LINE
  5
2E005
  8
0
 10
6033.6516001718819098
 20
343.131107301981217
 30
0.0
 11
6033.6570930413590759
 21
343.0792101554353053
 31
0.0
  0
LINE
  5
2E006
  8
0
 10
6033.3123570637853845
 20
343.131107301981217
 30
0.0
 11
6033.3178499332479987
 21
343.0792101555351792
 31
0.0
  0
LINE
  5
2E007
  8
0
 10
6033.2973144494953885
 20
343.131107301981217
 30
0.0
 11
6033.3028073189589122
 21
343.0792101555351223
 31
0.0
  0
LINE
  5
2E008
  8
0
 10
6033.3135749386838143
 20
343.131107301981217
 30
0.0
 11
6033.3190678081473379
 21
343.0792101555351223
 31
0.0
  0
LINE
  5
2E009
  8
0
 10
6033.4273240735219588
 20
343.0792159562280972
 30
0.0
 11
6033.4327780737121429
 21
343.131107301981217
 31
0.0
  0
LINE
  5
2E00A
  8
0
 10
6035.5117899314109309
 20
343.0792159562283246
 30
0.0
 11
6035.517243931601115
 21
343.131107301981217
 31
0.0
  0
ARC
  5
2E00B
  8
0
 10
6035.5038337562482411
 20
343.0800521839310022
 30
0.0
 40
0.008
 50
270.0
 51
354.0000000240199824
  0
ARC
  5
2E00C
  8
0
 10
6036.5922202973006279
 20
343.0798528384921156
 30
0.0
 40
0.0078009342257496
 50
269.5148404501578057
 51
354.4851594007463973
  0
LINE
  5
2E00D
  8
0
 10
6036.5999851237384064
 20
343.0791031408633103
 30
0.0
 11
6036.6054509813011464
 21
343.131107301981217
 31
0.0
  0
LINE
  5
2E00E
  8
0
 10
6036.5149677169538336
 20
343.0720521838312038
 30
0.0
 11
6036.5921542426540327
 21
343.0720521839310777
 31
0.0
  0
ARC
  5
2E00F
  8
0
 10
6037.3009180479011775
 20
343.0798528382921972
 30
0.0
 40
0.0078009342257496
 50
269.5148404501578057
 51
354.4851594007463973
  0
LINE
  5
2E010
  8
0
 10
6037.308682874338956
 20
343.0791031406632783
 30
0.0
 11
6037.3141487319226144
 21
343.131107301981217
 31
0.0
  0
LINE
  5
2E011
  8
0
 10
6033.3107628823063351
 20
343.0720521839310777
 30
0.0
 11
6033.4193678983583595
 21
343.0720521839310777
 31
0.0
  0
ARC
  5
2E012
  8
0
 10
6033.3107628823063351
 20
343.0800521839310022
 30
0.0
 40
0.008
 50
186.0417748229706092
 51
270.0
  0
ARC
  5
2E013
  8
0
 10
6033.3258054965954216
 20
343.0800521839310022
 30
0.0
 40
0.008
 50
186.0417748226525987
 51
270.0
  0
ARC
  5
2E014
  8
0
 10
6033.3270233714947608
 20
343.0800521839310022
 30
0.0
 40
0.008
 50
186.0417748228846904
 51
270.0
  0
ARC
  5
2E015
  8
0
 10
6033.4193678983583595
 20
343.0800521839310022
 30
0.0
 40
0.008
 50
270.0
 51
354.0000000233878268
  0
ENDSEC
  0
EOF
