  0
SECTION
  2
HEADER
  9
$ACADVER
  1
AC1009
  9
$INSBASE
 10
4406.2650075398742047
 20
214.6184133209119125
 30
0.0
  9
$EXTMIN
 10
4383.9466300443546061
 20
214.6160593119487885
 30
-0.0000000000000058
  9
$EXTMAX
 10
4406.4704676462952193
 20
258.2857545379055182
 30
0.0000000000000104
  9
$LIMMIN
 10
0.0
 20
0.0
  9
$LIMMAX
 10
11.6929133858000007
 20
8.2677165353999982
  9
$ORTHOMODE
 70
     0
  9
$REGENMODE
 70
     1
  9
$FILLMODE
 70
     1
  9
$QTEXTMODE
 70
     0
  9
$MIRRTEXT
 70
     0
  9
$DRAGMODE
 70
     2
  9
$LTSCALE
 40
0.6431102362
  9
$OSMODE
 70
     7
  9
$ATTMODE
 70
     1
  9
$TEXTSIZE
 40
0.2
  9
$TRACEWID
 40
0.05
  9
$TEXTSTYLE
  7
STANDARD
  9
$CLAYER
  8
0
  9
$CELTYPE
  6
BYLAYER
  9
$CECOLOR
 62
   256
  9
$DIMSCALE
 40
1.0
  9
$DIMASZ
 40
0.1875
  9
$DIMEXO
 40
0.0625
  9
$DIMDLI
 40
0.4443307087
  9
$DIMRND
 40
0.0
  9
$DIMDLE
 40
0.0
  9
$DIMEXE
 40
0.125
  9
$DIMTP
 40
0.01
  9
$DIMTM
 40
0.01
  9
$DIMTXT
 40
2.0
  9
$DIMCEN
 40
0.1052362205
  9
$DIMTSZ
 40
0.0
  9
$DIMTOL
 70
     1
  9
$DIMLIM
 70
     0
  9
$DIMTIH
 70
     1
  9
$DIMTOH
 70
     1
  9
$DIMSE1
 70
     0
  9
$DIMSE2
 70
     0
  9
$DIMTAD
 70
     0
  9
$DIMZIN
 70
     0
  9
$DIMBLK
  1

  9
$DIMASO
 70
     1
  9
$DIMSHO
 70
     1
  9
$DIMPOST
  1
\X
  9
$DIMAPOST
  1

  9
$DIMALT
 70
     1
  9
$DIMALTD
 70
     2
  9
$DIMALTF
 40
25.3999999999999986
  9
$DIMLFAC
 40
1.0
  9
$DIMTOFL
 70
     0
  9
$DIMTVP
 40
0.0
  9
$DIMTIX
 70
     0
  9
$DIMSOXD
 70
     0
  9
$DIMSAH
 70
     0
  9
$DIMBLK1
  1

  9
$DIMBLK2
  1

  9
$DIMSTYLE
  2
STANDARD
  9
$DIMCLRD
 70
     0
  9
$DIMCLRE
 70
     0
  9
$DIMCLRT
 70
     0
  9
$DIMTFAC
 40
1.0
  9
$DIMGAP
 40
0.09
  9
$LUNITS
 70
     2
  9
$LUPREC
 70
     4
  9
$SKETCHINC
 40
0.1
  9
$FILLETRAD
 40
0.0
  9
$AUNITS
 70
     0
  9
$AUPREC
 70
     0
  9
$MENU
  1
.
  9
$ELEVATION
 40
0.0
  9
$PELEVATION
 40
0.0
  9
$THICKNESS
 40
0.0
  9
$LIMCHECK
 70
     0
  9
$BLIPMODE
 70
     0
  9
$CHAMFERA
 40
0.0
  9
$CHAMFERB
 40
0.0
  9
$SKPOLY
 70
     0
  9
$TDCREATE
 40
2458060.468368056230247
  9
$TDUPDATE
 40
2459464.4019560189917684
  9
$TDINDWG
 40
0.6744515046
  9
$TDUSRTIMER
 40
0.6744515046
  9
$USRTIMER
 70
     1
  9
$ANGBASE
 50
0.0
  9
$ANGDIR
 70
     0
  9
$PDMODE
 70
     0
  9
$PDSIZE
 40
0.3125
  9
$PLINEWID
 40
0.0
  9
$COORDS
 70
     1
  9
$SPLFRAME
 70
     0
  9
$SPLINETYPE
 70
     6
  9
$SPLINESEGS
 70
     8
  9
$ATTDIA
 70
     1
  9
$ATTREQ
 70
     1
  9
$HANDLING
 70
     1
  9
$HANDSEED
  5
13C76
  9
$SURFTAB1
 70
     6
  9
$SURFTAB2
 70
     6
  9
$SURFTYPE
 70
     6
  9
$SURFU
 70
     6
  9
$SURFV
 70
     6
  9
$UCSNAME
  2

  9
$UCSORG
 10
0.0
 20
0.0
 30
0.0
  9
$UCSXDIR
 10
1.0
 20
0.0
 30
0.0
  9
$UCSYDIR
 10
0.0
 20
1.0
 30
0.0
  9
$PUCSNAME
  2

  9
$PUCSORG
 10
0.0
 20
0.0
 30
0.0
  9
$PUCSXDIR
 10
1.0
 20
0.0
 30
0.0
  9
$PUCSYDIR
 10
0.0
 20
1.0
 30
0.0
  9
$USERI1
 70
     0
  9
$USERI2
 70
     0
  9
$USERI3
 70
     0
  9
$USERI4
 70
     0
  9
$USERI5
 70
     0
  9
$USERR1
 40
0.0
  9
$USERR2
 40
0.0
  9
$USERR3
 40
0.0
  9
$USERR4
 40
0.0
  9
$USERR5
 40
0.0
  9
$WORLDVIEW
 70
     1
  9
$SHADEDGE
 70
     3
  9
$SHADEDIF
 70
    70
  9
$TILEMODE
 70
     1
  9
$MAXACTVP
 70
    64
  9
$PLIMCHECK
 70
     0
  9
$PEXTMIN
 10
1.0000000000000000E+20
 20
1.0000000000000000E+20
 30
1.0000000000000000E+20
  9
$PEXTMAX
 10
-1.0000000000000000E+20
 20
-1.0000000000000000E+20
 30
-1.0000000000000000E+20
  9
$PLIMMIN
 10
0.0
 20
0.0
  9
$PLIMMAX
 10
12.0
 20
9.0
  9
$UNITMODE
 70
     0
  9
$VISRETAIN
 70
     1
  9
$PLINEGEN
 70
     0
  9
$PSLTSCALE
 70
     1
  0
ENDSEC
  0
SECTION
  2
TABLES
  0
TABLE
  2
VPORT
 70
     1
  0
VPORT
  2
*ACTIVE
 70
     0
 10
0.0
 20
0.0
 11
1.0
 21
1.0
 12
233.6521523609499127
 22
10.3400747105716899
 13
0.0
 23
0.0
 14
1.0
 24
1.0
 15
0.0
 25
0.0
 16
0.0
 26
0.0
 36
202.37134017897489
 17
4161.556396484375
 27
226.1108322143554972
 37
0.0
 40
43.8755225404545683
 41
2.2539308176100619
 42
50.0
 43
0.0
 44
0.0
 50
0.0
 51
0.0
 71
     0
 72
   100
 73
     1
 74
     1
 75
     0
 76
     0
 77
     0
 78
     0
  0
ENDTAB
  0
TABLE
  2
LTYPE
 70
     2
  0
LTYPE
  2
CONTINUOUS
 70
     0
  3
Solid line
 72
    65
 73
     0
 40
0.0
  0
LTYPE
  2
PHANTOM2
 70
     0
  3
___ _ _ ___ _ _ ___ _ _ ___ _ _
 72
    65
 73
     6
 40
1.25
 49
0.625
 49
-0.125
 49
0.125
 49
-0.125
 49
0.125
 49
-0.125
  0
ENDTAB
  0
TABLE
  2
LAYER
 70
     2
  0
LAYER
  2
0
 70
     0
 62
   255
  6
CONTINUOUS
  0
LAYER
  2
DEFPOINTS
 70
     0
 62
     7
  6
CONTINUOUS
  0
ENDTAB
  0
TABLE
  2
STYLE
 70
     1
  0
STYLE
  2
STANDARD
 70
     0
 40
0.0
 41
0.8
 50
0.0
 71
     0
 42
0.2
  3
txt
  4

  0
ENDTAB
  0
TABLE
  2
VIEW
 70
     0
  0
ENDTAB
  0
TABLE
  2
UCS
 70
     0
  0
ENDTAB
  0
TABLE
  2
APPID
 70
    10
  0
APPID
  2
ACAD
 70
     0
  0
APPID
  2
ACAD_MLEADERVER
 70
     0
  0
APPID
  2
ACAD_EXEMPT_FROM_CAD_STANDARDS
 70
     0
  0
APPID
  2
ACAD_NAV_VCDISPLAY
 70
     0
  0
APPID
  2
ACAECLAYERSTANDARD
 70
     0
  0
APPID
  2
ACCMTRANSPARENCY
 70
     0
  0
APPID
  2
ACAD_DSTYLE_DIMJAG
 70
     0
  0
APPID
  2
ACAD_DSTYLE_DIMTALN
 70
     0
  0
APPID
  2
ACDBATTR
 70
     0
  0
APPID
  2
DCO15
 70
     0
  0
ENDTAB
  0
TABLE
  2
DIMSTYLE
 70
     1
  0
DIMSTYLE
  2
STANDARD
 70
     0
  3

  4

  5

  6

  7

 40
1.0
 41
0.1875
 42
0.0625
 43
0.38
 44
0.125
 45
0.0
 46
0.0
 47
0.01
 48
0.01
140
0.15625
141
0.09
142
0.0
143
25.3999999999999986
144
1.0
145
0.0
146
1.0
147
0.09
 71
     1
 72
     0
 73
     1
 74
     1
 75
     0
 76
     0
 77
     0
 78
     4
170
     0
171
     2
172
     0
173
     0
174
     0
175
     0
176
     0
177
     0
178
     0
  0
ENDTAB
  0
ENDSEC
  0
SECTION
  2
BLOCKS
  0
BLOCK
  8
0
  2
$MODEL_SPACE
 70
     0
 10
0.0
 20
0.0
 30
0.0
  3
$MODEL_SPACE
  1

  0
ENDBLK
  5
21
  8
0
  0
BLOCK
 67
     1
  8
0
  2
$PAPER_SPACE
 70
     0
 10
0.0
 20
0.0
 30
0.0
  3
$PAPER_SPACE
  1

  0
ENDBLK
  5
1D
 67
     1
  8
0
  0
ENDSEC
  0
SECTION
  2
ENTITIES
  0
ATTDEF
  5
12CA7
  8
DEFPOINTS
 10
4406.265006567616183
 20
214.6217556984099986
 30
0.0
 40
0.001
  1
K-23132T-CPS
  3

  2
MODELNUMBER
 70
     0
1001
ACDBATTR
1070
     0
1070
     1
  0
ATTDEF
  5
12CA8
  8
DEFPOINTS
 10
4406.265006567616183
 20
214.620089031743305
 30
0.0
 40
0.001
  1
REVE
  3

  2
TRADENAME
 70
     0
1001
ACDBATTR
1070
     0
1070
     1
  0
ATTDEF
  5
12CA9
  8
DEFPOINTS
 10
4406.265006567616183
 20
214.6184223650766967
 30
0.0
 40
0.001
  1
TOILET
  3

  2
PRODUCT
 70
     0
1001
ACDBATTR
1070
     0
1070
     1
  0
LINE
  5
13B65
  8
0
 10
4406.2650075398742047
 20
258.2817755256119199
 30
0.0
 11
4406.2650075398742047
 21
252.0613030847119092
 31
0.0
  0
LINE
  5
13B66
  8
0
 10
4406.2650075398742047
 20
230.3684133209119125
 30
0.0
 11
4406.2650075398742047
 21
216.3920353682119071
 31
0.0
  0
LINE
  5
13B67
  8
0
 10
4384.533422858213271
 20
230.3684133209119125
 30
0.0
 11
4406.2650075398742047
 21
230.3684133209119125
 31
0.0
  0
LINE
  5
13B68
  8
0
 10
4384.0676003585576836
 20
230.5652635589119086
 30
0.0
 11
4401.6225511897446268
 21
230.5652635589119086
 31
0.0
  0
LINE
  5
13B69
  8
0
 10
4406.2650075398742047
 20
218.7542400926118944
 30
0.0
 11
4387.6320505148751181
 21
218.7542400926118944
 31
0.0
  0
LINE
  5
13B6A
  8
0
 10
4406.2650075398742047
 20
216.3920353682119071
 30
0.0
 11
4403.3955304352775784
 21
216.3920353682119071
 31
0.0
  0
LINE
  5
13B6B
  8
0
 10
4384.3067931245750515
 20
230.0655664614118905
 30
0.0
 11
4387.6320505148751181
 21
218.7542400926118944
 31
0.0
  0
ARC
  5
13B6C
  8
0
 10
4384.533422858213271
 20
230.132192848436091
 30
0.0
 40
0.2362204724758409
 50
90.0000000091974357
 51
196.382695114425502
  0
ARC
  5
13B6D
  8
0
 10
4398.1180577190525582
 20
220.5265794362344138
 30
0.0
 40
3.6146799735779291
 50
209.3614247041909948
 51
249.3374150456772043
  0
ARC
  5
13B6E
  8
0
 10
4397.9851181801186613
 20
220.7356206747980991
 30
0.0
 40
3.768577984662143
 50
252.3514084070019123
 51
278.2673700885414974
  0
ARC
  5
13B6F
  8
0
 10
4398.2491623323330714
 20
219.4542336002305944
 30
0.0
 40
2.4637446702677068
 50
276.4753265134384037
 51
310.4474417839099942
  0
ARC
  5
13B70
  8
0
 10
4397.1687312090671185
 20
220.4217116354591042
 30
0.0
 40
3.9057755157607801
 50
313.3026919603104261
 51
334.7274564765310174
  0
ARC
  5
13B71
  8
0
 10
4402.792631155239178
 20
218.6360708300142903
 30
0.0
 40
0.1181726241790457
 50
56.2241338919154288
 51
89.5409507722569629
  0
ARC
  5
13B72
  8
0
 10
4402.7929508783990968
 20
218.6365488622209057
 30
0.0
 40
0.1175975261965572
 50
2.906652550763007
 51
56.2241338919154288
  0
LINE
  5
13B73
  8
0
 10
4402.9103971125750832
 20
218.6425121034118888
 30
0.0
 11
4403.0023007555746517
 21
216.7664730227118923
 31
0.0
  0
ARC
  5
13B74
  8
0
 10
4403.3955304352775784
 20
216.7857366086745117
 30
0.0
 40
0.393701240463652
 50
182.804570922166306
 51
270.0
  0
ARC
  5
13B75
  8
0
 10
4404.0602830172492759
 20
226.0964608169111045
 30
0.0
 40
0.5118410387832015
 50
62.277123116402322
 51
117.7228768835977064
  0
ARC
  5
13B76
  8
0
 10
4404.0602831299656827
 20
226.0910290679400134
 30
0.0
 40
0.5120929740718636
 50
63.5572062099354511
 51
116.4427937900640018
  0
ARC
  5
13B77
  8
0
 10
4404.0325481734598725
 20
226.1350897592785998
 30
0.0
 40
0.4643982504606377
 50
157.5044682029447927
 51
202.4955317970548094
  0
ARC
  5
13B78
  8
0
 10
4404.0325481734598725
 20
226.1299088557892958
 30
0.0
 40
0.4643982504606377
 50
157.5044682029447927
 51
179.6803977587022132
  0
ARC
  5
13B79
  8
0
 10
4404.044610486928832
 20
226.1247190146673915
 30
0.0
 40
0.479536418755403
 50
117.6359108113200023
 51
156.9110582255007955
  0
ARC
  5
13B7A
  8
0
 10
4404.0451123448838189
 20
226.1191685079151057
 30
0.0
 40
0.4801430412963238
 50
116.3171382869587944
 51
156.8939714368165141
  0
ARC
  5
13B7B
  8
0
 10
4404.0602831299656827
 20
226.1737151568636932
 30
0.0
 40
0.5118379533518161
 50
242.2769273542041901
 51
297.7230726457955257
  0
ARC
  5
13B7C
  8
0
 10
4404.044610486928832
 20
226.1454605038896943
 30
0.0
 40
0.479536418755403
 50
203.0889417744992045
 51
242.3640891886799977
  0
ARC
  5
13B7D
  8
0
 10
4404.0880180864687645
 20
226.1350897592785998
 30
0.0
 40
0.4643982504606377
 50
337.5044682029447927
 51
22.4955317970551683
  0
ARC
  5
13B7E
  8
0
 10
4404.0880180864687645
 20
226.1299088557892958
 30
0.0
 40
0.4643982504606377
 50
0.3196022412978198
 51
22.4955317970551683
  0
ARC
  5
13B7F
  8
0
 10
4404.0759565389016643
 20
226.1247195102968135
 30
0.0
 40
0.4795355198403956
 50
23.0889231863397484
 51
62.3641666530232968
  0
ARC
  5
13B80
  8
0
 10
4404.0754539150466371
 20
226.1191685079151057
 30
0.0
 40
0.4801430412963238
 50
23.1060285631835285
 51
63.68286171304117
  0
ARC
  5
13B81
  8
0
 10
4404.075955773001624
 20
226.1454605038896943
 30
0.0
 40
0.479536418755403
 50
297.6359108113200023
 51
336.9110582255008239
  0
ARC
  5
13B82
  8
0
 10
4384.0676003585576836
 20
230.6046336375734995
 30
0.0
 40
0.0393700786615722
 50
177.4288365065146138
 51
270.0000000000259774
  0
LINE
  5
13B83
  8
0
 10
4384.0282699147746825
 20
230.6063997875118901
 30
0.0
 11
4384.0945454343745951
 21
232.0822900294118938
 31
0.0
  0
ARC
  5
13B84
  8
0
 10
4384.3305289415447987
 20
232.0716831461539016
 30
0.0
 40
0.2362217636648201
 50
91.6193998360338639
 51
177.4264265960067917
  0
ARC
  5
13B85
  8
0
 10
4396.6930890222884045
 20
-200.5870753509566953
 30
0.0
 40
433.0715648061445791
 50
91.0584932988242173
 51
91.636684217022335
  0
ARC
  5
13B86
  8
0
 10
4396.6930976631047088
 20
-200.5926266345547049
 30
0.0
 40
433.0771153020878046
 50
89.421371856308383
 51
91.058480874568545
  0
ARC
  5
13B87
  8
0
 10
4401.0617361416852873
 20
231.989541812290696
 30
0.0
 40
0.4728880438845698
 50
54.9905949022824814
 51
89.4040750510407634
  0
ARC
  5
13B88
  8
0
 10
4400.5432051957577642
 20
231.2492615364363076
 30
0.0
 40
1.376707289476885
 50
46.4799284573191329
 51
54.9905949022824814
  0
ARC
  5
13B89
  8
0
 10
4401.4838256886250747
 20
232.2269870571049069
 30
0.0
 40
0.021858472685725
 50
27.1477004632154006
 51
70.2341198200571597
  0
ARC
  5
13B8A
  8
0
 10
4401.4557019362082428
 20
232.2145307905927893
 30
0.0
 40
0.0525966112395894
 50
350.4051589038116958
 51
25.242663787699879
  0
ARC
  5
13B8B
  8
0
 10
4401.6962277304992313
 20
232.1801975011970001
 30
0.0
 40
0.1903893651275271
 50
172.2827072407646085
 51
179.4807961337270115
  0
ARC
  5
13B8C
  8
0
 10
4417.5337707181679434
 20
232.0397688841792103
 30
0.0
 40
16.0285549144945492
 50
179.4918491754795866
 51
179.5601164518824078
  0
ARC
  5
13B8D
  8
0
 10
4400.3100652207776875
 20
231.2332077896134024
 30
0.0
 40
1.5144977637970509
 50
22.6384366816376996
 51
37.8656905163627613
  0
ARC
  5
13B8E
  8
0
 10
4400.3100653295650773
 20
231.2332078349832898
 30
0.0
 40
1.5144976459270569
 50
4.0976072013492724
 51
22.6384366816376996
  0
LINE
  5
13B8F
  8
0
 10
4401.8206915680748352
 20
231.3414274591119124
 30
0.0
 11
4401.8365894083754029
 21
231.1195106489118984
 31
0.0
  0
ARC
  5
13B90
  8
0
 10
4400.6392228244822036
 20
231.042266072116206
 30
0.0
 40
1.199855600006976
 50
359.3027650482961803
 51
3.6911534280935721
  0
ARC
  5
13B91
  8
0
 10
4404.1501332610068857
 20
230.9465642337167139
 30
0.0
 40
2.312566211020977
 50
177.9902396654653955
 51
183.0539120033531901
  0
LINE
  5
13B92
  8
0
 10
4401.8408512464748128
 20
230.8233609151118912
 30
0.0
 11
4401.845434168574684
 21
230.7581583714118949
 31
0.0
  0
ARC
  5
13B93
  8
0
 10
4401.7234398866867195
 20
230.7474748219501066
 30
0.0
 40
0.122461189943571
 50
340.5027811611482775
 51
5.0048625995080771
  0
ARC
  5
13B94
  8
0
 10
4401.6225511897446268
 20
230.8014845466283873
 30
0.0
 40
0.2362209877615339
 50
270.0
 51
336.317480203108687
  0
LINE
  5
13B95
  8
0
 10
4402.6427341173748573
 20
230.7030589908119111
 30
0.0
 11
4401.837290019538159
 21
230.7030589908119111
 31
0.0
  0
ARC
  5
13B96
  8
0
 10
4402.6427495419802653
 20
230.6440038709910141
 30
0.0
 40
0.0590551218352704
 50
2.000001544677255
 51
90.014965082525265
  0
LINE
  5
13B97
  8
0
 10
4402.7017686889757897
 20
230.6460648666119084
 30
0.0
 11
4402.7114644945959299
 21
230.3684133209119125
 31
0.0
  0
ARC
  5
13B98
  8
0
 10
4385.4279277741798069
 20
230.5860222234342984
 30
0.0
 40
0.082688171816993
 50
194.5395105747992943
 51
207.1625187380321904
  0
ARC
  5
13B99
  8
0
 10
4385.6573721124377698
 20
230.7054931381765073
 30
0.0
 40
0.3413773300812458
 50
207.4225931221768064
 51
233.2899795259365874
  0
ARC
  5
13B9A
  8
0
 10
4385.6466003904552053
 20
230.6947268059797125
 30
0.0
 40
0.3263147240853811
 50
233.6762045828826899
 51
269.8421087169243151
  0
ARC
  5
13B9B
  8
0
 10
4386.4702868104459412
 20
230.5836353206038041
 30
0.0
 40
0.0760265495632103
 50
332.2819199141404169
 51
346.0160967698768104
  0
ARC
  5
13B9C
  8
0
 10
4386.2260568666279141
 20
230.7119572354455102
 30
0.0
 40
0.3519156201810195
 50
311.5547861246030834
 51
332.2819199141404169
  0
ARC
  5
13B9D
  8
0
 10
4386.2512507719056885
 20
230.6835355139095043
 30
0.0
 40
0.3139350051487813
 50
289.2916443204643997
 51
311.5547861246034245
  0
ARC
  5
13B9E
  8
0
 10
4386.2441500243203336
 20
230.7038215494688984
 30
0.0
 40
0.3354278843182304
 50
270.6202761797272274
 51
289.2916443204643997
  0
ARC
  5
13B9F
  8
0
 10
4387.0891631025751849
 20
199.0692006443215121
 30
0.0
 40
31.4960629920904189
 50
88.2703065687980626
 51
89.9959806080830163
  0
ARC
  5
13BA0
  8
0
 10
39040.3458309790366911
 20
1147733.1424614689312875
 30
0.0
 40
1148025.6878317259252071
 50
268.2703065687981052
 51
268.2706083479894801
  0
ARC
  5
13BA1
  8
0
 10
4400.9221625166401282
 20
227.7730414590147916
 30
0.0
 40
3.4557692372428428
 50
126.1001262025553018
 51
131.3206857073411129
  0
LINE
  5
13BA2
  8
0
 10
4401.01755125476393
 20
230.5652635589119086
 30
0.0
 11
4401.0106770929542108
 21
230.3684133209119125
 31
0.0
  0
LINE
  5
13BA3
  8
0
 10
4406.2650075398742047
 20
258.2817755256119199
 30
0.0
 11
4405.8547638427753554
 21
258.2734827623119145
 31
0.0
  0
ARC
  5
13BA4
  8
0
 10
4405.8555595291809368
 20
258.2341200889766242
 30
0.0
 40
0.0393707146106805
 50
91.1580327504316443
 51
179.9990934489673862
  0
LINE
  5
13BA5
  8
0
 10
4405.8161888145750709
 20
258.2341207119118849
 30
0.0
 11
4405.8161888145750709
 21
257.1085441195119188
 31
0.0
  0
ARC
  5
13BA6
  8
0
 10
4202.1793114200199852
 20
255.1714949972084128
 30
0.0
 40
203.6460900540625971
 50
0.0000124692383225
 51
0.5449965330327246
  0
LINE
  5
13BA7
  8
0
 10
4406.2650075398742047
 20
252.0613030847119092
 30
0.0
 11
4405.8547638427753554
 21
252.0695958480118861
 31
0.0
  0
ARC
  5
13BA8
  8
0
 10
4405.8555595291809368
 20
252.1089585213472049
 30
0.0
 40
0.0393707146106805
 50
180.0009065510325001
 51
268.841967249568313
  0
LINE
  5
13BA9
  8
0
 10
4405.8161888145750709
 20
252.1089578984118873
 30
0.0
 11
4405.8161888145750709
 21
253.2345344908119102
 31
0.0
  0
ARC
  5
13BAA
  8
0
 10
4202.1793114203292134
 20
255.171583613113313
 30
0.0
 40
203.6460900537533121
 50
359.4550034669671845
 51
359.9999875371744906
  0
ENDSEC
  0
EOF
