  0
SECTION
  2
HEADER
  9
$ACADVER
  1
AC1009
  9
$INSBASE
 10
4392.3926588914800959
 20
231.6453479590971938
 30
0.0
  9
$EXTMIN
 10
4385.0491680710410947
 20
231.6325812982618118
 30
-0.0000000000000058
  9
$EXTMAX
 10
4399.819741772587804
 20
275.3225740648329065
 30
0.0000000000000104
  9
$LIMMIN
 10
0.0
 20
0.0
  9
$LIMMAX
 10
11.6929133858000007
 20
8.2677165353999982
  9
$ORTHOMODE
 70
     0
  9
$REGENMODE
 70
     1
  9
$FILLMODE
 70
     1
  9
$QTEXTMODE
 70
     0
  9
$MIRRTEXT
 70
     0
  9
$DRAGMODE
 70
     2
  9
$LTSCALE
 40
0.6431102362
  9
$OSMODE
 70
     7
  9
$ATTMODE
 70
     1
  9
$TEXTSIZE
 40
0.2
  9
$TRACEWID
 40
0.05
  9
$TEXTSTYLE
  7
STANDARD
  9
$CLAYER
  8
0
  9
$CELTYPE
  6
BYLAYER
  9
$CECOLOR
 62
   256
  9
$DIMSCALE
 40
1.0
  9
$DIMASZ
 40
0.1875
  9
$DIMEXO
 40
0.0625
  9
$DIMDLI
 40
0.4443307087
  9
$DIMRND
 40
0.0
  9
$DIMDLE
 40
0.0
  9
$DIMEXE
 40
0.125
  9
$DIMTP
 40
0.01
  9
$DIMTM
 40
0.01
  9
$DIMTXT
 40
2.0
  9
$DIMCEN
 40
0.1052362205
  9
$DIMTSZ
 40
0.0
  9
$DIMTOL
 70
     1
  9
$DIMLIM
 70
     0
  9
$DIMTIH
 70
     1
  9
$DIMTOH
 70
     1
  9
$DIMSE1
 70
     0
  9
$DIMSE2
 70
     0
  9
$DIMTAD
 70
     0
  9
$DIMZIN
 70
     0
  9
$DIMBLK
  1

  9
$DIMASO
 70
     1
  9
$DIMSHO
 70
     1
  9
$DIMPOST
  1
\X
  9
$DIMAPOST
  1

  9
$DIMALT
 70
     1
  9
$DIMALTD
 70
     2
  9
$DIMALTF
 40
25.3999999999999986
  9
$DIMLFAC
 40
1.0
  9
$DIMTOFL
 70
     0
  9
$DIMTVP
 40
0.0
  9
$DIMTIX
 70
     0
  9
$DIMSOXD
 70
     0
  9
$DIMSAH
 70
     0
  9
$DIMBLK1
  1

  9
$DIMBLK2
  1

  9
$DIMSTYLE
  2
STANDARD
  9
$DIMCLRD
 70
     0
  9
$DIMCLRE
 70
     0
  9
$DIMCLRT
 70
     0
  9
$DIMTFAC
 40
1.0
  9
$DIMGAP
 40
0.09
  9
$LUNITS
 70
     2
  9
$LUPREC
 70
     4
  9
$SKETCHINC
 40
0.1
  9
$FILLETRAD
 40
0.0
  9
$AUNITS
 70
     0
  9
$AUPREC
 70
     0
  9
$MENU
  1
.
  9
$ELEVATION
 40
0.0
  9
$PELEVATION
 40
0.0
  9
$THICKNESS
 40
0.0
  9
$LIMCHECK
 70
     0
  9
$BLIPMODE
 70
     0
  9
$CHAMFERA
 40
0.0
  9
$CHAMFERB
 40
0.0
  9
$SKPOLY
 70
     0
  9
$TDCREATE
 40
2458060.468368056230247
  9
$TDUPDATE
 40
2459464.4220023150555789
  9
$TDINDWG
 40
0.6844399306
  9
$TDUSRTIMER
 40
0.6844399306
  9
$USRTIMER
 70
     1
  9
$ANGBASE
 50
0.0
  9
$ANGDIR
 70
     0
  9
$PDMODE
 70
     0
  9
$PDSIZE
 40
0.3125
  9
$PLINEWID
 40
0.0
  9
$COORDS
 70
     1
  9
$SPLFRAME
 70
     0
  9
$SPLINETYPE
 70
     6
  9
$SPLINESEGS
 70
     8
  9
$ATTDIA
 70
     1
  9
$ATTREQ
 70
     1
  9
$HANDLING
 70
     1
  9
$HANDSEED
  5
13A30
  9
$SURFTAB1
 70
     6
  9
$SURFTAB2
 70
     6
  9
$SURFTYPE
 70
     6
  9
$SURFU
 70
     6
  9
$SURFV
 70
     6
  9
$UCSNAME
  2

  9
$UCSORG
 10
0.0
 20
0.0
 30
0.0
  9
$UCSXDIR
 10
1.0
 20
0.0
 30
0.0
  9
$UCSYDIR
 10
0.0
 20
1.0
 30
0.0
  9
$PUCSNAME
  2

  9
$PUCSORG
 10
0.0
 20
0.0
 30
0.0
  9
$PUCSXDIR
 10
1.0
 20
0.0
 30
0.0
  9
$PUCSYDIR
 10
0.0
 20
1.0
 30
0.0
  9
$USERI1
 70
     0
  9
$USERI2
 70
     0
  9
$USERI3
 70
     0
  9
$USERI4
 70
     0
  9
$USERI5
 70
     0
  9
$USERR1
 40
0.0
  9
$USERR2
 40
0.0
  9
$USERR3
 40
0.0
  9
$USERR4
 40
0.0
  9
$USERR5
 40
0.0
  9
$WORLDVIEW
 70
     1
  9
$SHADEDGE
 70
     3
  9
$SHADEDIF
 70
    70
  9
$TILEMODE
 70
     1
  9
$MAXACTVP
 70
    64
  9
$PLIMCHECK
 70
     0
  9
$PEXTMIN
 10
1.0000000000000000E+20
 20
1.0000000000000000E+20
 30
1.0000000000000000E+20
  9
$PEXTMAX
 10
-1.0000000000000000E+20
 20
-1.0000000000000000E+20
 30
-1.0000000000000000E+20
  9
$PLIMMIN
 10
0.0
 20
0.0
  9
$PLIMMAX
 10
12.0
 20
9.0
  9
$UNITMODE
 70
     0
  9
$VISRETAIN
 70
     1
  9
$PLINEGEN
 70
     0
  9
$PSLTSCALE
 70
     1
  0
ENDSEC
  0
SECTION
  2
TABLES
  0
TABLE
  2
VPORT
 70
     1
  0
VPORT
  2
*ACTIVE
 70
     0
 10
0.0
 20
0.0
 11
1.0
 21
1.0
 12
230.8780584374399893
 22
27.3667454671918904
 13
0.0
 23
0.0
 14
1.0
 24
1.0
 15
0.0
 25
0.0
 16
0.0
 26
0.0
 36
202.37134017897489
 17
4161.556396484375
 27
226.1108322143554972
 37
0.0
 40
43.8959157489744101
 41
2.2539308176100619
 42
50.0
 43
0.0
 44
0.0
 50
0.0
 51
0.0
 71
     0
 72
   100
 73
     1
 74
     1
 75
     0
 76
     0
 77
     0
 78
     0
  0
ENDTAB
  0
TABLE
  2
LTYPE
 70
     2
  0
LTYPE
  2
CONTINUOUS
 70
     0
  3
Solid line
 72
    65
 73
     0
 40
0.0
  0
LTYPE
  2
PHANTOM2
 70
     0
  3
___ _ _ ___ _ _ ___ _ _ ___ _ _
 72
    65
 73
     6
 40
1.25
 49
0.625
 49
-0.125
 49
0.125
 49
-0.125
 49
0.125
 49
-0.125
  0
ENDTAB
  0
TABLE
  2
LAYER
 70
     2
  0
LAYER
  2
0
 70
     0
 62
   255
  6
CONTINUOUS
  0
LAYER
  2
DEFPOINTS
 70
     0
 62
     7
  6
CONTINUOUS
  0
ENDTAB
  0
TABLE
  2
STYLE
 70
     1
  0
STYLE
  2
STANDARD
 70
     0
 40
0.0
 41
0.8
 50
0.0
 71
     0
 42
0.2
  3
txt
  4

  0
ENDTAB
  0
TABLE
  2
VIEW
 70
     0
  0
ENDTAB
  0
TABLE
  2
UCS
 70
     0
  0
ENDTAB
  0
TABLE
  2
APPID
 70
    10
  0
APPID
  2
ACAD
 70
     0
  0
APPID
  2
ACAD_MLEADERVER
 70
     0
  0
APPID
  2
ACAD_EXEMPT_FROM_CAD_STANDARDS
 70
     0
  0
APPID
  2
ACAD_NAV_VCDISPLAY
 70
     0
  0
APPID
  2
ACAECLAYERSTANDARD
 70
     0
  0
APPID
  2
ACCMTRANSPARENCY
 70
     0
  0
APPID
  2
ACAD_DSTYLE_DIMJAG
 70
     0
  0
APPID
  2
ACAD_DSTYLE_DIMTALN
 70
     0
  0
APPID
  2
ACDBATTR
 70
     0
  0
APPID
  2
DCO15
 70
     0
  0
ENDTAB
  0
TABLE
  2
DIMSTYLE
 70
     1
  0
DIMSTYLE
  2
STANDARD
 70
     0
  3

  4

  5

  6

  7

 40
1.0
 41
0.1875
 42
0.0625
 43
0.38
 44
0.125
 45
0.0
 46
0.0
 47
0.01
 48
0.01
140
0.15625
141
0.09
142
0.0
143
25.3999999999999986
144
1.0
145
0.0
146
1.0
147
0.09
 71
     1
 72
     0
 73
     1
 74
     1
 75
     0
 76
     0
 77
     0
 78
     4
170
     0
171
     2
172
     0
173
     0
174
     0
175
     0
176
     0
177
     0
178
     0
  0
ENDTAB
  0
ENDSEC
  0
SECTION
  2
BLOCKS
  0
BLOCK
  8
0
  2
$MODEL_SPACE
 70
     0
 10
0.0
 20
0.0
 30
0.0
  3
$MODEL_SPACE
  1

  0
ENDBLK
  5
21
  8
0
  0
BLOCK
 67
     1
  8
0
  2
$PAPER_SPACE
 70
     0
 10
0.0
 20
0.0
 30
0.0
  3
$PAPER_SPACE
  1

  0
ENDBLK
  5
1D
 67
     1
  8
0
  0
ENDSEC
  0
SECTION
  2
ENTITIES
  0
ATTDEF
  5
12CA7
  8
DEFPOINTS
 10
4392.3926694182382562
 20
231.6486968774771924
 30
0.0
 40
0.001
  1
K-23133T-BNS
  3

  2
MODELNUMBER
 70
     0
1001
ACDBATTR
1070
     0
1070
     1
  0
ATTDEF
  5
12CA8
  8
DEFPOINTS
 10
4392.3926694182382562
 20
231.6470302108104988
 30
0.0
 40
0.001
  1
REVE
  3

  2
TRADENAME
 70
     0
1001
ACDBATTR
1070
     0
1070
     1
  0
ATTDEF
  5
12CA9
  8
DEFPOINTS
 10
4392.3926694182382562
 20
231.6453635441438905
 30
0.0
 40
0.001
  1
TOILET
  3

  2
PRODUCT
 70
     0
1001
ACDBATTR
1070
     0
1070
     1
  0
LINE
  5
1390F
  8
0
 10
4385.5268531681886088
 20
247.3953479590973075
 30
0.0
 11
4399.258464614769764
 21
247.3953479590973075
 31
0.0
  0
LINE
  5
13910
  8
0
 10
4385.1302233104643165
 20
247.5921981970971899
 30
0.0
 11
4399.6550944724949659
 21
247.5921981970971899
 31
0.0
  0
ARC
  5
13911
  8
0
 10
4385.1304434822341136
 20
247.6314197191817925
 30
0.0
 40
0.0392221400517161
 50
177.2910726515750923
 51
269.6783709557449811
  0
LINE
  5
13912
  8
0
 10
4385.0912651720173017
 20
247.6332734394474926
 30
0.0
 11
4385.1575695455303503
 21
249.1079607477971933
 31
0.0
  0
ARC
  5
13913
  8
0
 10
4385.3939073500450831
 20
249.1030849875799902
 30
0.0
 40
0.2363880937790824
 50
92.8446451321321291
 51
178.8181287390823968
  0
ARC
  5
13914
  8
0
 10
4386.0213438170203517
 20
247.7890626868226036
 30
0.0
 40
0.3149746485348415
 50
218.7096620336157002
 51
269.998489472440383
  0
LINE
  5
13915
  8
0
 10
4386.0213355131299977
 20
247.4740880383972126
 30
0.0
 11
4386.5169350211626806
 21
247.4740880383972126
 31
0.0
  0
ARC
  5
13916
  8
0
 10
4386.5044820659468314
 20
247.6106661823889965
 30
0.0
 40
0.0763536938544479
 50
193.9971810286338894
 51
207.6722632380736115
  0
ARC
  5
13917
  8
0
 10
4386.7444099607137105
 20
247.7364830174510075
 30
0.0
 40
0.3472693092635515
 50
207.6722632380736115
 51
234.5312770975926071
  0
ARC
  5
13918
  8
0
 10
4386.7264963854868256
 20
247.7134972847447045
 30
0.0
 40
0.3181569428135241
 50
234.7566974424470061
 51
269.6035261894662085
  0
ARC
  5
13919
  8
0
 10
4387.3401138810177144
 20
247.7103956913333889
 30
0.0
 40
0.3098815782564814
 50
307.3634231002964157
 51
337.5778389313794037
  0
ARC
  5
1391A
  8
0
 10
4387.3246806492052201
 20
247.7307583320381923
 30
0.0
 40
0.3354318055929442
 50
270.6477028064056753
 51
307.347865527365002
  0
ARC
  5
1391B
  8
0
 10
4385.5268531681886088
 20
247.1591274865799903
 30
0.0
 40
0.2362204725172395
 50
90.0000000143303254
 51
197.0006928407767077
  0
LINE
  5
1391C
  8
0
 10
4385.3009552420289765
 20
247.0900605726972117
 30
0.0
 11
4386.7438770122298592
 21
242.3704761223972923
 31
0.0
  0
ARC
  5
1391D
  8
0
 10
4383.3553955925781338
 20
241.3345133888512919
 30
0.0
 40
3.5433070875412911
 50
0.8274037439096861
 51
17.0000000000956213
  0
LINE
  5
1391E
  8
0
 10
4386.8983332256302674
 20
241.3856802230972107
 30
0.0
 11
4386.9792730647313874
 21
235.7811747307972041
 31
0.0
  0
LINE
  5
1391F
  8
0
 10
4397.8060447182297139
 20
235.7811747307972041
 30
0.0
 11
4386.9792730647313874
 21
235.7811747307972041
 31
0.0
  0
ARC
  5
13920
  8
0
 10
4386.0406171337817796
 20
245.2697994631670042
 30
0.0
 40
2.807817091154166
 50
50.8761792929826129
 51
55.6526840171918167
  0
ARC
  5
13921
  8
0
 10
4387.9666197377036951
 20
247.6377330133516921
 30
0.0
 40
0.2444927437739847
 50
230.8761792929826129
 51
262.4712921019884106
  0
ARC
  5
13922
  8
0
 10
4388.3051136870008122
 20
247.4117435579385074
 30
0.0
 40
0.0166517394010376
 50
114.4214707820201937
 51
259.9375141656523169
  0
ARC
  5
13923
  8
0
 10
4388.3615841771961641
 20
247.2724542819306919
 30
0.0
 40
0.16694019358758
 50
102.8877773612913984
 51
112.3031883825074999
  0
ARC
  5
13924
  8
0
 10
4388.6781450614362257
 20
245.7292134122068035
 30
0.0
 40
1.7422755804904431
 50
96.293033056970188
 51
101.7162627040251976
  0
ARC
  5
13925
  8
0
 10
4389.9015912654476779
 20
235.4808448315357055
 30
0.0
 40
12.0633529299573308
 50
93.9687790558028837
 51
96.7333943316452576
  0
ARC
  5
13926
  8
0
 10
4391.7733556758539635
 20
209.4131662959862012
 30
0.0
 40
38.1981211618928924
 50
92.8245116002744055
 51
94.063361661095513
  0
ARC
  5
13927
  8
0
 10
4390.8828617986500831
 20
229.0588270561933939
 30
0.0
 40
18.5326130259685016
 50
90.5614176693773771
 51
93.0677250500792184
  0
ARC
  5
13928
  8
0
 10
4390.9595781769630776
 20
237.2382730871676983
 30
0.0
 40
10.3554994189121796
 50
90.9990853592712057
 51
91.4293303679803842
  0
LINE
  5
13929
  8
0
 10
4385.3821758748299544
 20
249.3391817968972077
 30
0.0
 11
4385.8399303247288117
 21
249.361035440397302
 31
0.0
  0
ARC
  5
1392A
  8
0
 10
4392.351896278919412
 20
108.1437490353922044
 30
0.0
 40
141.367350120817207
 50
91.5830860281617305
 51
92.6402153069642651
  0
LINE
  5
1392B
  8
0
 10
4389.3217854475296917
 20
275.3087101637971728
 30
0.0
 11
4395.4635404705568362
 21
275.3087101637971728
 31
0.0
  0
LINE
  5
1392C
  8
0
 10
4389.3217773123551524
 20
269.0882377228973041
 30
0.0
 11
4395.4635404706032205
 21
269.0882377228973041
 31
0.0
  0
LINE
  5
1392D
  8
0
 10
4389.2824226710299627
 20
275.2693473872279242
 30
0.0
 11
4389.2824226710299627
 21
269.1276004993985111
 31
0.0
  0
ARC
  5
1392E
  8
0
 10
4389.3217813799656142
 20
269.1275964318332967
 30
0.0
 40
0.0393587091462339
 50
179.9940787121103085
 51
269.9940786432775894
  0
ARC
  5
1392F
  8
0
 10
4389.3217813799656142
 20
275.2693514548611802
 30
0.0
 40
0.0393587091462539
 50
89.994078712115197
 51
180.0059212878587118
  0
CIRCLE
  5
13930
  8
0
 10
4392.3926594537288111
 20
272.1984738817972129
 30
0.0
 40
1.9370087238000011
  0
CIRCLE
  5
13931
  8
0
 10
4392.3926594537288111
 20
272.1984738817972129
 30
0.0
 40
1.0255906128001591
  0
ARC
  5
13932
  8
0
 10
4387.317737527704594
 20
235.6630644944831943
 30
0.0
 40
0.1181102363140579
 50
40.0792208822851421
 51
89.9999999877540944
  0
LINE
  5
13933
  8
0
 10
4386.3572009619729215
 20
243.6352364938796882
 30
0.0
 11
4386.3402585549301875
 21
243.6300566801972991
 31
0.0
  0
LINE
  5
13934
  8
0
 10
4386.3402585549301875
 20
243.6300566801972991
 30
0.0
 11
4386.6280259808290793
 21
242.688811841697202
 31
0.0
  0
LINE
  5
13935
  8
0
 10
4386.6280259808290793
 20
242.688811841697202
 30
0.0
 11
4386.6449683878963697
 21
242.6939916552869931
 31
0.0
  0
ARC
  5
13936
  8
0
 10
4387.2992842091689454
 20
243.4086481621484097
 30
0.0
 40
0.9842519684278336
 50
166.9999999993364952
 51
227.000000001334314
  0
ARC
  5
13937
  8
0
 10
4392.7590054463398701
 20
236.067223775750989
 30
0.0
 40
2.5311541350940239
 50
186.4889337168490044
 51
194.64497135885739
  0
ARC
  5
13938
  8
0
 10
4392.3244067295499917
 20
236.1219112790350891
 30
0.0
 40
2.130729418031009
 50
199.0266958012446139
 51
221.8831976263130059
  0
ARC
  5
13939
  8
0
 10
4392.2690599643719906
 20
236.0460690706244975
 30
0.0
 40
2.0389833933669852
 50
221.3348202535129872
 51
249.7973597104916053
  0
ARC
  5
1393A
  8
0
 10
4392.3926588914800959
 20
239.9334004819046982
 30
0.0
 40
6.51443047550742
 50
220.0792208833755126
 51
319.9207791166244874
  0
ARC
  5
1393B
  8
0
 10
4399.6548743007251687
 20
247.6314197191817925
 30
0.0
 40
0.0392221400517161
 50
270.3216290442550189
 51
2.7089273484248642
  0
LINE
  5
1393C
  8
0
 10
4399.6940526109419807
 20
247.6332734394474926
 30
0.0
 11
4399.627748237428932
 21
249.1079607477971933
 31
0.0
  0
ARC
  5
1393D
  8
0
 10
4399.3914104329141992
 20
249.1030849875799902
 30
0.0
 40
0.2363880937790824
 50
1.181871260917593
 51
87.1553548678678709
  0
ARC
  5
1393E
  8
0
 10
4398.7639739659398401
 20
247.7890626868226036
 30
0.0
 40
0.3149746485348415
 50
270.001510527559617
 51
321.2903379663844134
  0
LINE
  5
1393F
  8
0
 10
4398.7639822698301941
 20
247.4740880383972126
 30
0.0
 11
4398.2683827617984207
 21
247.4740880383972126
 31
0.0
  0
ARC
  5
13940
  8
0
 10
4398.2808357170133604
 20
247.6106661823889965
 30
0.0
 40
0.0763536938544479
 50
332.3277367619263032
 51
346.0028189713660822
  0
ARC
  5
13941
  8
0
 10
4398.0409078222455719
 20
247.7364830174510075
 30
0.0
 40
0.3472693092635515
 50
305.4687229024074213
 51
332.3277367619263032
  0
ARC
  5
13942
  8
0
 10
4398.0588213974733662
 20
247.7134972847447045
 30
0.0
 40
0.3181569428135241
 50
270.3964738105339052
 51
305.2433025575530223
  0
ARC
  5
13943
  8
0
 10
4397.4452039019433869
 20
247.7103956913333889
 30
0.0
 40
0.3098815782564814
 50
202.4221610686205963
 51
232.6365768997036128
  0
ARC
  5
13944
  8
0
 10
4397.4606371337549717
 20
247.7307583320381923
 30
0.0
 40
0.3354318055929442
 50
232.6521344726351117
 51
269.3522971935943247
  0
ARC
  5
13945
  8
0
 10
4399.258464614769764
 20
247.1591274865799903
 30
0.0
 40
0.2362204725172395
 50
342.9993071592232923
 51
89.9999999856696746
  0
LINE
  5
13946
  8
0
 10
4399.4843625409303058
 20
247.0900605726972117
 30
0.0
 11
4398.0414407707312421
 21
242.3704761223972923
 31
0.0
  0
ARC
  5
13947
  8
0
 10
4401.429922190382058
 20
241.3345133888512919
 30
0.0
 40
3.5433070875412911
 50
162.9999999999043894
 51
179.1725962560902872
  0
LINE
  5
13948
  8
0
 10
4397.8869845573299244
 20
241.3856802230972107
 30
0.0
 11
4397.8060447182297139
 21
235.7811747307972041
 31
0.0
  0
ARC
  5
13949
  8
0
 10
4398.7447006491765933
 20
245.2697994631670042
 30
0.0
 40
2.807817091154166
 50
124.3473159828081975
 51
129.1238207070173871
  0
ARC
  5
1394A
  8
0
 10
4396.8186980452555872
 20
247.6377330133516921
 30
0.0
 40
0.2444927437739847
 50
277.528707898011703
 51
309.1238207070173871
  0
ARC
  5
1394B
  8
0
 10
4396.4802040959575606
 20
247.4117435579385074
 30
0.0
 40
0.0166517394010376
 50
280.0624858343477968
 51
65.5785292179797636
  0
ARC
  5
1394C
  8
0
 10
4396.4237336057640277
 20
247.2724542819306919
 30
0.0
 40
0.16694019358758
 50
67.6968116174924717
 51
77.11222263870863
  0
ARC
  5
1394D
  8
0
 10
4396.1071727215230567
 20
245.7292134122068035
 30
0.0
 40
1.7422755804904431
 50
78.2837372959748166
 51
83.7069669430298262
  0
ARC
  5
1394E
  8
0
 10
4394.8837265175116045
 20
235.4808448315357055
 30
0.0
 40
12.0633529299573308
 50
83.2666056683547566
 51
86.0312209441971305
  0
ARC
  5
1394F
  8
0
 10
4393.0119621071053189
 20
209.4131662959862012
 30
0.0
 40
38.1981211618928924
 50
85.9366383389045154
 51
87.1754883997255945
  0
ARC
  5
13950
  8
0
 10
4393.9024559843091993
 20
229.0588270561933939
 30
0.0
 40
18.5326130259685016
 50
86.9322749499207674
 51
89.4385823306226371
  0
ARC
  5
13951
  8
0
 10
4393.8257396059980238
 20
237.2382730871676983
 30
0.0
 40
10.3554994189121796
 50
88.5706696320196158
 51
89.0009146407288085
  0
LINE
  5
13952
  8
0
 10
4399.4031419081302374
 20
249.3391817968972077
 30
0.0
 11
4398.9453874582295612
 21
249.361035440397302
 31
0.0
  0
ARC
  5
13953
  8
0
 10
4392.4334215040407798
 20
108.1437490353922044
 30
0.0
 40
141.367350120817207
 50
87.3597846930357349
 51
88.4169139718382553
  0
LINE
  5
13954
  8
0
 10
4395.5028951119302292
 20
275.2693473872279242
 30
0.0
 11
4395.5028951119302292
 21
269.1276004993985111
 31
0.0
  0
ARC
  5
13955
  8
0
 10
4395.4635364029945777
 20
269.1275964318332967
 30
0.0
 40
0.0393587091462339
 50
270.0059213567224106
 51
0.0059212878896993
  0
ARC
  5
13956
  8
0
 10
4395.4635364029936682
 20
275.2693514548611802
 30
0.0
 40
0.0393587091462539
 50
359.9940787121411745
 51
89.9940786812659468
  0
ARC
  5
13957
  8
0
 10
4397.4675802552546884
 20
235.6630644944831943
 30
0.0
 40
0.1181102363140579
 50
90.0000000122459056
 51
139.9207791177148863
  0
LINE
  5
13958
  8
0
 10
4398.4281168209872703
 20
243.6352364938796882
 30
0.0
 11
4398.4450592280300043
 21
243.6300566801972991
 31
0.0
  0
LINE
  5
13959
  8
0
 10
4398.4450592280300043
 20
243.6300566801972991
 30
0.0
 11
4398.157291802130203
 21
242.688811841697202
 31
0.0
  0
LINE
  5
1395A
  8
0
 10
4398.157291802130203
 20
242.688811841697202
 30
0.0
 11
4398.1403493950629127
 21
242.6939916552869931
 31
0.0
  0
ARC
  5
1395B
  8
0
 10
4397.486033573790337
 20
243.4086481621484097
 30
0.0
 40
0.9842519684278336
 50
312.9999999986658281
 51
13.0000000006635297
  0
ARC
  5
1395C
  8
0
 10
4392.0263123366203217
 20
236.067223775750989
 30
0.0
 40
2.5311541350940239
 50
345.35502864114261
 51
353.5110662831509103
  0
ARC
  5
1395D
  8
0
 10
4392.4609110534092906
 20
236.1219112790350891
 30
0.0
 40
2.130729418031009
 50
318.1168023736869941
 51
340.9733041987553861
  0
ARC
  5
1395E
  8
0
 10
4392.5162578185882012
 20
236.0460690706244975
 30
0.0
 40
2.0389833933669852
 50
290.2026402895085084
 51
318.6651797464870128
  0
ARC
  5
1395F
  8
0
 10
4392.3926588914800959
 20
236.5358209847478861
 30
0.0
 40
2.5418436564266829
 50
250.9952068681427022
 51
289.0047931318572978
  0
ARC
  5
13960
  8
0
 10
4392.3926588914800959
 20
106.0398384031558976
 30
0.0
 40
143.4715849025625118
 50
88.4238534193421941
 51
91.5761465806578059
  0
ENDSEC
  0
EOF
