  0
SECTION
  2
HEADER
  9
$ACADVER
  1
AC1009
  9
$INSBASE
 10
4436.6213605080829439
 20
319.4989579966576798
 30
0.0
  9
$EXTMIN
 10
4407.9959407045098487
 20
319.490926356150112
 30
-0.0015258207003583
  9
$EXTMAX
 10
4436.7674292568081
 20
349.1952754635628935
 30
0.0000000349246037
  9
$LIMMIN
 10
0.0
 20
0.0
  9
$LIMMAX
 10
11.6929133858000007
 20
8.2677165353999982
  9
$ORTHOMODE
 70
     0
  9
$REGENMODE
 70
     1
  9
$FILLMODE
 70
     1
  9
$QTEXTMODE
 70
     0
  9
$MIRRTEXT
 70
     0
  9
$DRAGMODE
 70
     2
  9
$LTSCALE
 40
0.6431102362
  9
$OSMODE
 70
  4095
  9
$ATTMODE
 70
     1
  9
$TEXTSIZE
 40
0.2
  9
$TRACEWID
 40
0.05
  9
$TEXTSTYLE
  7
STANDARD
  9
$CLAYER
  8
0
  9
$CELTYPE
  6
BYLAYER
  9
$CECOLOR
 62
   256
  9
$DIMSCALE
 40
1.0
  9
$DIMASZ
 40
0.1875
  9
$DIMEXO
 40
0.0625
  9
$DIMDLI
 40
0.4443307087
  9
$DIMRND
 40
0.0
  9
$DIMDLE
 40
0.0
  9
$DIMEXE
 40
0.125
  9
$DIMTP
 40
0.01
  9
$DIMTM
 40
0.01
  9
$DIMTXT
 40
2.0
  9
$DIMCEN
 40
0.1052362205
  9
$DIMTSZ
 40
0.0
  9
$DIMTOL
 70
     1
  9
$DIMLIM
 70
     0
  9
$DIMTIH
 70
     1
  9
$DIMTOH
 70
     1
  9
$DIMSE1
 70
     0
  9
$DIMSE2
 70
     0
  9
$DIMTAD
 70
     0
  9
$DIMZIN
 70
     0
  9
$DIMBLK
  1

  9
$DIMASO
 70
     1
  9
$DIMSHO
 70
     1
  9
$DIMPOST
  1
\X
  9
$DIMAPOST
  1

  9
$DIMALT
 70
     1
  9
$DIMALTD
 70
     2
  9
$DIMALTF
 40
25.3999999999999986
  9
$DIMLFAC
 40
1.0
  9
$DIMTOFL
 70
     0
  9
$DIMTVP
 40
0.0
  9
$DIMTIX
 70
     0
  9
$DIMSOXD
 70
     0
  9
$DIMSAH
 70
     0
  9
$DIMBLK1
  1

  9
$DIMBLK2
  1

  9
$DIMSTYLE
  2
STANDARD
  9
$DIMCLRD
 70
     0
  9
$DIMCLRE
 70
     0
  9
$DIMCLRT
 70
     0
  9
$DIMTFAC
 40
1.0
  9
$DIMGAP
 40
0.09
  9
$LUNITS
 70
     2
  9
$LUPREC
 70
     4
  9
$SKETCHINC
 40
0.1
  9
$FILLETRAD
 40
0.1142
  9
$AUNITS
 70
     0
  9
$AUPREC
 70
     0
  9
$MENU
  1
.
  9
$ELEVATION
 40
0.0
  9
$PELEVATION
 40
0.0
  9
$THICKNESS
 40
0.0
  9
$LIMCHECK
 70
     0
  9
$BLIPMODE
 70
     0
  9
$CHAMFERA
 40
0.0
  9
$CHAMFERB
 40
0.0
  9
$SKPOLY
 70
     0
  9
$TDCREATE
 40
2458060.468368056230247
  9
$TDUPDATE
 40
2460004.4462152780033648
  9
$TDINDWG
 40
0.5592663194
  9
$TDUSRTIMER
 40
0.5592663194
  9
$USRTIMER
 70
     1
  9
$ANGBASE
 50
0.0
  9
$ANGDIR
 70
     0
  9
$PDMODE
 70
     0
  9
$PDSIZE
 40
0.3125
  9
$PLINEWID
 40
0.0
  9
$COORDS
 70
     1
  9
$SPLFRAME
 70
     0
  9
$SPLINETYPE
 70
     6
  9
$SPLINESEGS
 70
     8
  9
$ATTDIA
 70
     1
  9
$ATTREQ
 70
     1
  9
$HANDLING
 70
     1
  9
$HANDSEED
  5
22B4B
  9
$SURFTAB1
 70
     6
  9
$SURFTAB2
 70
     6
  9
$SURFTYPE
 70
     6
  9
$SURFU
 70
     6
  9
$SURFV
 70
     6
  9
$UCSNAME
  2

  9
$UCSORG
 10
0.0
 20
0.0
 30
0.0
  9
$UCSXDIR
 10
1.0
 20
0.0
 30
0.0
  9
$UCSYDIR
 10
0.0
 20
1.0
 30
0.0
  9
$PUCSNAME
  2

  9
$PUCSORG
 10
0.0
 20
0.0
 30
0.0
  9
$PUCSXDIR
 10
1.0
 20
0.0
 30
0.0
  9
$PUCSYDIR
 10
0.0
 20
1.0
 30
0.0
  9
$USERI1
 70
     0
  9
$USERI2
 70
     0
  9
$USERI3
 70
     0
  9
$USERI4
 70
     0
  9
$USERI5
 70
     0
  9
$USERR1
 40
0.0
  9
$USERR2
 40
0.0
  9
$USERR3
 40
0.0
  9
$USERR4
 40
0.0
  9
$USERR5
 40
0.0
  9
$WORLDVIEW
 70
     1
  9
$SHADEDGE
 70
     3
  9
$SHADEDIF
 70
    70
  9
$TILEMODE
 70
     1
  9
$MAXACTVP
 70
    64
  9
$PLIMCHECK
 70
     0
  9
$PEXTMIN
 10
1.0000000000000000E+20
 20
1.0000000000000000E+20
 30
1.0000000000000000E+20
  9
$PEXTMAX
 10
-1.0000000000000000E+20
 20
-1.0000000000000000E+20
 30
-1.0000000000000000E+20
  9
$PLIMMIN
 10
0.0
 20
0.0
  9
$PLIMMAX
 10
12.0
 20
9.0
  9
$UNITMODE
 70
     0
  9
$VISRETAIN
 70
     1
  9
$PLINEGEN
 70
     0
  9
$PSLTSCALE
 70
     1
  0
ENDSEC
  0
SECTION
  2
TABLES
  0
TABLE
  2
VPORT
 70
     1
  0
VPORT
  2
*ACTIVE
 70
     0
 10
0.0
 20
0.0
 11
1.0
 21
1.0
 12
511.0163285353464175
 22
201.7634958073174118
 13
0.0
 23
0.0
 14
1.0
 24
1.0
 15
0.0
 25
0.0
 16
0.0
 26
0.0
 36
60.4960186965801583
 17
3911.3653564453120453
 27
132.5796051025390057
 37
0.0
 40
29.9385489689692612
 41
2.498684210526315
 42
50.0
 43
0.0
 44
0.0
 50
0.0
 51
0.0
 71
     0
 72
   100
 73
     1
 74
     1
 75
     0
 76
     0
 77
     0
 78
     0
  0
ENDTAB
  0
TABLE
  2
LTYPE
 70
     2
  0
LTYPE
  2
CONTINUOUS
 70
     0
  3
Solid line
 72
    65
 73
     0
 40
0.0
  0
LTYPE
  2
PHANTOM2
 70
     0
  3
___ _ _ ___ _ _ ___ _ _ ___ _ _
 72
    65
 73
     6
 40
1.25
 49
0.625
 49
-0.125
 49
0.125
 49
-0.125
 49
0.125
 49
-0.125
  0
ENDTAB
  0
TABLE
  2
LAYER
 70
     2
  0
LAYER
  2
0
 70
     0
 62
   255
  6
CONTINUOUS
  0
LAYER
  2
DEFPOINTS
 70
     0
 62
     7
  6
CONTINUOUS
  0
ENDTAB
  0
TABLE
  2
STYLE
 70
     1
  0
STYLE
  2
STANDARD
 70
     0
 40
0.0
 41
0.8
 50
0.0
 71
     0
 42
0.2
  3
txt
  4

  0
ENDTAB
  0
TABLE
  2
VIEW
 70
     0
  0
ENDTAB
  0
TABLE
  2
UCS
 70
     0
  0
ENDTAB
  0
TABLE
  2
APPID
 70
    11
  0
APPID
  2
ACAD
 70
     0
  0
APPID
  2
ACAD_MLEADERVER
 70
     0
  0
APPID
  2
ACAD_EXEMPT_FROM_CAD_STANDARDS
 70
     0
  0
APPID
  2
ACAD_NAV_VCDISPLAY
 70
     0
  0
APPID
  2
ACAECLAYERSTANDARD
 70
     0
  0
APPID
  2
ACCMTRANSPARENCY
 70
     0
  0
APPID
  2
ACAD_DSTYLE_DIMJAG
 70
     0
  0
APPID
  2
ACAD_DSTYLE_DIMTALN
 70
     0
  0
APPID
  2
ACDBATTR
 70
     0
  0
APPID
  2
ACADANNOTATIVE
 70
     0
  0
APPID
  2
DCO15
 70
     0
  0
ENDTAB
  0
TABLE
  2
DIMSTYLE
 70
     1
  0
DIMSTYLE
  2
STANDARD
 70
     0
  3

  4

  5

  6

  7

 40
1.0
 41
0.1875
 42
0.0625
 43
0.38
 44
0.125
 45
0.0
 46
0.0
 47
0.01
 48
0.01
140
0.15625
141
0.09
142
0.0
143
25.3999999999999986
144
1.0
145
0.0
146
1.0
147
0.09
 71
     1
 72
     0
 73
     1
 74
     1
 75
     0
 76
     0
 77
     0
 78
     4
170
     0
171
     2
172
     0
173
     0
174
     0
175
     0
176
     0
177
     0
178
     0
  0
ENDTAB
  0
ENDSEC
  0
SECTION
  2
BLOCKS
  0
BLOCK
  8
0
  2
$MODEL_SPACE
 70
     0
 10
0.0
 20
0.0
 30
0.0
  3
$MODEL_SPACE
  1

  0
ENDBLK
  5
21
  8
0
  0
BLOCK
 67
     1
  8
0
  2
$PAPER_SPACE
 70
     0
 10
0.0
 20
0.0
 30
0.0
  3
$PAPER_SPACE
  1

  0
ENDBLK
  5
1D
 67
     1
  8
0
  0
BLOCK
  8
0
  2
_CLOSED
 70
     0
 10
0.0
 20
0.0
 30
0.0
  3
_CLOSED
  1

  0
LINE
  5
2267F
  8
0
  6
BYBLOCK
 62
     0
 10
0.0
 20
0.0
 30
0.0
 11
-1.0
 21
0.1666666667
 31
0.0
  0
LINE
  5
22680
  8
0
  6
BYBLOCK
 62
     0
 10
-1.0
 20
0.1666666667
 30
0.0
 11
-1.0
 21
-0.1666666667
 31
0.0
  0
LINE
  5
22681
  8
0
  6
BYBLOCK
 62
     0
 10
-1.0
 20
-0.1666666667
 30
0.0
 11
0.0
 21
0.0
 31
0.0
  0
LINE
  5
22682
  8
0
  6
BYBLOCK
 62
     0
 10
-1.0
 20
0.0
 30
0.0
 11
0.0
 21
0.0
 31
0.0
  0
ENDBLK
  5
22683
  8
0
  6
BYBLOCK
 62
     0
  0
ENDSEC
  0
SECTION
  2
ENTITIES
  0
ATTDEF
  5
21382
  8
DEFPOINTS
 10
4436.6213569957481013
 20
319.5023520087519273
 30
0.0
 40
0.001
  1
K-23188T-NS
  3

  2
MODELNUMBER
 70
     0
1001
ACDBATTR
1070
     0
1070
     1
  0
ATTDEF
  5
21383
  8
DEFPOINTS
 10
4436.6212311860908812
 20
319.5006851683726836
 30
0.0
 40
0.001
  1
FAMILY CARE
  3

  2
TRADENAME
 70
     0
1001
ACDBATTR
1070
     0
1070
     1
  0
ATTDEF
  5
21384
  8
DEFPOINTS
 10
4436.6213569957481013
 20
319.499018675418597
 30
0.0
 40
0.001
  1
TOILET
  3

  2
PRODUCT
 70
     0
1001
ACDBATTR
1070
     0
1070
     1
  0
LINE
  5
226F4
  8
0
 10
4429.9367361410513695
 20
347.9281259776030879
 30
0.0
 11
4430.1962018637041183
 21
348.8784719616576808
 31
0.0
  0
ARC
  5
226F5
  8
0
 10
4430.4397844775121484
 20
348.8021078972233227
 30
0.0
 40
0.2552723253434167
 50
94.975939171837922
 51
162.5935959761874017
  0
LINE
  5
226F6
  8
0
 10
4435.8602043311193484
 20
349.0662683072902155
 30
0.0
 11
4430.4176428216578643
 21
349.0564181549053728
 31
0.0
  0
ARC
  5
226F7
  8
0
 10
4435.056693406568229
 20
348.8628275730197856
 30
0.0
 40
0.900467110086245
 50
1.6630716914671531
 51
8.1988021563420652
  0
LINE
  5
226F8
  8
0
 10
4435.9601015449043189
 20
347.8864371848575843
 30
0.0
 11
4429.9766502984666658
 21
347.8759483489934041
 31
0.0
  0
LINE
  5
226F9
  8
0
 10
4435.9567812156046784
 20
348.8889609304575856
 30
0.0
 11
4436.0013199238992456
 21
347.9296971492578905
 31
0.0
  0
ARC
  5
226FA
  8
0
 10
4435.959992096825772
 20
347.9278080213953217
 30
0.0
 40
0.0413709813119109
 50
270.1515777501822981
 51
2.6172138205579829
  0
LINE
  5
226FB
  8
0
 10
4435.9643626799215781
 20
347.8866670503500131
 30
0.0
 11
4435.9643638593042851
 21
334.5797537332576894
 31
0.0
  0
ARC
  5
226FC
  8
0
 10
4435.7361253279977973
 20
347.8861544993765733
 30
0.0
 40
0.079008955731662
 50
180.1801635205721936
 51
269.9079209062726932
  0
ARC
  5
226FD
  8
0
 10
4435.8061131858048611
 20
347.6495520934694241
 30
0.0
 40
0.1582996134441027
 50
3.8390541523622459
 51
85.1727406140448551
  0
LINE
  5
226FE
  8
0
 10
4430.0817057321046377
 20
347.7973489516576819
 30
0.0
 11
4435.8194344040020951
 21
347.807290207957692
 31
0.0
  0
ARC
  5
226FF
  8
0
 10
4430.1572811196601833
 20
347.8763525642489185
 30
0.0
 40
0.0790341951374391
 50
273.7643524640494093
 51
0.0369512383432575
  0
ARC
  5
22700
  8
0
 10
4430.0819790087707588
 20
347.6398630789806248
 30
0.0
 40
0.1574861097779752
 50
90.0994221488944476
 51
178.0829696901456032
  0
LINE
  5
22701
  8
0
 10
4429.924581041304009
 20
347.6451313434575923
 30
0.0
 11
4429.486837097305397
 21
335.8382816202575896
 31
0.0
  0
ARC
  5
22702
  8
0
 10
4428.7000523285769304
 20
335.8662207715374279
 30
0.0
 40
0.7872806796017863
 50
270.3372686647635987
 51
357.9662505466346261
  0
LINE
  5
22703
  8
0
 10
4408.6300038958215737
 20
335.0789537316434235
 30
0.0
 11
4412.7838792207267034
 21
335.0789537316434235
 31
0.0
  0
LINE
  5
22704
  8
0
 10
4425.9281357165227746
 20
335.0789537316434235
 30
0.0
 11
4425.9280844016902847
 21
335.1075277021485022
 31
0.0
  0
ARC
  5
22705
  8
0
 10
4425.9674544169038199
 20
335.1075984051576029
 30
0.0
 40
0.0393700787000125
 50
141.9262645591024921
 51
180.1028950497210133
  0
ARC
  5
22706
  8
0
 10
4425.6885189790282311
 20
335.3261053224417765
 30
0.0
 40
0.3149606303900102
 50
321.9262645590998773
 51
357.1028949321594155
  0
ARC
  5
22707
  8
0
 10
4214.8756335101315926
 20
345.9964129255607759
 30
0.0
 40
211.3977334137630919
 50
357.1028949321528785
 51
357.1187067418085235
  0
ARC
  5
22708
  8
0
 10
4426.0257694101483139
 20
335.3693034854082953
 30
0.0
 40
0.0196634409806974
 50
93.8244677540772472
 51
177.6423391526365094
  0
LINE
  5
22709
  8
0
 10
4426.0088756089962772
 20
335.4480648457790721
 30
0.0
 11
4426.007668967105019
 21
335.4086727336576814
 31
0.0
  0
ARC
  5
2270A
  8
0
 10
4426.0277404197631768
 20
335.4087244170378881
 30
0.0
 40
0.0200715192003242
 50
180.1475345637659018
 51
263.001121007178881
  0
ARC
  5
2270B
  8
0
 10
4638.2009532934898743
 20
346.0278782155074282
 30
0.0
 40
211.3977313699913054
 50
182.8807529503228011
 51
182.9688491325491952
  0
ARC
  5
2270C
  8
0
 10
4427.049754884160393
 20
335.3693649370690082
 30
0.0
 40
0.0214668191524852
 50
7.328979269898019
 51
97.6244835460904454
  0
LINE
  5
2270D
  8
0
 10
4427.0493204573631374
 20
336.035539461940175
 30
0.0
 11
4427.0693751698036067
 21
335.4104709227577246
 31
0.0
  0
ARC
  5
2270E
  8
0
 10
4427.0412210937402051
 20
335.4197285645785769
 30
0.0
 40
0.0296370702181857
 50
281.0601811104489798
 51
341.7980668697168198
  0
LINE
  5
2270F
  8
0
 10
4426.0252947066746856
 20
335.3888024600432232
 30
0.0
 11
4427.0469066678106174
 21
335.3906419666575971
 31
0.0
  0
ARC
  5
22710
  8
0
 10
4408.3016401589920861
 20
336.1643782304528258
 30
0.0
 40
0.2020895596602385
 50
111.319954636357096
 51
174.2526187675696008
  0
LINE
  5
22711
  8
0
 10
4408.2281653074187489
 20
336.3526377224046087
 30
0.0
 11
4426.7071605973051192
 21
336.9444391681577144
 31
0.0
  0
ARC
  5
22712
  8
0
 10
4426.7098539620101292
 20
336.8854239756335005
 30
0.0
 40
0.0590767688345244
 50
20.4291073449866403
 51
92.6124708956984506
  0
LINE
  5
22713
  8
0
 10
4426.7652150849053214
 20
336.906044613057702
 30
0.0
 11
4427.034906938200038
 21
336.1677995998285269
 31
0.0
  0
ARC
  5
22714
  8
0
 10
4426.3497751248896748
 20
336.0262194712859127
 30
0.0
 40
0.6996074144890622
 50
359.4436882803992148
 51
11.6756326815308906
  0
LINE
  5
22715
  8
0
 10
4408.1005664840631653
 20
336.1846160014314933
 30
0.0
 11
4408.2573086053307634
 21
335.5053440333452954
 31
0.0
  0
LINE
  5
22716
  8
0
 10
4408.3687881576397558
 20
335.4168211566279751
 30
0.0
 11
4425.987270663504205
 21
335.448234102057711
 31
0.0
  0
ARC
  5
22717
  8
0
 10
4426.0227211809706205
 20
338.5943823180472805
 30
0.0
 40
3.146347936284827
 50
269.354423588238717
 51
280.5252528731870143
  0
ARC
  5
22718
  8
0
 10
4425.6200930396062176
 20
332.6982714913128802
 30
0.0
 40
2.755034110987391
 50
93.7982825946788239
 51
120.2175384048252056
  0
ARC
  5
22719
  8
0
 10
4412.2197681445868511
 20
335.0623110695012201
 30
0.0
 40
0.4172266957748317
 50
37.2617698042666134
 51
60.1149889659276795
  0
ARC
  5
2271A
  8
0
 10
4412.5967523051804164
 20
335.3576200871219726
 30
0.0
 40
0.0619758169547121
 50
223.5441797704935993
 51
263.5633737330696817
  0
LINE
  5
2271B
  8
0
 10
4412.5898045573921991
 20
335.2960349372258975
 30
0.0
 11
4413.6206606444084173
 21
335.2979010529970196
 31
0.0
  0
ARC
  5
2271C
  8
0
 10
4413.6106378746908376
 20
335.3618634605297757
 30
0.0
 40
0.0647429184560786
 50
278.9057040506733074
 51
315.9144936006679245
  0
ARC
  5
2271D
  8
0
 10
4413.6346093293159356
 20
335.6571065812225925
 30
0.0
 40
0.3410320443036342
 50
273.7885520681704179
 51
295.0629086419236842
  0
ARC
  5
2271E
  8
0
 10
4413.774734916012676
 20
335.3578199621504723
 30
0.0
 40
0.010567320834492
 50
294.2491473293546278
 51
69.9103068681419018
  0
ARC
  5
2271F
  8
0
 10
4412.9242669785962789
 20
331.9598182380336198
 30
0.0
 40
3.513323657679547
 50
75.9302757793589365
 51
80.6000891424794759
  0
ARC
  5
22720
  8
0
 10
4413.6208612617501785
 20
335.2781712498031084
 30
0.0
 40
0.019730823129919
 50
2.016187837650592
 51
90.5825770639370944
  0
LINE
  5
22721
  8
0
 10
4413.6405798700579908
 20
335.2788654167468962
 30
0.0
 11
4413.6407421069588963
 21
335.1903340587969069
 31
0.0
  0
ARC
  5
22722
  8
0
 10
4413.6027480372131322
 20
335.1902734617560782
 30
0.0
 40
0.0379941180692028
 50
303.3347081830643788
 51
0.091381412124892
  0
ARC
  5
22723
  8
0
 10
4413.1033780819543608
 20
336.1779686204976088
 30
0.0
 40
1.1445144159202989
 50
243.1692442177345015
 51
297.0365348656389983
  0
ARC
  5
22724
  8
0
 10
4409.3065348675881978
 20
332.0162874629646126
 30
0.0
 40
3.4261446153748079
 50
63.368813994557037
 51
83.3243400548851127
  0
ARC
  5
22725
  8
0
 10
4412.5895531832438792
 20
335.2763122147975992
 30
0.0
 40
0.0197243242961387
 50
89.2697814725057412
 51
177.9914939019911913
  0
LINE
  5
22726
  8
0
 10
4412.5698409768856436
 20
335.2770035102586235
 30
0.0
 11
4412.569678739986557
 21
335.1884721523085773
 31
0.0
  0
ARC
  5
22727
  8
0
 10
4412.6076728097323212
 20
335.1884115552678054
 30
0.0
 40
0.0379941180692028
 50
179.908618587875111
 51
236.6652918169355928
  0
LINE
  5
22728
  8
0
 10
4412.569678739986557
 20
335.1884721523085773
 30
0.0
 11
4413.6407421069588963
 21
335.1903340587969069
 31
0.0
  0
ARC
  5
22729
  8
0
 10
4420.3219892167971921
 20
335.167866582213378
 30
0.0
 40
0.2913367023770146
 50
51.4884238508394532
 51
67.4654810154733724
  0
ARC
  5
2272A
  8
0
 10
4420.5321357960092428
 20
335.4279404082677161
 30
0.0
 40
0.0430913252337371
 50
228.1689791676492973
 51
271.0401779958065163
  0
ARC
  5
2272B
  8
0
 10
4420.5338773083121851
 20
335.361789404623778
 30
0.0
 40
0.0230867164519019
 50
92.3813237066022168
 51
171.6754841382899883
  0
LINE
  5
2272C
  8
0
 10
4420.5329180558292137
 20
335.3848561840089246
 30
0.0
 11
4421.4451053498678448
 21
335.3864944837546886
 31
0.0
  0
ARC
  5
2272D
  8
0
 10
4421.445305967209606
 20
335.3667646805607774
 30
0.0
 40
0.019730823129919
 50
2.016187837650592
 51
90.5825770639370944
  0
LINE
  5
2272E
  8
0
 10
4421.4650245755192373
 20
335.3674588475046221
 30
0.0
 11
4421.4651868124192333
 21
335.2789274895545759
 31
0.0
  0
ARC
  5
2272F
  8
0
 10
4421.4271927426716502
 20
335.278866892513804
 30
0.0
 40
0.0379941180692028
 50
303.3347081830643788
 51
0.091381412124892
  0
LINE
  5
22730
  8
0
 10
4420.5112653284168118
 20
335.277275948440888
 30
0.0
 11
4421.4651868124192333
 21
335.2789274895545759
 31
0.0
  0
LINE
  5
22731
  8
0
 10
4420.5110338350968959
 20
335.365131889932627
 30
0.0
 11
4420.5112653284168118
 21
335.277275948440888
 31
0.0
  0
ARC
  5
22732
  8
0
 10
4420.5556270373081134
 20
335.2816666553351865
 30
0.0
 40
0.0445784647865746
 50
185.6524491910506924
 51
247.6634919911805071
  0
ARC
  5
22733
  8
0
 10
4421.4425450444050512
 20
335.4283194157421235
 30
0.0
 40
0.04190322302435
 50
273.5029793759915151
 51
310.6379082568118974
  0
ARC
  5
22734
  8
0
 10
4421.6961777134165459
 20
335.1093125665785237
 30
0.0
 40
0.3656770990541926
 50
116.3627860711923034
 51
128.2407446408585088
  0
ARC
  5
22737
  8
0
 10
4429.5840364494715686
 20
339.6639676514805046
 30
0.0
 40
21.7324613873768513
 50
192.946236668528087
 51
200.1922710667404033
  0
ARC
  5
22738
  8
0
 10
4504.0978032301645726
 20
367.0682839959014245
 30
0.0
 40
101.1257734114550999
 50
200.1922710667404033
 51
203.8516780225897946
  0
ARC
  5
22739
  8
0
 10
4390.570888128403567
 20
318.4842018149224145
 30
0.0
 40
22.3998035922338516
 50
2.5965027569347008
 51
20.083399407226679
  0
LINE
  5
2273A
  8
0
 10
4412.947694666922871
 20
319.4989579966576798
 30
0.0
 11
4435.9123027939040185
 21
319.4989579966576798
 31
0.0
  0
CIRCLE
  5
2273B
  8
0
 10
4429.8497455233045912
 20
321.0918523515028937
 30
0.0
 40
0.5421920736036187
  0
LINE
  5
2273C
  8
0
 10
4432.0211846435049665
 20
349.0743930556575947
 30
0.0
 11
4432.0210560758705469
 21
349.147110739457105
 31
0.0
  0
ARC
  5
2273D
  8
0
 10
4432.0525957603485949
 20
349.1437806924947154
 30
0.0
 40
0.0317149950291726
 50
102.1961029717407996
 51
173.9728834255498953
  0
LINE
  5
2273E
  8
0
 10
4435.9488896478042079
 20
334.6827022415347983
 30
0.0
 11
4435.9123027939040185
 21
319.4989579966576798
 31
0.0
  0
LINE
  5
2273F
  8
0
 10
4435.9643638593042851
 20
334.5797537332576894
 30
0.0
 11
4435.9486415823757852
 21
334.5797537332575757
 31
0.0
  0
ARC
  5
22740
  8
0
 10
4435.6085837542859736
 20
334.0280835756199167
 30
0.0
 40
0.7955414624859612
 50
72.9840831486365147
 51
83.9139706144339499
  0
ARC
  5
22741
  8
0
 10
4435.6165996987201652
 20
334.1738886925750762
 30
0.0
 40
0.6497514109549432
 50
68.1445958622176562
 51
83.2536799981395177
  0
ARC
  5
22742
  8
0
 10
4421.0238377306741313
 20
336.1735044034355155
 30
0.0
 40
1.0516630684511321
 50
242.5277231990440896
 51
268.3651097839561999
  0
ARC
  5
22743
  8
0
 10
4420.988177952535807
 20
336.0315642757237242
 30
0.0
 40
0.9093124241952049
 50
270.3563533414853737
 51
300.3818019224116824
  0
LINE
  5
22744
  8
0
 10
4432.0211846435049665
 20
349.0743930556575947
 30
0.0
 11
4434.304644896604259
 21
349.0743930556575947
 31
0.0
  0
LINE
  5
22745
  8
0
 10
4434.304644896604259
 20
349.0743930556575947
 30
0.0
 11
4434.3045047929990687
 21
349.1512114893544094
 31
0.0
  0
ARC
  5
22746
  8
0
 10
4434.2808809644411667
 20
349.1511674904759843
 30
0.0
 40
0.0236238695310345
 50
0.1067120476907037
 51
88.2143768312580647
  0
LINE
  5
22747
  8
0
 10
4434.2816170832447824
 20
349.1747798885060092
 30
0.0
 11
4432.045895703903625
 21
349.1747798885060092
 31
0.0
  0
ARC
  5
22748
  8
0
 10
4434.1216958839304425
 20
349.0625700340804087
 30
0.0
 40
0.0136675534544019
 50
120.1123832237710047
 51
177.7896370019427081
  0
ARC
  5
22749
  8
0
 10
4432.199490449732366
 20
349.0562174805589279
 30
0.0
 40
0.0193824634103303
 50
10.2832175710680094
 51
69.6742593782755506
  0
LINE
  5
2274A
  8
0
 10
4432.379564358204334
 20
349.1846183816700204
 30
0.0
 11
4433.9458767519054163
 21
349.1846183816700204
 31
0.0
  0
ARC
  5
2274B
  8
0
 10
4433.9433167118086203
 20
349.1538260731617811
 30
0.0
 40
0.0308985447642654
 50
42.699163395282298
 51
85.2474192118917529
  0
ARC
  5
2274C
  8
0
 10
4432.3862417520331292
 20
349.1509249731818159
 30
0.0
 40
0.0343487025067492
 50
101.209685709031703
 51
136.0132124042449959
  0
ARC
  5
2274D
  8
0
 10
4432.3999888986400038
 20
349.1562126892151809
 30
0.0
 40
0.0288271400405426
 50
99.8093260298180951
 51
139.9027095141501889
  0
ARC
  5
2274E
  8
0
 10
4433.9256949012178666
 20
349.1586565530291182
 30
0.0
 40
0.0271215905426775
 50
36.4758139237730319
 51
73.1839363605581497
  0
ARC
  5
22750
  8
0
 10
4435.8447563072522826
 20
348.9755114856160958
 30
0.0
 40
0.1043926556660501
 50
8.6664648358009782
 51
32.2482792719540114
  0
ARC
  5
22751
  8
0
 10
4435.874984143139045
 20
348.9929371644701064
 30
0.0
 40
0.0695434212572551
 50
33.3948605872241302
 51
72.4571027196552251
  0
ARC
  5
22752
  8
0
 10
4435.848550247899766
 20
348.9124790714579945
 30
0.0
 40
0.1542301744586387
 50
72.1031262625267146
 51
85.6664326410081145
  0
ARC
  5
22755
  8
0
 10
4435.7681701655010329
 20
334.5624943844553059
 30
0.0
 40
0.2326859757669097
 50
50.8948215820819314
 51
67.1625676541183196
  0
ARC
  5
22756
  8
0
 10
4435.8407475346702995
 20
334.6528122189116061
 30
0.0
 40
0.116824211117233
 50
35.3395945423149485
 51
50.5768460088069105
  0
ARC
  5
22757
  8
0
 10
4435.8828579415840068
 20
334.6812265820818766
 30
0.0
 40
0.0660481929899114
 50
1.2802181528591441
 51
36.3623144460434773
  0
ARC
  5
22758
  8
0
 10
4435.7202738633177432
 20
334.4256426686254144
 30
0.0
 40
0.3828203044844483
 50
63.8487760735273326
 51
71.5561165317335082
  0
ARC
  5
22759
  8
0
 10
4435.8070089158718474
 20
334.5948379376046091
 30
0.0
 40
0.1927451211033382
 50
46.7528141953399086
 51
64.8252950519720343
  0
ARC
  5
2275A
  8
0
 10
4435.8722497660037334
 20
334.6657868784682819
 30
0.0
 40
0.0963721478502928
 50
29.9466439173914196
 51
46.1055203908924369
  0
ARC
  5
2275B
  8
0
 10
4435.8911756263487405
 20
334.6772563153580222
 30
0.0
 40
0.0742492208851673
 50
9.6978884375140773
 51
29.5681401169334102
  0
ARC
  5
2275C
  8
0
 10
4426.4518713319848757
 20
336.103128852017619
 30
0.0
 40
0.6195060009585464
 50
283.5921718977185151
 51
313.2952507919915774
  0
ARC
  5
2275D
  8
0
 10
4426.5151654496139599
 20
336.0464059255641018
 30
0.0
 40
0.5348649751336879
 50
312.5272565637013145
 51
357.1087122181622249
  0
ARC
  5
228AF
  8
0
 10
4429.9765779007429956
 20
347.9172482855377098
 30
0.0
 40
0.0413
 50
164.729144641809313
 51
270.1004379223138017
  0
LINE
  5
228F1
  8
0
 10
4413.4228769431820183
 20
335.0789537316434235
 30
0.0
 11
4428.704686589119774
 21
335.0789537316434235
 31
0.0
  0
ARC
  5
228F2
  8
0
 10
4408.6300038958215737
 20
334.8470537316434275
 30
0.0
 40
0.2319
 50
90.0
 51
192.9462366685214079
  0
ARC
  5
228F3
  8
0
 10
4408.3685845446061649
 20
335.5310209751118009
 30
0.0
 40
0.1142
 50
192.9935798370250097
 51
270.1021556361296234
  0
ENDSEC
  0
EOF
