  0
SECTION
  2
HEADER
  9
$ACADVER
  1
AC1009
  9
$INSBASE
 10
6091.1069710939273136
 20
3.0538579045586678
 30
0.0
  9
$EXTMIN
 10
6062.5967604446850601
 20
3.052491793134279
 30
-0.0015258207003583
  9
$EXTMAX
 10
6091.4096096628418309
 20
34.0633751359887782
 30
0.0000000349246037
  9
$LIMMIN
 10
0.0
 20
0.0
  9
$LIMMAX
 10
11.6929133858000007
 20
8.2677165353999982
  9
$ORTHOMODE
 70
     0
  9
$REGENMODE
 70
     1
  9
$FILLMODE
 70
     1
  9
$QTEXTMODE
 70
     0
  9
$MIRRTEXT
 70
     0
  9
$DRAGMODE
 70
     2
  9
$LTSCALE
 40
0.6431102362
  9
$OSMODE
 70
  4095
  9
$ATTMODE
 70
     1
  9
$TEXTSIZE
 40
0.2
  9
$TRACEWID
 40
0.05
  9
$TEXTSTYLE
  7
STANDARD
  9
$CLAYER
  8
0
  9
$CELTYPE
  6
BYLAYER
  9
$CECOLOR
 62
   256
  9
$DIMSCALE
 40
1.0
  9
$DIMASZ
 40
0.1875
  9
$DIMEXO
 40
0.0625
  9
$DIMDLI
 40
0.4443307087
  9
$DIMRND
 40
0.0
  9
$DIMDLE
 40
0.0
  9
$DIMEXE
 40
0.125
  9
$DIMTP
 40
0.01
  9
$DIMTM
 40
0.01
  9
$DIMTXT
 40
2.0
  9
$DIMCEN
 40
0.1052362205
  9
$DIMTSZ
 40
0.0
  9
$DIMTOL
 70
     1
  9
$DIMLIM
 70
     0
  9
$DIMTIH
 70
     1
  9
$DIMTOH
 70
     1
  9
$DIMSE1
 70
     0
  9
$DIMSE2
 70
     0
  9
$DIMTAD
 70
     0
  9
$DIMZIN
 70
     0
  9
$DIMBLK
  1

  9
$DIMASO
 70
     1
  9
$DIMSHO
 70
     1
  9
$DIMPOST
  1
\X
  9
$DIMAPOST
  1

  9
$DIMALT
 70
     1
  9
$DIMALTD
 70
     2
  9
$DIMALTF
 40
25.3999999999999986
  9
$DIMLFAC
 40
1.0
  9
$DIMTOFL
 70
     0
  9
$DIMTVP
 40
0.0
  9
$DIMTIX
 70
     0
  9
$DIMSOXD
 70
     0
  9
$DIMSAH
 70
     0
  9
$DIMBLK1
  1

  9
$DIMBLK2
  1

  9
$DIMSTYLE
  2
STANDARD
  9
$DIMCLRD
 70
     0
  9
$DIMCLRE
 70
     0
  9
$DIMCLRT
 70
     0
  9
$DIMTFAC
 40
1.0
  9
$DIMGAP
 40
0.09
  9
$LUNITS
 70
     2
  9
$LUPREC
 70
     4
  9
$SKETCHINC
 40
0.1
  9
$FILLETRAD
 40
0.0
  9
$AUNITS
 70
     0
  9
$AUPREC
 70
     0
  9
$MENU
  1
.
  9
$ELEVATION
 40
0.0
  9
$PELEVATION
 40
0.0
  9
$THICKNESS
 40
0.0
  9
$LIMCHECK
 70
     0
  9
$BLIPMODE
 70
     0
  9
$CHAMFERA
 40
0.0
  9
$CHAMFERB
 40
0.0
  9
$SKPOLY
 70
     0
  9
$TDCREATE
 40
2458060.468368056230247
  9
$TDUPDATE
 40
2460697.9591203699819744
  9
$TDINDWG
 40
0.5938728009000001
  9
$TDUSRTIMER
 40
0.5938728009000001
  9
$USRTIMER
 70
     1
  9
$ANGBASE
 50
0.0
  9
$ANGDIR
 70
     0
  9
$PDMODE
 70
     0
  9
$PDSIZE
 40
0.3125
  9
$PLINEWID
 40
0.0
  9
$COORDS
 70
     1
  9
$SPLFRAME
 70
     0
  9
$SPLINETYPE
 70
     6
  9
$SPLINESEGS
 70
     8
  9
$ATTDIA
 70
     1
  9
$ATTREQ
 70
     1
  9
$HANDLING
 70
     1
  9
$HANDSEED
  5
24F14
  9
$SURFTAB1
 70
     6
  9
$SURFTAB2
 70
     6
  9
$SURFTYPE
 70
     6
  9
$SURFU
 70
     6
  9
$SURFV
 70
     6
  9
$UCSNAME
  2

  9
$UCSORG
 10
0.0
 20
0.0
 30
0.0
  9
$UCSXDIR
 10
1.0
 20
0.0
 30
0.0
  9
$UCSYDIR
 10
0.0
 20
1.0
 30
0.0
  9
$PUCSNAME
  2

  9
$PUCSORG
 10
0.0
 20
0.0
 30
0.0
  9
$PUCSXDIR
 10
1.0
 20
0.0
 30
0.0
  9
$PUCSYDIR
 10
0.0
 20
1.0
 30
0.0
  9
$USERI1
 70
     0
  9
$USERI2
 70
     0
  9
$USERI3
 70
     0
  9
$USERI4
 70
     0
  9
$USERI5
 70
     0
  9
$USERR1
 40
0.0
  9
$USERR2
 40
0.0
  9
$USERR3
 40
0.0
  9
$USERR4
 40
0.0
  9
$USERR5
 40
0.0
  9
$WORLDVIEW
 70
     1
  9
$SHADEDGE
 70
     3
  9
$SHADEDIF
 70
    70
  9
$TILEMODE
 70
     1
  9
$MAXACTVP
 70
    64
  9
$PLIMCHECK
 70
     0
  9
$PEXTMIN
 10
1.0000000000000000E+20
 20
1.0000000000000000E+20
 30
1.0000000000000000E+20
  9
$PEXTMAX
 10
-1.0000000000000000E+20
 20
-1.0000000000000000E+20
 30
-1.0000000000000000E+20
  9
$PLIMMIN
 10
0.0
 20
0.0
  9
$PLIMMAX
 10
12.0
 20
9.0
  9
$UNITMODE
 70
     0
  9
$VISRETAIN
 70
     1
  9
$PLINEGEN
 70
     0
  9
$PSLTSCALE
 70
     1
  0
ENDSEC
  0
SECTION
  2
TABLES
  0
TABLE
  2
VPORT
 70
     1
  0
VPORT
  2
*ACTIVE
 70
     0
 10
0.0
 20
0.0
 11
1.0
 21
1.0
 12
2284.6452748975129907
 22
-101.6227229685438971
 13
0.0
 23
0.0
 14
1.0
 24
1.0
 15
0.0
 25
0.0
 16
0.0
 26
0.0
 36
5.1040778033513332
 17
3792.35791015625
 27
120.1806564331053977
 37
0.0
 40
31.2271550591560789
 41
2.1449438202247189
 42
50.0
 43
0.0
 44
0.0
 50
0.0
 51
0.0
 71
     0
 72
   100
 73
     1
 74
     1
 75
     0
 76
     0
 77
     0
 78
     0
  0
ENDTAB
  0
TABLE
  2
LTYPE
 70
     2
  0
LTYPE
  2
CONTINUOUS
 70
     0
  3
Solid line
 72
    65
 73
     0
 40
0.0
  0
LTYPE
  2
PHANTOM2
 70
     0
  3
___ _ _ ___ _ _ ___ _ _ ___ _ _
 72
    65
 73
     6
 40
1.25
 49
0.625
 49
-0.125
 49
0.125
 49
-0.125
 49
0.125
 49
-0.125
  0
ENDTAB
  0
TABLE
  2
LAYER
 70
     2
  0
LAYER
  2
0
 70
     0
 62
   255
  6
CONTINUOUS
  0
LAYER
  2
DEFPOINTS
 70
     0
 62
     7
  6
CONTINUOUS
  0
ENDTAB
  0
TABLE
  2
STYLE
 70
     1
  0
STYLE
  2
STANDARD
 70
     0
 40
0.0
 41
0.8
 50
0.0
 71
     0
 42
0.2
  3
txt
  4

  0
ENDTAB
  0
TABLE
  2
VIEW
 70
     0
  0
ENDTAB
  0
TABLE
  2
UCS
 70
     0
  0
ENDTAB
  0
TABLE
  2
APPID
 70
     9
  0
APPID
  2
ACAD
 70
     0
  0
APPID
  2
ACAD_MLEADERVER
 70
     0
  0
APPID
  2
ACAD_EXEMPT_FROM_CAD_STANDARDS
 70
     0
  0
APPID
  2
ACAD_NAV_VCDISPLAY
 70
     0
  0
APPID
  2
ACAECLAYERSTANDARD
 70
     0
  0
APPID
  2
ACCMTRANSPARENCY
 70
     0
  0
APPID
  2
ACAD_DSTYLE_DIMJAG
 70
     0
  0
APPID
  2
ACAD_DSTYLE_DIMTALN
 70
     0
  0
APPID
  2
ACDBATTR
 70
     0
  0
ENDTAB
  0
TABLE
  2
DIMSTYLE
 70
     1
  0
DIMSTYLE
  2
STANDARD
 70
     0
  3

  4

  5

  6

  7

 40
1.0
 41
0.1875
 42
0.0625
 43
0.38
 44
0.125
 45
0.0
 46
0.0
 47
0.01
 48
0.01
140
0.15625
141
0.09
142
0.0
143
25.3999999999999986
144
1.0
145
0.0
146
1.0
147
0.09
 71
     1
 72
     0
 73
     1
 74
     1
 75
     0
 76
     0
 77
     0
 78
     4
170
     0
171
     2
172
     0
173
     0
174
     0
175
     0
176
     0
177
     0
178
     0
  0
ENDTAB
  0
ENDSEC
  0
SECTION
  2
BLOCKS
  0
BLOCK
  8
0
  2
$MODEL_SPACE
 70
     0
 10
0.0
 20
0.0
 30
0.0
  3
$MODEL_SPACE
  1

  0
ENDBLK
  5
21
  8
0
  0
BLOCK
 67
     1
  8
0
  2
$PAPER_SPACE
 70
     0
 10
0.0
 20
0.0
 30
0.0
  3
$PAPER_SPACE
  1

  0
ENDBLK
  5
1D
 67
     1
  8
0
  0
ENDSEC
  0
SECTION
  2
ENTITIES
  0
ATTDEF
  5
3930
  8
DEFPOINTS
 10
6091.1039454098608985
 20
3.0576692296902759
 30
0.0
 40
0.001
  1
K-23191PH-HC
  3

  2
MODELNUMBER
 70
     0
1001
ACDBATTR
1070
     0
1070
     1
  0
ATTDEF
  5
3931
  8
DEFPOINTS
 10
6091.1039454098608985
 20
3.0560025630236112
 30
0.0
 40
0.001
  1
FAMILY CARE
  3

  2
TRADENAME
 70
     0
1001
ACDBATTR
1070
     0
1070
     1
  0
ATTDEF
  5
3932
  8
DEFPOINTS
 10
6091.1039454098608985
 20
3.054335896356946
 30
0.0
 40
0.001
  1
TOILET
  3

  2
PRODUCT
 70
     0
1001
ACDBATTR
1070
     0
1070
     1
  0
LINE
  5
24D1B
  8
0
 10
6067.2580334632539234
 20
3.0538579045586678
 30
0.0
 11
6090.2078785192943542
 21
3.0538579045586678
 31
0.0
  0
LINE
  5
24D1C
  8
0
 10
6084.5742777431232753
 20
33.9580223950586912
 30
0.0
 11
6090.1480168310190493
 21
33.9580223950586912
 31
0.0
  0
LINE
  5
24D1D
  8
0
 10
6084.1931497977002437
 20
32.7773644152586883
 30
0.0
 11
6090.2337327049008309
 21
32.7773644152586883
 31
0.0
  0
LINE
  5
24D1E
  8
0
 10
6062.9683345624516733
 20
18.4085119834586806
 30
0.0
 11
6073.3821932852943064
 21
18.4085119834586806
 31
0.0
  0
LINE
  5
24D1F
  8
0
 10
6073.5518381292276899
 20
18.4085119834586806
 30
0.0
 11
6085.2160240242274085
 21
18.4085119834586806
 31
0.0
  0
LINE
  5
24D20
  8
0
 10
6062.7304051362980317
 20
18.1409162402586297
 30
0.0
 11
6089.9933593997266144
 21
18.1409162402586297
 31
0.0
  0
ARC
  5
24D21
  8
0
 10
6079.7418602151174127
 20
22.0446430832301097
 30
0.0
 40
17.4258533546545209
 50
192.9821941948887911
 51
195.251522716146809
  0
ARC
  5
24D22
  8
0
 10
6088.724140740610892
 20
24.4937502886026301
 30
0.0
 40
26.7360353905812396
 50
195.251522716146809
 51
199.9635939385053973
  0
ARC
  5
24D23
  8
0
 10
6111.5322661095333387
 20
32.7788205308244969
 30
0.0
 40
51.002328304064882
 50
199.9635939385053973
 51
203.8424556005417969
  0
ARC
  5
24D24
  8
0
 10
6028.6425430238723493
 20
-3.853295774301273
 30
0.0
 40
39.6211683080703096
 50
17.5495945716610713
 51
23.8424556005418005
  0
ARC
  5
24D25
  8
0
 10
6045.6925027630295517
 20
2.1130176110045511
 30
0.0
 40
21.5726962787472907
 50
7.2933574131481249
 51
16.0952475003298012
  0
ARC
  5
24D26
  8
0
 10
6039.0567167238086768
 20
1.3350116774844021
 30
0.0
 40
28.2536492897958986
 50
3.4878143712539611
 51
7.1499857468430683
  0
LINE
  5
24D27
  8
0
 10
6062.7304051362980317
 20
18.1409162402586297
 30
0.0
 11
6062.7323932158624302
 21
18.1833628191622303
 31
0.0
  0
LINE
  5
24D28
  8
0
 10
6062.7304051362980317
 20
18.1409162402586297
 30
0.0
 11
6062.7614129659859827
 21
18.1299558214587115
 31
0.0
  0
ARC
  5
24D29
  8
0
 10
6062.9683345624516733
 20
18.1723119834586804
 30
0.0
 40
0.2362
 50
90.0
 51
177.3183849883727987
  0
LINE
  5
24D2A
  8
0
 10
6090.2078785192943542
 20
3.0538579045586678
 30
0.0
 11
6090.2712675265047437
 21
18.7189274241695998
 31
0.0
  0
LINE
  5
24D2B
  8
0
 10
6090.1339456324240018
 20
18.9167245819586682
 30
0.0
 11
6084.5399603965652204
 21
18.9167245819586682
 31
0.0
  0
ARC
  5
24D2C
  8
0
 10
6090.0742691393552377
 20
18.7197245819586691
 30
0.0
 40
0.197
 50
359.7681527839401951
 51
90.0
  0
LINE
  5
24D2D
  8
0
 10
6084.5582599163899431
 20
18.7197245819586691
 30
0.0
 11
6084.5582599163899431
 21
18.6055119834586797
 31
0.0
  0
ARC
  5
24D2E
  8
0
 10
6084.7552599163900595
 20
18.7197245819586691
 30
0.0
 40
0.197
 50
90.0
 51
180.0
  0
ARC
  5
24D2F
  8
0
 10
6084.3612599163898267
 20
18.6055119834586797
 30
0.0
 40
0.197
 50
270.0
 51
0.0
  0
LINE
  5
24D30
  8
0
 10
6084.0927902761195583
 20
32.5758615765542174
 30
0.0
 11
6084.4019964499575508
 21
19.0515703091606099
 31
0.0
  0
ARC
  5
24D31
  8
0
 10
6084.2897388085930288
 20
32.5803644152586926
 30
0.0
 40
0.197
 50
90.0
 51
181.3097265149629038
  0
LINE
  5
24D32
  8
0
 10
6090.2719456324239218
 20
19.054724581958709
 30
0.0
 11
6090.2719456324239218
 21
32.7063286906833071
 31
0.0
  0
ARC
  5
24D33
  8
0
 10
6090.1339456324240018
 20
19.054724581958709
 30
0.0
 40
0.138
 50
270.0
 51
359.9999999999968168
  0
ARC
  5
24D34
  8
0
 10
6090.0749456324247149
 20
32.5803644152586926
 30
0.0
 40
0.197
 50
359.9999999999968168
 51
90.0
  0
LINE
  5
24D35
  8
0
 10
6090.3069710939280412
 20
32.8599558422779694
 30
0.0
 11
6090.2678927641782138
 21
33.8434777272399003
 31
0.0
  0
ARC
  5
24D36
  8
0
 10
6090.2218034941070073
 20
32.8617106864697632
 30
0.0
 40
0.0851856768323223
 50
278.0500308712295237
 51
358.819610498271004
  0
LINE
  5
24D37
  8
0
 10
6084.2762848917527663
 20
33.7165208937128398
 30
0.0
 11
6084.1514355435720063
 21
33.1268996816402606
 31
0.0
  0
ARC
  5
24D38
  8
0
 10
6084.5742777431232753
 20
33.6534223950586977
 30
0.0
 40
0.3046
 50
90.0
 51
168.0444959353305023
  0
ARC
  5
24D39
  8
0
 10
6090.1480168310190493
 20
33.8380223950586867
 30
0.0
 40
0.12
 50
2.6056272880799209
 51
90.0
  0
LINE
  5
24D3A
  8
0
 10
6084.1141864549526872
 20
32.8587707614594606
 30
0.0
 11
6084.1159383206149869
 21
32.9162575722565691
 31
0.0
  0
ARC
  5
24D3B
  8
0
 10
6084.1931497977002437
 20
32.8563644152587031
 30
0.0
 40
0.079
 50
178.2544960700087131
 51
270.0
  0
ARC
  5
24D3C
  8
0
 10
6102.8100762843532721
 20
29.8742499242245287
 30
0.0
 40
18.9400265242147512
 50
170.1113372406234134
 51
170.7575422267524061
  0
ARC
  5
24D3D
  8
0
 10
6090.0750954356881266
 20
32.7060502225587868
 30
0.0
 40
0.1968503936996905
 50
0.0810515929657555
 51
23.2278415844366783
  0
ARC
  5
24D3E
  8
0
 10
6084.5399603965652204
 20
19.054724581958709
 30
0.0
 40
0.138
 50
181.3097265149596069
 51
270.0
  0
ARC
  5
24D3F
  8
0
 10
6089.987069178461752
 20
17.7245594870215903
 30
0.0
 40
0.4164042661280476
 50
47.4817237409846129
 51
89.1344544994068286
  0
CIRCLE
  5
24D40
  8
0
 10
6084.2876576743874466
 20
4.4318106604086722
 30
0.0
 40
0.2755910216044218
  0
ARC
  5
24D41
  8
0
 10
6084.2448717563156606
 20
11.1434487014702199
 30
0.0
 40
7.3296849331172673
 50
77.8516335476047061
 51
82.3861626288226461
  0
ARC
  5
24D42
  8
0
 10
6088.2480538730733315
 20
29.9451068601313501
 30
0.0
 40
11.89345124556481
 50
258.0595512009725212
 51
261.2565783337648782
  0
ARC
  5
24D43
  8
0
 10
6086.3776006883263108
 20
17.77323293826365
 30
0.0
 40
0.4213031519179276
 50
76.0304188374885541
 51
81.4644959870891228
  0
ARC
  5
24D44
  8
0
 10
6086.7108992347248204
 20
18.7138377483002785
 30
0.0
 40
0.5800054475472887
 50
246.4659023836350116
 51
261.035996179864128
  0
LINE
  5
24D46
  8
0
 10
6086.2336765237350846
 20
34.026425864413973
 30
0.0
 11
6086.230940385105896
 21
33.9580223950586912
 31
0.0
  0
LINE
  5
24D47
  8
0
 10
6086.2572576663642394
 20
34.049082618758689
 30
0.0
 11
6088.4874984726229741
 21
34.049082618758689
 31
0.0
  0
ARC
  5
24D48
  8
0
 10
6086.2572576663642394
 20
34.0254826187586801
 30
0.0
 40
0.0236
 50
90.0
 51
177.7093900781976004
  0
LINE
  5
24D49
  8
0
 10
6086.5993739822934003
 20
34.0608936434586909
 30
0.0
 11
6088.1453821759932907
 21
34.0608936434586909
 31
0.0
  0
ARC
  5
24D4A
  8
0
 10
6086.5993739629930133
 20
34.0372715962586483
 30
0.0
 40
0.023622047200032
 50
89.9999531875242695
 51
150.0000030789655909
  0
LINE
  5
24D4B
  8
0
 10
6088.5110796152512194
 20
34.026425864413973
 30
0.0
 11
6088.5138157538813175
 21
33.9580223950586912
 31
0.0
  0
ARC
  5
24D4C
  8
0
 10
6088.4874984726229741
 20
34.0254826187586801
 30
0.0
 40
0.0236
 50
2.290609921802413
 51
90.0
  0
ARC
  5
24D4D
  8
0
 10
6088.1453821759932907
 20
34.0372715962586483
 30
0.0
 40
0.023622047200032
 50
29.9999969210343487
 51
90.0000468124757163
  0
LINE
  5
24D4E
  8
0
 10
6082.8707237920752959
 20
23.1148076991506102
 30
0.0
 11
6083.4071353074932631
 21
22.1497729888586612
 31
0.0
  0
LINE
  5
24D4F
  8
0
 10
6083.4145557512929372
 20
22.1225572494586693
 30
0.0
 11
6083.4428818741926079
 21
21.0410898296586595
 31
0.0
  0
LINE
  5
24D50
  8
0
 10
6083.4035929165065681
 20
21.0335710158054816
 30
0.0
 11
6083.3518040060944259
 21
19.0305596684586611
 31
0.0
  0
LINE
  5
24D51
  8
0
 10
6083.3518040060944259
 20
19.0305596684586611
 30
0.0
 11
6083.3075156506929488
 21
19.030559665158659
 31
0.0
  0
LINE
  5
24D52
  8
0
 10
6083.3075156506929488
 20
19.030559665158659
 30
0.0
 11
6083.302793283192841
 21
18.8218977827586684
 31
0.0
  0
LINE
  5
24D53
  8
0
 10
6083.302793283192841
 20
18.8218977827586684
 30
0.0
 11
6082.3240387989935698
 21
18.8218977827586684
 31
0.0
  0
LINE
  5
24D54
  8
0
 10
6062.8017948584902115
 20
19.1974112286698606
 30
0.0
 11
6062.7956791533088108
 21
19.0221300476008111
 31
0.0
  0
LINE
  5
24D55
  8
0
 10
6062.8061418559809681
 20
19.2090772043528197
 30
0.0
 11
6063.2525885572449624
 21
19.7629696133638895
 31
0.0
  0
LINE
  5
24D56
  8
0
 10
6063.2679130523929416
 20
19.7703007812586691
 30
0.0
 11
6067.1069677828118074
 21
19.7703007812586691
 31
0.0
  0
ARC
  5
24D57
  8
0
 10
6067.7850065138909486
 20
46.7042640494493213
 30
0.0
 40
26.9424964294900917
 50
268.557933945727882
 51
281.9570427749424084
  0
ARC
  5
24D58
  8
0
 10
6064.5851972951049902
 20
50.2275143947151719
 30
0.0
 40
31.14487745174549
 50
286.3774091249783282
 51
295.0731347189479266
  0
ARC
  5
24D59
  8
0
 10
6083.1412069430516567
 20
9.5122834373138971
 30
0.0
 40
13.6045623839267602
 50
94.7006175825544432
 51
113.1917031263153035
  0
ARC
  5
24D5A
  8
0
 10
6084.8505671046259522
 20
-2.8598711993804642
 30
0.0
 40
26.0843045257663491
 50
94.4668878314682985
 51
96.2158108235416449
  0
ARC
  5
24D5B
  8
0
 10
6082.8197560989783597
 20
23.0872807216615392
 30
0.0
 40
0.0579261618733505
 50
28.3728959503389007
 51
90.7037971278466557
  0
LINE
  5
24D5C
  8
0
 10
6082.5699219832931703
 20
18.8218977827586684
 30
0.0
 11
6082.8533865501931359
 21
18.5384332158586602
 31
0.0
  0
LINE
  5
24D5D
  8
0
 10
6082.8533865501931359
 20
18.5384332158586602
 30
0.0
 11
6082.9881623813926126
 21
18.5384332158586602
 31
0.0
  0
LINE
  5
24D5E
  8
0
 10
6083.1446054101934351
 20
18.5237971784586613
 30
0.0
 11
6083.1332385883988536
 21
18.6689854234595991
 31
0.0
  0
LINE
  5
24D5F
  8
0
 10
6083.0743188826190817
 20
18.7234725858586586
 30
0.0
 11
6083.0265747391931654
 21
18.7234725858586586
 31
0.0
  0
ARC
  5
24D60
  8
0
 10
6083.0743188826190817
 20
18.6643725858586613
 30
0.0
 40
0.0591
 50
4.4765687652357986
 51
90.0
  0
LINE
  5
24D61
  8
0
 10
6082.9881623813926126
 20
18.5384332158586602
 30
0.0
 11
6083.010691509201024
 21
18.4765349459850512
 31
0.0
  0
ARC
  5
24D62
  8
0
 10
6083.066185167893309
 20
18.4967329859586691
 30
0.0
 40
0.0590551181000105
 50
200.0000190702193095
 51
270.0
  0
ARC
  5
24D63
  8
0
 10
6083.066185167893309
 20
18.5104830607131809
 30
0.0
 40
0.0728051928545224
 50
270.0
 51
306.3179188478217725
  0
ARC
  5
24D64
  8
0
 10
6083.0579896100907717
 20
18.5216326506732187
 30
0.0
 40
0.0866428416414333
 50
306.3179188478217725
 51
1.4315228839566281
  0
LINE
  5
24D65
  8
0
 10
6082.9478747391931392
 20
18.8021725858586493
 30
0.0
 11
6082.9478747391931392
 21
18.8218977827586684
 31
0.0
  0
ARC
  5
24D66
  8
0
 10
6083.0265747391931654
 20
18.8021725858586493
 30
0.0
 40
0.0787
 50
180.0
 51
270.0
  0
LINE
  5
24D67
  8
0
 10
6063.2092828843951793
 20
18.6853448923379588
 30
0.0
 11
6067.8750239155506279
 21
18.6853448923379588
 31
0.0
  0
LINE
  5
24D68
  8
0
 10
6063.1283666370936771
 20
18.8234377734585401
 30
0.0
 11
6067.5882877548338001
 21
18.8234377734585401
 31
0.0
  0
LINE
  5
24D69
  8
0
 10
6063.1283666370936771
 20
18.8234377734585401
 30
0.0
 11
6063.134892113163005
 21
18.997622093158661
 31
0.0
  0
ARC
  5
24D6A
  8
0
 10
6089.14454194451082
 20
769.1609537836043273
 30
0.0
 40
750.621132791253558
 50
267.9897985027981235
 51
267.9988127451802029
  0
ARC
  5
24D6B
  8
0
 10
6062.8153671731543
 20
19.021443116327049
 30
0.0
 40
0.0197
 50
178.0017135506238901
 51
267.9897985021723912
  0
LINE
  5
24D6C
  8
0
 10
6062.9326976767933957
 20
18.997622093158661
 30
0.0
 11
6067.7058397383689226
 21
18.997622093158661
 31
0.0
  0
LINE
  5
24D6D
  8
0
 10
6062.8061418559809681
 20
19.2090772043528197
 30
0.0
 11
6068.3499478849844309
 21
19.2160842809547887
 31
0.0
  0
ARC
  5
24D6E
  8
0
 10
6062.8209088413759673
 20
19.1971866539233709
 30
0.0
 40
0.0189591415195353
 50
141.1585733837814018
 51
179.3166133240632973
  0
ARC
  5
24D6F
  8
0
 10
6068.8040066836201731
 20
47.9187675800942827
 30
0.0
 40
28.7062745399559205
 50
269.0936916000791825
 51
280.1475810096130203
  0
ARC
  5
24D70
  8
0
 10
6070.7862214510860213
 20
36.8439553430775391
 30
0.0
 40
17.4554682813124984
 50
280.1475810096130203
 51
293.9844498597007032
  0
ARC
  5
24D71
  8
0
 10
6082.9651378406842923
 20
9.469669159296167
 30
0.0
 40
12.5057991901474796
 50
97.1701367470713251
 51
113.9844498597007032
  0
ARC
  5
24D72
  8
0
 10
6076.6993390456709676
 20
59.2773370285127328
 30
0.0
 40
37.6944399836828268
 50
277.1701367470712967
 51
279.0054120464159837
  0
ARC
  5
24D73
  8
0
 10
6067.9059270419802488
 20
92.6467653734918741
 30
0.0
 40
73.6494150747724348
 50
269.8443413009753726
 51
272.1719515711993722
  0
ARC
  5
24D74
  8
0
 10
6069.8678828586398595
 20
40.9154380324863709
 30
0.0
 40
21.8808966577963986
 50
272.1719515711993722
 51
274.9657999289872237
  0
ARC
  5
24D75
  8
0
 10
6067.7024638131952088
 20
47.0469578971583218
 30
0.0
 40
28.2237510679425796
 50
269.7682156389146257
 51
278.2695971604741203
  0
ARC
  5
24D76
  8
0
 10
6067.7153397953961758
 20
46.7462438264853972
 30
0.0
 40
28.0613532818833598
 50
270.3260454129681989
 51
277.0124264849254132
  0
ARC
  5
24D77
  8
0
 10
6067.8532238470770608
 20
45.625278288367717
 30
0.0
 40
26.9319393854948999
 50
277.0124264849254132
 51
285.3571821394339736
  0
ARC
  5
24D78
  8
0
 10
6060.8321267740757321
 20
71.189816607937388
 30
0.0
 40
53.4430959728874271
 50
285.3571821394339736
 51
288.2094108625681201
  0
ARC
  5
24D79
  8
0
 10
6042.642411824728697
 20
126.483538126499397
 30
0.0
 40
111.6518699619587949
 50
288.2094108625681201
 51
289.1601748835911962
  0
ARC
  5
24D7A
  8
0
 10
6081.0937909115891671
 20
15.8186044121006404
 30
0.0
 40
5.5028828553882612
 50
101.4082235411373034
 51
109.1601748835910968
  0
ARC
  5
24D7B
  8
0
 10
6084.316987360190069
 20
2.4311552774944678
 30
0.0
 40
19.2701651712661111
 50
97.3831587706098958
 51
102.9292515645591948
  0
ARC
  5
24D7C
  8
0
 10
6081.7394990033562863
 20
22.7023576344017499
 30
0.0
 40
1.1652089589377159
 50
274.9821512192689852
 51
287.7440392121459922
  0
ARC
  5
24D7D
  8
0
 10
6081.8108403956612165
 20
22.4258151340982614
 30
0.0
 40
0.8802314447524224
 50
288.8072452401424925
 51
333.3738765244041815
  0
ARC
  5
24D7E
  8
0
 10
6082.5687256345408969
 20
22.0428296166712308
 30
0.0
 40
0.031196590251664
 50
338.3591181271139021
 51
23.8341012359683191
  0
ARC
  5
24D7F
  8
0
 10
6059.6602833033975912
 20
10.0795165467966701
 30
0.0
 40
25.8752318554440599
 50
27.5700876992393411
 51
30.1119646712882592
  0
ARC
  5
24D80
  8
0
 10
6081.9009319995220721
 20
31.1679516479541689
 30
0.0
 40
9.1583550512824061
 50
274.3728299205153007
 51
279.5020057447798081
  0
ARC
  5
24D81
  8
0
 10
6083.3550338395089057
 20
22.1209479133321913
 30
0.0
 40
0.0595436641904448
 50
1.5487692806900439
 51
28.9535101384240185
  0
ARC
  5
24D82
  8
0
 10
6082.0843815632888436
 20
21.9530019447054485
 30
0.0
 40
0.5869153423092927
 50
334.1178530169718215
 51
8.6714651344000337
  0
ARC
  5
24D83
  8
0
 10
6081.916173166227054
 20
22.3609526460512704
 30
0.0
 40
0.962218916984546
 50
288.69721126355671
 51
316.3517241371200157
  0
ARC
  5
24D84
  8
0
 10
6081.5748800079727516
 20
23.2712882752249186
 30
0.0
 40
1.9341755134040599
 50
253.4093956701103991
 51
289.6291353044543939
  0
ARC
  5
24D85
  8
0
 10
6082.0263270534587718
 20
23.0514083340886202
 30
0.0
 40
0.0196785903390791
 50
28.8299299628444992
 51
90.0110962223626672
  0
LINE
  5
24D86
  8
0
 10
6083.4035929165065681
 20
21.0335710158054816
 30
0.0
 11
6083.4428818741926079
 21
21.0410898296586595
 31
0.0
  0
ARC
  5
24D87
  8
0
 10
6070.081471344649799
 20
39.1038749573128968
 30
0.0
 40
20.0577228586152785
 50
274.8059020449750847
 51
284.1502325064678871
  0
LINE
  5
24D88
  8
0
 10
6063.1705099634446015
 20
18.7255942373643904
 30
0.0
 11
6063.1741673882388568
 21
18.8234377734585401
 31
0.0
  0
ARC
  5
24D89
  8
0
 10
6063.2092828843951793
 20
18.7241448923379608
 30
0.0
 40
0.0388
 50
177.8592609012274011
 51
270.0
  0
LINE
  5
24D8A
  8
0
 10
6073.3821932852943064
 20
18.3886807916586612
 30
0.0
 11
6073.5518381289930403
 21
18.3886807916586612
 31
0.0
  0
LINE
  5
24D8B
  8
0
 10
6073.5518381289930403
 20
18.3886807916586612
 30
0.0
 11
6073.5518381289930403
 21
18.6400952840261702
 31
0.0
  0
LINE
  5
24D8C
  8
0
 10
6073.3821932852943064
 20
18.3886807916586612
 30
0.0
 11
6073.3821932852943064
 21
18.6813233864586614
 31
0.0
  0
LINE
  5
24D8D
  8
0
 10
6073.3821932852943064
 20
18.6813233864586614
 30
0.0
 11
6073.4189332110936448
 21
18.6813233864586614
 31
0.0
  0
LINE
  5
24D8E
  8
0
 10
6073.4189332110936448
 20
18.6813233864586614
 30
0.0
 11
6073.3969055957932142
 21
18.5827438105586715
 31
0.0
  0
LINE
  5
24D8F
  8
0
 10
6073.3969055957932142
 20
18.5827438105586715
 30
0.0
 11
6073.5362443905933105
 21
18.5683697635586604
 31
0.0
  0
LINE
  5
24D90
  8
0
 10
6073.5362443905933105
 20
18.5683697635586604
 30
0.0
 11
6073.5428759896731208
 21
18.6372607889043387
 31
0.0
  0
LINE
  5
24D91
  8
0
 10
6073.4011586070428166
 20
18.6017771938623611
 30
0.0
 11
6073.4237613257746489
 21
18.5995878715677989
 31
0.0
  0
LINE
  5
24D92
  8
0
 10
6073.4237613257746489
 20
18.5995878715677989
 30
0.0
 11
6076.0500022804071705
 21
19.4302006202620099
 31
0.0
  0
LINE
  5
24D93
  8
0
 10
6073.4480903733929154
 20
18.8483958451586595
 30
0.0
 11
6074.8937307959840837
 21
19.3284045731294007
 31
0.0
  0
ARC
  5
24D94
  8
0
 10
5345.0520550439541694
 20
2217.1996310321060264
 30
0.0
 40
2315.8814304192728741
 50
288.3696515337032906
 51
288.4299626836448738
  0
ARC
  5
24D95
  8
0
 10
6078.3548228277923045
 20
19.0670668122366287
 30
0.0
 40
1.671227389446404
 50
130.5495056256557973
 51
145.0770940238481046
  0
LINE
  5
24D96
  8
0
 10
6077.2837599831909756
 20
20.3419231223660404
 30
0.0
 11
6077.2397893902689248
 21
20.1088351719026512
 31
0.0
  0
ARC
  5
24D97
  8
0
 10
5850.7745927626574485
 20
700.3645230006728752
 30
0.0
 40
716.961844247639533
 50
288.4104747072216242
 51
288.5623006871654184
  0
ARC
  5
24D98
  8
0
 10
6074.6015053143009936
 20
33.8258607821060835
 30
0.0
 40
13.8457265156405196
 50
288.5623006871654184
 51
290.4400624846800838
  0
ARC
  5
24D99
  8
0
 10
6079.1689458978398761
 20
21.5706185440408014
 30
0.0
 40
0.7670233766508483
 50
290.4400624846800838
 51
315.4936166446664743
  0
ARC
  5
24D9A
  8
0
 10
6079.3501959976647413
 20
21.3924648690520485
 30
0.0
 40
0.5128770986950366
 50
315.4936166446663037
 51
334.3211587319718774
  0
LINE
  5
24D9B
  8
0
 10
6073.3945567359933193
 20
18.6813233864586614
 30
0.0
 11
6073.4065372375944207
 21
18.7925257065586599
 31
0.0
  0
ARC
  5
24D9C
  8
0
 10
6073.4671587143848228
 20
18.7908263200786614
 30
0.0
 40
0.0606452913491339
 50
108.3260493922665972
 51
178.3942624748679009
  0
ARC
  5
24D9D
  8
0
 10
6086.8097031783609054
 20
-12.1701906956728401
 30
0.0
 40
33.3780113616737566
 50
95.8570308612094948
 51
108.8035185947366017
  0
ARC
  5
24D9E
  8
0
 10
6080.828343778342969
 20
20.3821105221516383
 30
0.0
 40
0.2172793459876669
 50
0.8443943445530424
 51
69.3698963372519444
  0
ARC
  5
24D9F
  8
0
 10
6080.7341413823323819
 20
20.3807221174488085
 30
0.0
 40
0.3114919729649339
 50
324.4414624859726928
 51
0.8443943445530424
  0
ARC
  5
24DA0
  8
0
 10
6080.8256332777145872
 20
20.3153204463271813
 30
0.0
 40
0.1990279987045815
 50
258.7607737568749258
 51
324.4414624859726928
  0
ARC
  5
24DA1
  8
0
 10
6080.8239738135971493
 20
20.3069695504469117
 30
0.0
 40
0.1905138174072486
 50
194.8351053998796942
 51
258.7607737568749258
  0
ARC
  5
24DA2
  8
0
 10
6080.9494903929462453
 20
20.3402147476695809
 30
0.0
 40
0.3203585509544122
 50
161.7777763881217084
 51
194.8351053998792963
  0
ARC
  5
24DA3
  8
0
 10
6080.8513942596737252
 20
20.37250928272503
 30
0.0
 40
0.2170832472402728
 50
117.6224076771767955
 51
161.7777763881209978
  0
ARC
  5
24DA4
  8
0
 10
6080.8561174237802334
 20
20.3634833024096515
 30
0.0
 40
0.2272703272840087
 50
77.6056373942138009
 51
117.6224076771770939
  0
LINE
  5
24DA5
  8
0
 10
6078.5669936546619283
 20
18.4285557950517287
 30
0.0
 11
6078.5760920216480372
 21
18.9498021246482686
 31
0.0
  0
ARC
  5
24DA6
  8
0
 10
6078.5866906542705692
 20
18.4282119834586808
 30
0.0
 40
0.0197
 50
179.0000023671161955
 51
270.0
  0
ARC
  5
24DA7
  8
0
 10
6078.5957890212566781
 20
18.9494583130552314
 30
0.0
 40
0.0197
 50
90.0403913560748066
 51
179.0000023671161955
  0
LINE
  5
24DA8
  8
0
 10
6078.5957751335026842
 20
18.9691583081600612
 30
0.0
 11
6079.130806602530356
 21
18.9695354851586302
 31
0.0
  0
LINE
  5
24DA9
  8
0
 10
6078.5497855377925589
 20
18.4085120622586587
 30
0.0
 11
6078.5548361263927291
 21
18.9872521134586592
 31
0.0
  0
LINE
  5
24DAA
  8
0
 10
6078.5548361263927291
 20
18.9872521134586592
 30
0.0
 11
6079.1690102226148156
 21
18.9871525052059518
 31
0.0
  0
LINE
  5
24DAB
  8
0
 10
6078.5680181971138154
 20
18.4872519318050514
 30
0.0
 11
6078.5504726902190669
 21
18.4872519318050514
 31
0.0
  0
LINE
  5
24DAC
  8
0
 10
6079.1568526943456163
 20
18.4284561867990213
 30
0.0
 11
6079.1477543273613264
 21
18.9497025163955684
 31
0.0
  0
ARC
  5
24DAD
  8
0
 10
6079.1371556947378849
 20
18.4281123752059699
 30
0.0
 40
0.0197
 50
275.7641508775218995
 51
0.9999976328837856
  0
ARC
  5
24DAE
  8
0
 10
6079.1264815280246694
 20
18.9486820168264209
 30
0.0
 40
0.0212972629921654
 50
2.7464898394779871
 51
78.2828005254111616
  0
LINE
  5
24DAF
  8
0
 10
6079.1740608112149857
 20
18.4084124540059513
 30
0.0
 11
6079.1690102226148156
 21
18.9871525052059518
 31
0.0
  0
LINE
  5
24DB0
  8
0
 10
6079.1558281518928197
 20
18.4871523235523405
 30
0.0
 11
6079.1733736587902968
 21
18.4871523235523405
 31
0.0
  0
LINE
  5
24DB1
  8
0
 10
6082.3533865501931359
 20
18.8218977827586684
 30
0.0
 11
6082.3533865501931359
 21
18.4872521134586592
 31
0.0
  0
LINE
  5
24DB2
  8
0
 10
6082.3533865501931359
 20
18.4872521134586592
 30
0.0
 11
6082.274646420193676
 21
18.4085119834586806
 31
0.0
  0
LINE
  5
24DB3
  8
0
 10
6082.2901831537928956
 20
18.4629604364586584
 30
0.0
 11
6082.3240387989935698
 21
18.8218977827586684
 31
0.0
  0
ARC
  5
24DB4
  8
0
 10
6082.2192855267303457
 20
18.4818731967365295
 30
0.0
 40
0.0733768766335977
 50
268.8069066701070824
 51
268.8161187262443832
  0
ARC
  5
24DB5
  8
0
 10
6082.2192855267303457
 20
18.4818731967365295
 30
0.0
 40
0.0733768766335977
 50
271.1838812737555031
 51
345.0635079103263934
  0
ARC
  5
24DB6
  8
0
 10
6063.2698512316046617
 20
19.7465672223562514
 30
0.0
 40
0.0238125672036949
 50
94.668646978998467
 51
136.4638284450770982
  0
ARC
  5
24DB7
  8
0
 10
6063.8198741507940213
 20
14.3732527331287994
 30
0.0
 40
4.3241616431594574
 50
75.8122416370471655
 51
85.7181436957604035
  0
LINE
  5
24DB8
  8
0
 10
6065.3831028337936004
 20
18.4484716572586613
 30
0.0
 11
6065.3838003294304144
 21
18.4085119834586806
 31
0.0
  0
LINE
  5
24DB9
  8
0
 10
6065.3831028337936004
 20
18.4484716572586613
 30
0.0
 11
6066.6896084472937218
 21
18.4484716471586587
 31
0.0
  0
LINE
  5
24DBA
  8
0
 10
6066.6896084472937218
 20
18.4484716471586587
 30
0.0
 11
6066.6889109485191511
 21
18.4085119834586806
 31
0.0
  0
LINE
  5
24DBB
  8
0
 10
6065.3876802032928026
 20
18.569831683758661
 30
0.0
 11
6065.3919180681396028
 21
18.4484716571905203
 31
0.0
  0
ARC
  5
24DBC
  8
0
 10
6065.2663116768708278
 20
18.5642555106497014
 30
0.0
 40
0.1214964433348962
 50
2.6305581811860241
 51
85.3085480783691565
  0
ARC
  5
24DBD
  8
0
 10
6066.8258629375195596
 20
18.506202340564279
 30
0.0
 40
0.1422728268225788
 50
156.2130627897998068
 51
186.4875819686841965
  0
ARC
  5
24DBE
  8
0
 10
6066.6895832109366893
 20
18.6926781853379396
 30
0.0
 40
0.129235693666107
 50
272.7021779595253861
 51
310.5778874082864149
  0
ARC
  5
24DBF
  8
0
 10
6066.7590722281383933
 20
18.611540604709699
 30
0.0
 40
0.0224085880150484
 50
310.5778874082880066
 51
75.4222041146871618
  0
ARC
  5
24DC0
  8
0
 10
6066.4788944670526689
 20
17.8756757906149488
 30
0.0
 40
0.809677026303497
 50
69.3289387349500004
 51
89.7465045221182436
  0
LINE
  5
24DC1
  8
0
 10
6064.8815430996928626
 20
18.5654208305586614
 30
0.0
 11
6065.3887341978988843
 21
18.5396483678692015
 31
0.0
  0
ARC
  5
24DC2
  8
0
 10
-385.5381763570539988
 20
243.9975060826974129
 30
0.0
 40
6461.1012610802335985
 50
358.0005404733345244
 51
358.003142676657319
  0
ARC
  5
24DC3
  8
0
 10
6071.7599431099415597
 20
18.8583013035580791
 30
0.0
 40
0.120501496917
 50
108.3821495542222948
 51
178.0031426766547895
  0
LINE
  5
24DC4
  8
0
 10
6070.5392456473928178
 20
18.6849896857586586
 30
0.0
 11
6070.5456223138926362
 21
18.5636497231586617
 31
0.0
  0
ARC
  5
24DC5
  8
0
 10
6070.723254777443799
 20
18.5702523948422709
 30
0.0
 40
0.1778802667961299
 50
182.1303140755667869
 51
245.4040623629508104
  0
ARC
  5
24DC6
  8
0
 10
6070.4645560392109473
 20
18.6885404075104695
 30
0.0
 40
0.0747739606776382
 50
357.2782248790279027
 51
93.620532178104213
  0
ARC
  5
24DC7
  8
0
 10
6070.5807287974221254
 20
18.6890543842427483
 30
0.0
 40
0.1418023494636946
 50
96.9935119233311838
 51
148.4908899377699925
  0
ARC
  5
24DC8
  8
0
 10
6071.4368437858465768
 20
18.5746028147747317
 30
0.0
 40
0.1925142426063837
 50
300.3737234524066935
 51
358.4021225963683719
  0
ARC
  5
24DC9
  8
0
 10
6068.4518140767922887
 20
71.1063073221957893
 30
0.0
 40
52.6449505119867922
 50
268.0760863768284139
 51
272.2932644475723123
  0
ARC
  5
24DCA
  8
0
 10
6070.3129224766980769
 20
36.1726094577895765
 30
0.0
 40
17.6518377516731917
 50
274.2767999143273983
 51
280.093829129004007
  0
LINE
  5
24DCB
  8
0
 10
6066.6845011735940716
 20
18.4901272370755905
 30
0.0
 11
6066.68450117327302
 21
18.4484716471981507
 31
0.0
  0
ENDSEC
  0
EOF
