  0
SECTION
  2
HEADER
  9
$ACADVER
  1
AC1009
  9
$INSBASE
 10
6140.2557578851210565
 20
43.1340742290689079
 30
0.0
  9
$EXTMIN
 10
6132.1518103306007106
 20
43.1257235195780027
 30
-0.0000000349181948
  9
$EXTMAX
 10
6148.2683376631430292
 20
74.1412661488853928
 30
0.0000000814935746
  9
$LIMMIN
 10
0.0
 20
0.0
  9
$LIMMAX
 10
11.6929133858000007
 20
8.2677165353999982
  9
$ORTHOMODE
 70
     1
  9
$REGENMODE
 70
     1
  9
$FILLMODE
 70
     1
  9
$QTEXTMODE
 70
     0
  9
$MIRRTEXT
 70
     0
  9
$DRAGMODE
 70
     2
  9
$LTSCALE
 40
0.6431102362
  9
$OSMODE
 70
  2047
  9
$ATTMODE
 70
     1
  9
$TEXTSIZE
 40
0.2
  9
$TRACEWID
 40
0.05
  9
$TEXTSTYLE
  7
STANDARD
  9
$CLAYER
  8
0
  9
$CELTYPE
  6
BYLAYER
  9
$CECOLOR
 62
   256
  9
$DIMSCALE
 40
1.0
  9
$DIMASZ
 40
0.1875
  9
$DIMEXO
 40
0.0625
  9
$DIMDLI
 40
0.4443307087
  9
$DIMRND
 40
0.0
  9
$DIMDLE
 40
0.0
  9
$DIMEXE
 40
0.125
  9
$DIMTP
 40
0.01
  9
$DIMTM
 40
0.01
  9
$DIMTXT
 40
2.0
  9
$DIMCEN
 40
0.1052362205
  9
$DIMTSZ
 40
0.0
  9
$DIMTOL
 70
     1
  9
$DIMLIM
 70
     0
  9
$DIMTIH
 70
     1
  9
$DIMTOH
 70
     1
  9
$DIMSE1
 70
     0
  9
$DIMSE2
 70
     0
  9
$DIMTAD
 70
     0
  9
$DIMZIN
 70
     0
  9
$DIMBLK
  1

  9
$DIMASO
 70
     1
  9
$DIMSHO
 70
     1
  9
$DIMPOST
  1
\X
  9
$DIMAPOST
  1

  9
$DIMALT
 70
     1
  9
$DIMALTD
 70
     2
  9
$DIMALTF
 40
25.3999999999999986
  9
$DIMLFAC
 40
1.0
  9
$DIMTOFL
 70
     0
  9
$DIMTVP
 40
0.0
  9
$DIMTIX
 70
     0
  9
$DIMSOXD
 70
     0
  9
$DIMSAH
 70
     0
  9
$DIMBLK1
  1

  9
$DIMBLK2
  1

  9
$DIMSTYLE
  2
STANDARD
  9
$DIMCLRD
 70
     0
  9
$DIMCLRE
 70
     0
  9
$DIMCLRT
 70
     0
  9
$DIMTFAC
 40
1.0
  9
$DIMGAP
 40
0.09
  9
$LUNITS
 70
     2
  9
$LUPREC
 70
     4
  9
$SKETCHINC
 40
0.1
  9
$FILLETRAD
 40
0.0
  9
$AUNITS
 70
     0
  9
$AUPREC
 70
     0
  9
$MENU
  1
.
  9
$ELEVATION
 40
0.0
  9
$PELEVATION
 40
0.0
  9
$THICKNESS
 40
0.0
  9
$LIMCHECK
 70
     0
  9
$BLIPMODE
 70
     0
  9
$CHAMFERA
 40
0.0
  9
$CHAMFERB
 40
0.0
  9
$SKPOLY
 70
     0
  9
$TDCREATE
 40
2458060.468368056230247
  9
$TDUPDATE
 40
2460700.5030439808033407
  9
$TDINDWG
 40
0.6046019676
  9
$TDUSRTIMER
 40
0.6046019676
  9
$USRTIMER
 70
     1
  9
$ANGBASE
 50
0.0
  9
$ANGDIR
 70
     0
  9
$PDMODE
 70
     0
  9
$PDSIZE
 40
0.3125
  9
$PLINEWID
 40
0.0
  9
$COORDS
 70
     1
  9
$SPLFRAME
 70
     0
  9
$SPLINETYPE
 70
     6
  9
$SPLINESEGS
 70
     8
  9
$ATTDIA
 70
     1
  9
$ATTREQ
 70
     1
  9
$HANDLING
 70
     1
  9
$HANDSEED
  5
26315
  9
$SURFTAB1
 70
     6
  9
$SURFTAB2
 70
     6
  9
$SURFTYPE
 70
     6
  9
$SURFU
 70
     6
  9
$SURFV
 70
     6
  9
$UCSNAME
  2

  9
$UCSORG
 10
0.0
 20
0.0
 30
0.0
  9
$UCSXDIR
 10
1.0
 20
0.0
 30
0.0
  9
$UCSYDIR
 10
0.0
 20
1.0
 30
0.0
  9
$PUCSNAME
  2

  9
$PUCSORG
 10
0.0
 20
0.0
 30
0.0
  9
$PUCSXDIR
 10
1.0
 20
0.0
 30
0.0
  9
$PUCSYDIR
 10
0.0
 20
1.0
 30
0.0
  9
$USERI1
 70
     0
  9
$USERI2
 70
     0
  9
$USERI3
 70
     0
  9
$USERI4
 70
     0
  9
$USERI5
 70
     0
  9
$USERR1
 40
0.0
  9
$USERR2
 40
0.0
  9
$USERR3
 40
0.0
  9
$USERR4
 40
0.0
  9
$USERR5
 40
0.0
  9
$WORLDVIEW
 70
     1
  9
$SHADEDGE
 70
     3
  9
$SHADEDIF
 70
    70
  9
$TILEMODE
 70
     1
  9
$MAXACTVP
 70
    64
  9
$PLIMCHECK
 70
     0
  9
$PEXTMIN
 10
1.0000000000000000E+20
 20
1.0000000000000000E+20
 30
1.0000000000000000E+20
  9
$PEXTMAX
 10
-1.0000000000000000E+20
 20
-1.0000000000000000E+20
 30
-1.0000000000000000E+20
  9
$PLIMMIN
 10
0.0
 20
0.0
  9
$PLIMMAX
 10
12.0
 20
9.0
  9
$UNITMODE
 70
     0
  9
$VISRETAIN
 70
     1
  9
$PLINEGEN
 70
     0
  9
$PSLTSCALE
 70
     1
  0
ENDSEC
  0
SECTION
  2
TABLES
  0
TABLE
  2
VPORT
 70
     1
  0
VPORT
  2
*ACTIVE
 70
     0
 10
0.0
 20
0.0
 11
1.0
 21
1.0
 12
2347.8521638406218699
 22
-61.547161598873771
 13
0.0
 23
0.0
 14
1.0
 24
1.0
 15
0.0
 25
0.0
 16
0.0
 26
0.0
 36
5.1040778033513332
 17
3792.35791015625
 27
120.1806564331053977
 37
0.0
 40
31.272893369835149
 41
2.6101928374655641
 42
50.0
 43
0.0
 44
0.0
 50
0.0
 51
0.0
 71
     0
 72
   100
 73
     1
 74
     1
 75
     0
 76
     0
 77
     0
 78
     0
  0
ENDTAB
  0
TABLE
  2
LTYPE
 70
     2
  0
LTYPE
  2
CONTINUOUS
 70
     0
  3
Solid line
 72
    65
 73
     0
 40
0.0
  0
LTYPE
  2
PHANTOM2
 70
     0
  3
___ _ _ ___ _ _ ___ _ _ ___ _ _
 72
    65
 73
     6
 40
1.25
 49
0.625
 49
-0.125
 49
0.125
 49
-0.125
 49
0.125
 49
-0.125
  0
ENDTAB
  0
TABLE
  2
LAYER
 70
     2
  0
LAYER
  2
0
 70
     0
 62
   255
  6
CONTINUOUS
  0
LAYER
  2
DEFPOINTS
 70
     0
 62
     7
  6
CONTINUOUS
  0
ENDTAB
  0
TABLE
  2
STYLE
 70
     1
  0
STYLE
  2
STANDARD
 70
     0
 40
0.0
 41
0.8
 50
0.0
 71
     0
 42
0.2
  3
txt
  4

  0
ENDTAB
  0
TABLE
  2
VIEW
 70
     0
  0
ENDTAB
  0
TABLE
  2
UCS
 70
     0
  0
ENDTAB
  0
TABLE
  2
APPID
 70
     9
  0
APPID
  2
ACAD
 70
     0
  0
APPID
  2
ACAD_MLEADERVER
 70
     0
  0
APPID
  2
ACAD_EXEMPT_FROM_CAD_STANDARDS
 70
     0
  0
APPID
  2
ACAD_NAV_VCDISPLAY
 70
     0
  0
APPID
  2
ACAECLAYERSTANDARD
 70
     0
  0
APPID
  2
ACCMTRANSPARENCY
 70
     0
  0
APPID
  2
ACAD_DSTYLE_DIMJAG
 70
     0
  0
APPID
  2
ACAD_DSTYLE_DIMTALN
 70
     0
  0
APPID
  2
ACDBATTR
 70
     0
  0
ENDTAB
  0
TABLE
  2
DIMSTYLE
 70
     1
  0
DIMSTYLE
  2
STANDARD
 70
     0
  3

  4

  5

  6

  7

 40
1.0
 41
0.1875
 42
0.0625
 43
0.38
 44
0.125
 45
0.0
 46
0.0
 47
0.01
 48
0.01
140
0.15625
141
0.09
142
0.0
143
25.3999999999999986
144
1.0
145
0.0
146
1.0
147
0.09
 71
     1
 72
     0
 73
     1
 74
     1
 75
     0
 76
     0
 77
     0
 78
     4
170
     0
171
     2
172
     0
173
     0
174
     0
175
     0
176
     0
177
     0
178
     0
  0
ENDTAB
  0
ENDSEC
  0
SECTION
  2
BLOCKS
  0
BLOCK
  8
0
  2
$MODEL_SPACE
 70
     0
 10
0.0
 20
0.0
 30
0.0
  3
$MODEL_SPACE
  1

  0
ENDBLK
  5
21
  8
0
  0
BLOCK
 67
     1
  8
0
  2
$PAPER_SPACE
 70
     0
 10
0.0
 20
0.0
 30
0.0
  3
$PAPER_SPACE
  1

  0
ENDBLK
  5
1D
 67
     1
  8
0
  0
ENDSEC
  0
SECTION
  2
ENTITIES
  0
ATTDEF
  5
3930
  8
DEFPOINTS
 10
6140.2557924151506086
 20
43.1374402515960682
 30
0.0
 40
0.001
  1
K-23191PH-NS
  3

  2
MODELNUMBER
 70
     0
1001
ACDBATTR
1070
     0
1070
     1
  0
ATTDEF
  5
3931
  8
DEFPOINTS
 10
6140.2557924151506086
 20
43.1357735849294102
 30
0.0
 40
0.001
  1
FAMILY CARE
  3

  2
TRADENAME
 70
     0
1001
ACDBATTR
1070
     0
1070
     1
  0
ATTDEF
  5
3932
  8
DEFPOINTS
 10
6140.2557924151506086
 20
43.1341069182627379
 30
0.0
 40
0.001
  1
TOILET
  3

  2
PRODUCT
 70
     0
1001
ACDBATTR
1070
     0
1070
     1
  0
LINE
  5
260C0
  8
0
 10
6147.6564770449849675
 20
74.0381024786165227
 30
0.0
 11
6132.85503788650567
 21
74.0381024786165227
 31
0.0
  0
LINE
  5
260C1
  8
0
 10
6148.0215627956777098
 20
72.8574444988165197
 30
0.0
 11
6132.4899521358129277
 21
72.8574444988165197
 31
0.0
  0
LINE
  5
260C2
  8
0
 10
6147.4520544182114463
 20
58.4885920670164978
 30
0.0
 11
6133.0594605132801007
 21
58.4885920670164978
 31
0.0
  0
LINE
  5
260C3
  8
0
 10
6132.5529256128502311
 20
73.7827821625088092
 30
0.0
 11
6132.4109521358132042
 21
72.936444498816499
 31
0.0
  0
ARC
  5
260C4
  8
0
 10
6132.85503788650567
 20
73.7317024786165263
 30
0.0
 40
0.3064
 50
90.0
 51
170.4034630572419076
  0
ARC
  5
260C5
  8
0
 10
6132.4899521358129277
 20
72.9364444988164706
 30
0.0
 40
0.0789999999999993
 50
179.9999999999967031
 51
270.0
  0
LINE
  5
260C6
  8
0
 10
6132.4342177191201699
 20
72.655298055860797
 30
0.0
 11
6132.7220973070770924
 21
61.6393548357218819
 31
0.0
  0
ARC
  5
260C7
  8
0
 10
6132.6311504846144089
 20
72.660444498816517
 30
0.0
 40
0.197
 50
90.0
 51
181.4969695988158094
  0
LINE
  5
260C8
  8
0
 10
6132.8212477570041301
 20
58.2209963238164576
 30
0.0
 11
6147.6902671744855979
 21
58.2209963238164576
 31
0.0
  0
LINE
  5
260C9
  8
0
 10
6132.8212477570041301
 20
58.2209963238164576
 30
0.0
 11
6132.8232187237399557
 21
58.2631404549318432
 31
0.0
  0
ARC
  5
260CA
  8
0
 10
6133.0594605132801007
 20
58.2520920670164628
 30
0.0
 40
0.2365
 50
113.6308325452207981
 51
177.3223827582287981
  0
LINE
  5
260CB
  8
0
 10
6132.8491562367516963
 20
57.9623237046811894
 30
0.0
 11
6132.8234193342523213
 21
58.2201474864096014
 31
0.0
  0
LINE
  5
260CC
  8
0
 10
6132.8491562367516963
 20
57.9623237046811894
 30
0.0
 11
6132.9080782760902366
 21
57.2328497590514829
 31
0.0
  0
LINE
  5
260CD
  8
0
 10
6132.8212477570041301
 20
58.2209963238164576
 30
0.0
 11
6132.8234193342523213
 21
58.2201474864096014
 31
0.0
  0
ARC
  5
260CE
  8
0
 10
6184.3747180656164346
 20
61.5177998155487629
 30
0.0
 40
51.6447074559589083
 50
184.7592894337423104
 51
186.9657042828117994
  0
ARC
  5
260CF
  8
0
 10
6175.5545967240077516
 20
60.5731352534518876
 30
0.0
 40
42.775327305876111
 50
187.1424731139333062
 51
188.7932947227679961
  0
ARC
  5
260D0
  8
0
 10
6145.2171453414857751
 20
55.9979348121554494
 30
0.0
 40
12.0956009578299692
 50
189.3440493733141921
 51
200.7368801954388005
  0
ARC
  5
260D1
  8
0
 10
5959.9216490725093536
 20
-16.0749155849689487
 30
0.0
 40
186.7237275507357879
 50
21.0564098162307616
 51
21.2876348459943401
  0
ARC
  5
260D2
  8
0
 10
6120.1609543636814124
 20
45.0398160075538883
 30
0.0
 40
15.2334042627432904
 50
14.9145201610898805
 51
19.9586540228264617
  0
ARC
  5
260D3
  8
0
 10
6119.6271922551723037
 20
44.8747656089775617
 30
0.0
 40
15.7916801683031593
 50
21.0751791830379993
 51
22.8716086244839296
  0
ARC
  5
260D4
  8
0
 10
6122.8771801521452289
 20
45.8517061470325373
 30
0.0
 40
12.4000176851885708
 50
3.3173653991945029
 51
14.5197202723775707
  0
ARC
  5
260D5
  8
0
 10
6061.1386202279245481
 20
42.5406618751246484
 30
0.0
 40
74.2456273218844558
 50
0.4579446173612116
 51
1.109681326776909
  0
LINE
  5
260D6
  8
0
 10
6147.9585893186413159
 20
73.7827821625088092
 30
0.0
 11
6148.1005627956774333
 21
72.936444498816499
 31
0.0
  0
ARC
  5
260D7
  8
0
 10
6147.6564770449849675
 20
73.7317024786165263
 30
0.0
 40
0.3064
 50
9.5965369427580463
 51
90.0
  0
ARC
  5
260D8
  8
0
 10
6148.0215627956777098
 20
72.9364444988164706
 30
0.0
 40
0.0790000000000006
 50
270.0
 51
0.0
  0
ARC
  5
260D9
  8
0
 10
6147.8771830313789906
 20
72.6529035779070256
 30
0.0
 40
0.2045656611728071
 50
0.5638616258576671
 51
89.1088972182918155
  0
LINE
  5
260DA
  8
0
 10
6147.6902671744855979
 20
58.2209963238164576
 30
0.0
 11
6147.6882962077506818
 21
58.2631404549318432
 31
0.0
  0
ARC
  5
260DB
  8
0
 10
6147.4520544182114463
 20
58.2520920670164628
 30
0.0
 40
0.2365
 50
2.6776172417712099
 51
66.3691674547791592
  0
LINE
  5
260DC
  8
0
 10
6147.6623586947380318
 20
57.9623237046811894
 30
0.0
 11
6147.6880955972392258
 21
58.2201474864096014
 31
0.0
  0
LINE
  5
260DD
  8
0
 10
6147.6623586947380318
 20
57.9623237046811894
 30
0.0
 11
6147.6034366554004009
 21
57.2328497590514829
 31
0.0
  0
LINE
  5
260DE
  8
0
 10
6147.6902671558445945
 20
58.220996722416487
 30
0.0
 11
6147.6880955972392258
 21
58.2201474864096014
 31
0.0
  0
ARC
  5
260DF
  8
0
 10
6096.1367968658742029
 20
61.5177998155487629
 30
0.0
 40
51.6447074559589083
 50
353.0342957171881721
 51
355.2407105662576896
  0
ARC
  5
260E0
  8
0
 10
6104.9569182074828859
 20
60.5731352534518876
 30
0.0
 40
42.775327305876111
 50
351.2067052772318902
 51
352.8575268860666938
  0
ARC
  5
260E1
  8
0
 10
6135.2943695900048624
 20
55.9979348121554494
 30
0.0
 40
12.0956009578299692
 50
339.2631198045611995
 51
350.6559506266856943
  0
ARC
  5
260E2
  8
0
 10
6320.5898658589821935
 20
-16.0749155849689487
 30
0.0
 40
186.7237275507357879
 50
158.7123651540057097
 51
158.9435901837692029
  0
ARC
  5
260E3
  8
0
 10
6160.8843226763192433
 20
44.8747656089775617
 30
0.0
 40
15.7916801683031593
 50
157.1283913755160881
 51
165.0052541590625026
  0
ARC
  5
260E4
  8
0
 10
6157.0283789217410231
 20
45.9811274084341406
 30
0.0
 40
11.7809976908751892
 50
165.3507505219290863
 51
175.5644466157808949
  0
ARC
  5
260E5
  8
0
 10
6184.0457281364688242
 20
43.7058861302346671
 30
0.0
 40
38.8938024097440476
 50
175.3008033871919906
 51
178.0220080341063067
  0
ARC
  5
260E6
  8
0
 10
6099.4168264440204439
 20
43.3873405405888874
 30
0.0
 40
35.9805640935233484
 50
0.9236529370860433
 51
5.0735343688418206
  0
LINE
  5
260E7
  8
0
 10
6139.121463827583284
 20
74.1065059479717831
 30
0.0
 11
6139.1187276889540954
 21
74.0381024786165227
 31
0.0
  0
LINE
  5
260E8
  8
0
 10
6139.1450449702124388
 20
74.1291627023165205
 30
0.0
 11
6141.3752857764711734
 21
74.1291627023165205
 31
0.0
  0
ARC
  5
260E9
  8
0
 10
6139.1450449702124388
 20
74.1055627023165044
 30
0.0
 40
0.0236
 50
90.0
 51
177.7093900781976004
  0
LINE
  5
260EA
  8
0
 10
6139.4871612861406902
 20
74.1409737270165152
 30
0.0
 11
6140.0983798073657454
 21
74.1409737270165152
 31
0.0
  0
LINE
  5
260EB
  8
0
 10
6140.1701167444889506
 20
74.1409737270165152
 30
0.0
 11
6141.0331694798405806
 21
74.1409737270165152
 31
0.0
  0
ARC
  5
260EC
  8
0
 10
6139.4871612668412126
 20
74.1173516798164798
 30
0.0
 40
0.023622047200032
 50
89.9999531875242695
 51
150.0000030789655909
  0
LINE
  5
260ED
  8
0
 10
6141.3988669190994187
 20
74.1065059479717831
 30
0.0
 11
6141.4016030577286074
 21
74.0381024786165227
 31
0.0
  0
ARC
  5
260EE
  8
0
 10
6141.3752857764711734
 20
74.1055627023165044
 30
0.0
 40
0.0236
 50
2.290609921802413
 51
90.0
  0
ARC
  5
260EF
  8
0
 10
6141.0331694798405806
 20
74.1173516798164798
 30
0.0
 40
0.023622047200032
 50
29.9999969210343487
 51
90.0000468124757163
  0
ARC
  5
260F0
  8
0
 10
6140.0982567580913383
 20
74.1175649645780226
 30
0.0
 40
0.0234090858434497
 50
29.6986002561806401
 51
90.3011752188559029
  0
ARC
  5
260F1
  8
0
 10
6140.17013664679871
 20
74.1175104908297158
 30
0.0
 40
0.0234632446276727
 50
89.9513998031431044
 51
150.2236637624322952
  0
LINE
  5
260F2
  8
0
 10
6147.6259774772534001
 20
58.4885920615165134
 30
0.0
 11
6147.6259774764475878
 21
58.4123512939379594
 31
0.0
  0
LINE
  5
260F3
  8
0
 10
6148.0817387865363344
 20
72.6549167255664941
 30
0.0
 11
6147.7992220135811294
 21
61.6030793996701078
 31
0.0
  0
LINE
  5
260F4
  8
0
 10
6132.8857868331488135
 20
58.7999542705794269
 30
0.0
 11
6132.8855374550421402
 21
58.4123512939379594
 31
0.0
  0
ARC
  5
260F5
  8
0
 10
6103.4093274697288507
 20
38.8437074102723514
 30
0.0
 40
33.0940761408581068
 50
20.1420549077715698
 51
20.7216674333036615
  0
ARC
  5
260F6
  8
0
 10
6133.0592759830542491
 20
58.2529741776283174
 30
0.0
 40
0.2356179616479779
 50
89.9551273421350714
 51
113.6757052031547062
  0
ARC
  5
260F7
  8
0
 10
6133.0826374270163797
 20
58.7999529410236832
 30
0.0
 40
0.1968505938705076
 50
161.2566678529958892
 51
179.9996126564311965
  0
ARC
  5
260F8
  8
0
 10
6132.8235769108841851
 20
58.9621000672014475
 30
0.0
 40
0.0989319324383024
 50
171.6862574987345056
 51
264.1858819468988031
  0
LINE
  5
260F9
  8
0
 10
6132.8152781434955614
 20
58.863537005616493
 30
0.0
 11
6147.688263087946325
 21
58.8631983663164888
 31
0.0
  0
ARC
  5
260FA
  8
0
 10
6147.6882653289176233
 20
58.9616215357680034
 30
0.0
 40
0.0984231694770164
 50
269.998695446635395
 51
4.0290908051295782
  0
ARC
  5
260FB
  8
0
 10
6133.3248283132343204
 20
58.2725289909417228
 30
0.0
 40
0.4339454596425551
 50
127.457823504765301
 51
155.986753317323803
  0
ARC
  5
260FC
  8
0
 10
6133.2664238405768629
 20
58.3487593041585413
 30
0.0
 40
0.3379134697674777
 50
101.1990320037833015
 51
127.457823504765301
  0
ARC
  5
260FD
  8
0
 10
6133.254304687142394
 20
58.4099709291587033
 30
0.0
 40
0.2755136547423769
 50
88.9980831447746112
 51
101.1990320037833015
  0
ARC
  5
260FE
  8
0
 10
6133.284236387639794
 20
96.7795095954735132
 30
0.0
 40
38.0940754130899819
 50
269.9622268687780888
 51
270.0377025411034992
  0
ARC
  5
260FF
  8
0
 10
6133.1702034409217958
 20
58.6675347851565689
 30
0.0
 40
0.1968470549156995
 50
50.1286245209838128
 51
83.714058826093833
  0
ARC
  5
26100
  8
0
 10
6133.3216696768740803
 20
58.8488703912236772
 30
0.0
 40
0.0394252935750379
 50
230.1286245209838057
 51
271.4776884790750842
  0
ARC
  5
26101
  8
0
 10
6133.3227702687490819
 20
58.7896893618279321
 30
0.0
 40
0.0197690250486399
 50
90.2431804259263401
 51
179.7571030697322101
  0
LINE
  5
26102
  8
0
 10
6133.3030014213463801
 20
58.7897731694164918
 30
0.0
 11
6133.302999904049102
 21
58.7068297032310085
 31
0.0
  0
ARC
  5
26103
  8
0
 10
6133.3423755910353066
 20
58.7068126419866516
 30
0.0
 40
0.0393756906821137
 50
179.9751740907057069
 51
242.6413759778583881
  0
ARC
  5
26104
  8
0
 10
6133.9976586760385544
 20
60.5106714797864527
 30
0.0
 40
1.9653556197945119
 50
252.7636386169309901
 51
271.0969671727123114
  0
ARC
  5
26105
  8
0
 10
6133.6630755672613304
 20
59.3503631896121604
 30
0.0
 40
0.7584025262675281
 50
243.4664086240998131
 51
250.9306292045770022
  0
LINE
  5
26106
  8
0
 10
6134.7675672227924224
 20
58.7941328921092392
 30
0.0
 11
6134.7675688198405624
 21
58.7068297032310085
 31
0.0
  0
ARC
  5
26107
  8
0
 10
6134.7281931328552673
 20
58.7068126419866516
 30
0.0
 40
0.0393756906821137
 50
297.3586240221416119
 51
0.024825909294289
  0
ARC
  5
26108
  8
0
 10
6134.07291004785111
 20
60.5106714797864527
 30
0.0
 40
1.9653556197945119
 50
268.9030328272876886
 51
287.2363613830689815
  0
ARC
  5
26109
  8
0
 10
6134.407493156630153
 20
59.3503631896121604
 30
0.0
 40
0.7584025262675281
 50
289.0693707954230263
 51
296.5335913759001869
  0
ARC
  5
2610A
  8
0
 10
6133.6600540928357077
 20
50.0585641639462722
 30
0.0
 40
8.8060647293401555
 50
83.6798019204728689
 51
88.9672371724140163
  0
ARC
  5
2610B
  8
0
 10
6134.178739416181088
 20
54.5411570960811574
 30
0.0
 40
4.2936734502981944
 50
79.2430663588534827
 51
83.9742833802529844
  0
ARC
  5
2610C
  8
0
 10
6134.8030306691371152
 20
58.6675724434398802
 30
0.0
 40
0.1967990075848785
 50
31.1589526769549998
 51
83.7409729186204572
  0
ARC
  5
2610D
  8
0
 10
6135.0051758959543804
 20
58.7898603502444104
 30
0.0
 40
0.0394572918679444
 50
211.2363119489706946
 51
269.9272102301017071
  0
LINE
  5
2610E
  8
0
 10
6135.0014423734455704
 20
58.750403089416487
 30
0.0
 11
6136.3467634788448777
 21
58.7504030907165031
 31
0.0
  0
ARC
  5
2610F
  8
0
 10
6136.3464911208047852
 20
58.7909815890954732
 30
0.0
 40
0.0405794123860181
 50
270.3845566611540221
 51
295.317690286457605
  0
ARC
  5
26110
  8
0
 10
6136.3368352013030744
 20
58.7307170120408202
 30
0.0
 40
0.0196860788699437
 50
0.0030247826541312
 51
89.9776759740723264
  0
LINE
  5
26111
  8
0
 10
6136.3565212801449889
 20
58.7307180513164866
 30
0.0
 11
6136.3565212801449889
 21
58.6469407184165021
 31
0.0
  0
ARC
  5
26112
  8
0
 10
6136.317084542613884
 20
58.6469407184165021
 30
0.0
 40
0.0394367375305342
 50
299.0299040586078263
 51
359.9999999999996021
  0
ARC
  5
26113
  8
0
 10
6135.7455069064753843
 20
59.9542390919817905
 30
0.0
 40
1.4660556465271779
 50
271.3525878067546842
 51
293.7613532173962199
  0
ARC
  5
26114
  8
0
 10
6135.0014500436882372
 20
58.7307170120408202
 30
0.0
 40
0.0196860788699437
 50
90.0223240259276736
 51
179.9969752173458062
  0
LINE
  5
26115
  8
0
 10
6134.9817639648454133
 20
58.7307180513164866
 30
0.0
 11
6134.9817639648454133
 21
58.6469407184165021
 31
0.0
  0
ARC
  5
26116
  8
0
 10
6135.0212007023746992
 20
58.6469407184165021
 30
0.0
 40
0.0394367375305342
 50
180.0000000000003979
 51
240.9700959413920032
  0
ARC
  5
26117
  8
0
 10
6135.5927783385159273
 20
59.9542390919817905
 30
0.0
 40
1.4660556465271779
 50
246.2386467826038086
 51
268.6474121932453158
  0
ARC
  5
26118
  8
0
 10
6136.429522523560081
 20
58.6184053067326403
 30
0.0
 40
0.1509358782986718
 50
108.3781292125960931
 51
115.7874449060054047
  0
ARC
  5
26119
  8
0
 10
6136.4166795671435466
 20
59.5061707694660811
 30
0.0
 40
0.7453381435039789
 50
267.3280968375972861
 51
271.0702446952619766
  0
ARC
  5
2611A
  8
0
 10
6136.4260528815611906
 20
59.0044267335739505
 30
0.0
 40
0.2435065616196759
 50
271.0702446952619766
 51
280.5559035016166831
  0
ARC
  5
2611B
  8
0
 10
6136.4641733127637053
 20
58.7998614019550914
 30
0.0
 40
0.0354196995273432
 50
280.5559035016166831
 51
309.664131708880916
  0
ARC
  5
2611C
  8
0
 10
6136.4816246085192688
 20
58.7767076481810875
 30
0.0
 40
0.0065955757663209
 50
321.4282226658144168
 51
31.5009017803334395
  0
ARC
  5
2611D
  8
0
 10
6136.4545091057279933
 20
58.7558078239502279
 30
0.0
 40
0.0407992761511833
 50
36.6359525992503876
 51
67.7747031150984043
  0
ARC
  5
2611E
  8
0
 10
6136.2902672172331222
 20
58.3469314483799266
 30
0.0
 40
0.4814291748158254
 50
68.0862752434184841
 51
82.9214790792180168
  0
ARC
  5
2611F
  8
0
 10
6136.1032060244660897
 20
57.1861890383470168
 30
0.0
 40
1.656923756027179
 50
81.4483018204167308
 51
85.2631065377187838
  0
ARC
  5
26120
  8
0
 10
6135.5118859656413406
 20
48.6611552149859179
 30
0.0
 40
10.2023157561604201
 50
85.9072647437967589
 51
89.5811524397404639
  0
ARC
  5
26121
  8
0
 10
6543.8451688650129654
 20
70.288286208034279
 30
0.0
 40
411.2140367024389889
 50
181.2051724020388974
 51
181.4956137423394011
  0
ARC
  5
26122
  8
0
 10
8655.8597898734642513
 20
-139.1652396642504925
 30
0.0
 40
2530.9021759707629826
 50
175.4966307169906088
 51
175.5097793756301883
  0
LINE
  5
26123
  8
0
 10
6147.6257280983409146
 20
58.7999542705794269
 30
0.0
 11
6147.6259774764475878
 21
58.4123512939379594
 31
0.0
  0
ARC
  5
26124
  8
0
 10
6147.4522389484382074
 20
58.2529741776283174
 30
0.0
 40
0.2356179616479779
 50
66.324294796845308
 51
90.0448726578649143
  0
ARC
  5
26125
  8
0
 10
6147.4288775044742579
 20
58.7999529410236832
 30
0.0
 40
0.1968505938705076
 50
0.0003873435687392
 51
18.7433321470041001
  0
ARC
  5
26126
  8
0
 10
6147.1866866182572267
 20
58.2725289909417228
 30
0.0
 40
0.4339454596425551
 50
24.0132466826762005
 51
52.5421764952346777
  0
ARC
  5
26127
  8
0
 10
6147.2450910909137747
 20
58.3487593041585413
 30
0.0
 40
0.3379134697674777
 50
52.5421764952346777
 51
78.8009679962166985
  0
ARC
  5
26128
  8
0
 10
6147.2572102443491531
 20
58.4099709291587033
 30
0.0
 40
0.2755136547423769
 50
78.8009679962166985
 51
91.0019168552253745
  0
ARC
  5
26129
  8
0
 10
6147.2272785438508436
 20
96.7795095954735132
 30
0.0
 40
38.0940754130899819
 50
269.9622974588963871
 51
270.0377731312219112
  0
ARC
  5
2612A
  8
0
 10
6147.3413114905688417
 20
58.6675347851565689
 30
0.0
 40
0.1968470549156995
 50
96.285941173906167
 51
129.8713754790161943
  0
ARC
  5
2612B
  8
0
 10
6147.1898452546156477
 20
58.8488703912236772
 30
0.0
 40
0.0394252935750379
 50
268.5223115209249158
 51
309.8713754790161943
  0
ARC
  5
2612C
  8
0
 10
6147.1887446627415557
 20
58.7896893618279321
 30
0.0
 40
0.0197690250486399
 50
0.2428969302677663
 51
89.7568195740736741
  0
LINE
  5
2612D
  8
0
 10
6147.2085135101451669
 20
58.7897731694164918
 30
0.0
 11
6147.208515027442445
 21
58.7068297032310085
 31
0.0
  0
ARC
  5
2612E
  8
0
 10
6147.169139340455331
 20
58.7068126419866516
 30
0.0
 40
0.0393756906821137
 50
297.3586240221416119
 51
0.024825909294289
  0
ARC
  5
2612F
  8
0
 10
6146.5138562554511736
 20
60.5106714797864527
 30
0.0
 40
1.9653556197945119
 50
268.9030328272876886
 51
287.2363613830689815
  0
ARC
  5
26130
  8
0
 10
6146.8484393642302166
 20
59.3503631896121604
 30
0.0
 40
0.7584025262675281
 50
289.0693707954230263
 51
296.5335913759001869
  0
LINE
  5
26131
  8
0
 10
6145.7439477086982151
 20
58.7941328921092392
 30
0.0
 11
6145.7439461116491657
 21
58.7068297032310085
 31
0.0
  0
ARC
  5
26132
  8
0
 10
6145.7833217986353702
 20
58.7068126419866516
 30
0.0
 40
0.0393756906821137
 50
179.9751740907057069
 51
242.6413759778583881
  0
ARC
  5
26133
  8
0
 10
6146.438604883638618
 20
60.5106714797864527
 30
0.0
 40
1.9653556197945119
 50
252.7636386169309901
 51
271.0969671727123114
  0
ARC
  5
26134
  8
0
 10
6146.1040217748595751
 20
59.3503631896121604
 30
0.0
 40
0.7584025262675281
 50
243.4664086240998131
 51
250.9306292045770022
  0
ARC
  5
26135
  8
0
 10
6146.8514608386540203
 20
50.0585641639462722
 30
0.0
 40
8.8060647293401555
 50
91.0327628275859837
 51
96.3201980795271453
  0
ARC
  5
26136
  8
0
 10
6146.3327755153113685
 20
54.5411570960811574
 30
0.0
 40
4.2936734502981944
 50
96.0257166197470156
 51
100.7569336411466026
  0
ARC
  5
26137
  8
0
 10
6145.7084842623526129
 20
58.6675724434398802
 30
0.0
 40
0.1967990075848785
 50
96.2590270813795286
 51
148.8410473230449895
  0
ARC
  5
26138
  8
0
 10
6145.5063390355371666
 20
58.7898603502444104
 30
0.0
 40
0.0394572918679444
 50
270.0727897698984066
 51
328.7636880510290212
  0
LINE
  5
26139
  8
0
 10
6145.5100725580450671
 20
58.750403089416487
 30
0.0
 11
6144.1647514526448504
 21
58.7504030907165031
 31
0.0
  0
ARC
  5
2613A
  8
0
 10
6144.1650238106849429
 20
58.7909815890954732
 30
0.0
 40
0.0405794123860181
 50
244.682309713542395
 51
269.6154433388459779
  0
ARC
  5
2613B
  8
0
 10
6144.1746797301875631
 20
58.7307170120408202
 30
0.0
 40
0.0196860788699437
 50
90.0223240259276736
 51
179.9969752173458062
  0
LINE
  5
2613C
  8
0
 10
6144.1549936513456487
 20
58.7307180513164866
 30
0.0
 11
6144.1549936513456487
 21
58.6469407184165021
 31
0.0
  0
ARC
  5
2613D
  8
0
 10
6144.1944303888758441
 20
58.6469407184165021
 30
0.0
 40
0.0394367375305342
 50
180.0000000000003979
 51
240.9700959413920032
  0
ARC
  5
2613E
  8
0
 10
6144.7660080250152532
 20
59.9542390919817905
 30
0.0
 40
1.4660556465271779
 50
246.2386467826038086
 51
268.6474121932453158
  0
ARC
  5
2613F
  8
0
 10
6145.5100648878024003
 20
58.7307170120408202
 30
0.0
 40
0.0196860788699437
 50
0.0030247826541312
 51
89.9776759740723264
  0
LINE
  5
26140
  8
0
 10
6145.5297509666452243
 20
58.7307180513164866
 30
0.0
 11
6145.5297509666452243
 21
58.6469407184165021
 31
0.0
  0
ARC
  5
26141
  8
0
 10
6145.4903142291150289
 20
58.6469407184165021
 30
0.0
 40
0.0394367375305342
 50
299.0299040586078263
 51
359.9999999999996021
  0
ARC
  5
26142
  8
0
 10
6144.9187365929738007
 20
59.9542390919817905
 30
0.0
 40
1.4660556465271779
 50
271.3525878067546842
 51
293.7613532173962199
  0
ARC
  5
26143
  8
0
 10
6144.0819924079305565
 20
58.6184053067326403
 30
0.0
 40
0.1509358782986718
 50
64.2125550939946095
 51
71.6218707874038358
  0
ARC
  5
26144
  8
0
 10
6144.0948353643470909
 20
59.5061707694660811
 30
0.0
 40
0.7453381435039789
 50
268.9297553047380234
 51
272.6719031624027139
  0
ARC
  5
26145
  8
0
 10
6144.0854620499294469
 20
59.0044267335739505
 30
0.0
 40
0.2435065616196759
 50
259.4440964983832032
 51
268.9297553047380234
  0
ARC
  5
26146
  8
0
 10
6144.0473416187269322
 20
58.7998614019550914
 30
0.0
 40
0.0354196995273432
 50
230.3358682911191124
 51
259.4440964983832032
  0
ARC
  5
26147
  8
0
 10
6144.0298903229722782
 20
58.7767076481810875
 30
0.0
 40
0.0065955757663209
 50
148.4990982196665072
 51
218.5717773341856116
  0
ARC
  5
26148
  8
0
 10
6144.0570058257626442
 20
58.7558078239502279
 30
0.0
 40
0.0407992761511833
 50
112.2252968849016952
 51
143.3640474007495982
  0
ARC
  5
26149
  8
0
 10
6144.2212477142584248
 20
58.3469314483799266
 30
0.0
 40
0.4814291748158254
 50
97.0785209207819975
 51
111.9137247565815017
  0
ARC
  5
2614A
  8
0
 10
6144.4083089070236383
 20
57.1861890383470168
 30
0.0
 40
1.656923756027179
 50
94.7368934622812304
 51
98.551698179583255
  0
ARC
  5
2614B
  8
0
 10
6144.9996289658502064
 20
48.6611552149859179
 30
0.0
 40
10.2023157561604201
 50
90.4188475602595361
 51
94.0927352562032411
  0
LINE
  5
2614C
  8
0
 10
6135.2361328279021109
 20
46.8600351367084897
 30
0.0
 11
6135.1988987933445969
 21
46.8577623763164866
 31
0.0
  0
ARC
  5
2614D
  8
0
 10
6135.2001150688993221
 20
46.8378364544429502
 30
0.0
 40
0.0199630080081589
 50
93.4929927306164643
 51
175.2832732540715881
  0
ARC
  5
2614E
  8
0
 10
6140.1422370305162985
 20
46.2809225258878882
 30
0.0
 40
4.993355638654311
 50
173.5774672997638959
 51
175.8929820027487949
  0
ARC
  5
2614F
  8
0
 10
6135.1816102050688642
 20
46.636613078006981
 30
0.0
 40
0.0199994701103655
 50
174.4573896480571022
 51
184.545223154786612
  0
ARC
  5
26150
  8
0
 10
6135.6728166096354471
 20
46.6527366047921674
 30
0.0
 40
0.5114496375780436
 50
181.9842024234895064
 51
182.9853950969483947
  0
LINE
  5
26151
  8
0
 10
6135.1620610895452046
 20
46.6260995915164926
 30
0.0
 11
6135.159327522285821
 21
46.6259314628138029
 31
0.0
  0
ARC
  5
26152
  8
0
 10
6135.1598102794623628
 20
46.6180824210295484
 30
0.0
 40
0.0078638738178108
 50
93.5195569398986351
 51
177.6974731304275963
  0
ARC
  5
26153
  8
0
 10
6138.7174840568395666
 20
46.3247770898064886
 30
0.0
 40
3.5776007205799609
 50
175.2923188662763039
 51
186.0031588272256045
  0
ARC
  5
26154
  8
0
 10
6138.6720779704419328
 20
46.0190839092208819
 30
0.0
 40
3.513242698488324
 50
181.116618382520187
 51
191.7252691655922945
  0
ARC
  5
26155
  8
0
 10
6135.239898923254259
 20
45.3065638993088768
 30
0.0
 40
0.0078860454157074
 50
190.5076897520499983
 51
273.4767108549604018
  0
ARC
  5
26156
  8
0
 10
6135.1902347065260983
 20
46.1423825003387478
 30
0.0
 40
0.8451788595972372
 50
273.4012193791676282
 51
273.5897703060628032
  0
LINE
  5
26157
  8
0
 10
6135.3570144021214219
 20
45.0766854441401534
 30
0.0
 11
6135.3077988576451389
 21
45.0736813340164986
 31
0.0
  0
ARC
  5
26158
  8
0
 10
6135.306579740734378
 20
45.0936538051062072
 30
0.0
 40
0.0200096438617494
 50
193.2719800302606927
 51
273.4929927306164927
  0
ARC
  5
26159
  8
0
 10
6140.2592929396596446
 20
46.271230334834307
 30
0.0
 40
5.1107909384304238
 50
191.096111480459399
 51
193.3741304569653892
  0
ARC
  5
2615A
  8
0
 10
6135.6535123368039422
 20
45.3257744423903688
 30
0.0
 40
0.4112405650694621
 50
183.7522445910655051
 51
185.3219300154447922
  0
ARC
  5
2615B
  8
0
 10
6205.3207231053020223
 20
50.5665610527713412
 30
0.0
 40
70.2692329542064726
 50
183.214640263789903
 51
183.470496393291711
  0
ARC
  5
2615C
  8
0
 10
6351.9561841400827689
 20
59.2289757047733474
 30
0.0
 40
217.1602767429922096
 50
183.4098171832283981
 51
183.6778600415493088
  0
ARC
  5
2615D
  8
0
 10
6181.9703319203026695
 20
49.3551441443078573
 30
0.0
 40
46.8576553960478819
 50
183.0769299605329081
 51
183.4987867443987
  0
ARC
  5
2615E
  8
0
 10
5898.4202301536015511
 20
32.0185036895069999
 30
0.0
 40
237.221944917253893
 50
3.400742102668171
 51
3.4987867443991898
  0
ARC
  5
2615F
  8
0
 10
6300.6660812116533634
 20
55.9215389901410234
 30
0.0
 40
165.7334866009221059
 50
183.4007421026680902
 51
183.6474386959393996
  0
ARC
  5
26160
  8
0
 10
6177.149848734778061
 20
47.9569604887963834
 30
0.0
 40
41.9608657241806071
 50
183.5235440546292125
 51
183.9190467859120872
  0
LINE
  5
26161
  8
0
 10
6135.3781270250447051
 20
43.9730431046164867
 30
0.0
 11
6135.3927153295890093
 21
43.9673503519530726
 31
0.0
  0
ARC
  5
26162
  8
0
 10
6135.3853976936461549
 20
43.9916747277165001
 30
0.0
 40
0.020000000000006
 50
193.4882080838137881
 51
248.6826448919709946
  0
ARC
  5
26163
  8
0
 10
6137.7972649956309397
 20
44.57018787124656
 30
0.0
 40
2.5002784802571272
 50
182.1401637529666004
 51
193.4882080838137881
  0
ARC
  5
26164
  8
0
 10
6137.7903222849899976
 20
44.5699284201656383
 30
0.0
 40
2.4933309234265528
 50
169.6453654241651066
 51
182.1401637529662025
  0
ARC
  5
26165
  8
0
 10
6133.2807351960309461
 20
45.3939022089173534
 30
0.0
 40
2.0909147634290441
 50
349.6453654241651066
 51
350.172430073611622
  0
ARC
  5
26166
  8
0
 10
6135.3600801773072817
 20
45.0337064758536201
 30
0.0
 40
0.0193971844300339
 50
93.7470693683022063
 51
170.1724300736115936
  0
ARC
  5
26167
  8
0
 10
-67528.9331895981304115
 20
-1708.1036717158540341
 30
0.0
 40
73685.1327567951084347
 50
1.362511809578999
 51
1.363328501048094
  0
LINE
  5
26168
  8
0
 10
6135.3353435219332823
 20
45.0753626565686503
 30
0.0
 11
6135.3375975165463387
 21
45.0180805193164915
 31
0.0
  0
LINE
  5
26169
  8
0
 10
6145.1296396991210713
 20
43.1340742290689079
 30
0.0
 11
6145.1413054712456869
 21
43.9754743689164869
 31
0.0
  0
LINE
  5
2616A
  8
0
 10
6145.1592828014454426
 20
45.0567273970164877
 30
0.0
 11
6145.1273813271300241
 21
43.9697160150974611
 31
0.0
  0
LINE
  5
2616B
  8
0
 10
6145.1273813271300241
 20
43.9697160150974611
 30
0.0
 11
6145.1378828026463452
 21
43.9737469408164969
 31
0.0
  0
ARC
  5
2616C
  8
0
 10
6145.1307158280305885
 20
43.9924185348089267
 30
0.0
 40
0.0199998486832251
 50
290.9989868999583109
 51
346.1938942555697736
  0
ARC
  5
2616D
  8
0
 10
6142.7220348300043042
 20
44.5843195076535892
 30
0.0
 40
2.5003407349137592
 50
346.1938942555697736
 51
358.3181577195313139
  0
ARC
  5
2616E
  8
0
 10
6142.7227464460556803
 20
44.5842986130983974
 30
0.0
 40
2.499628812172932
 50
358.3181577195313139
 51
10.4457868245393293
  0
ARC
  5
2616F
  8
0
 10
6145.1612817478116995
 20
45.0338751753499125
 30
0.0
 40
0.0199970860057629
 50
10.4262396323502209
 51
65.6407497463208927
  0
ARC
  5
26170
  8
0
 10
6141.7109996307399342
 20
37.4202991824583933
 30
0.0
 40
8.3788837383907513
 50
65.6212025541449435
 51
65.6981077442309953
  0
ARC
  5
26171
  8
0
 10
-38590.4273939092236105
 20
1357.3989019701450616
 30
0.0
 40
44754.8538845010116347
 50
358.3183113976846812
 51
358.3196560124221151
  0
ARC
  5
26172
  8
0
 10
6186.4250187712568732
 20
44.3196864089021787
 30
0.0
 40
43.3466535313572692
 50
176.3971704963475986
 51
181.5673423772061028
  0
ARC
  5
26173
  8
0
 10
6310.1287274988990248
 20
36.5307755330879402
 30
0.0
 40
167.2953311588518091
 50
174.1085617786843045
 51
176.3971704963475986
  0
ARC
  5
26174
  8
0
 10
6094.5901099027623786
 20
58.7719732816003386
 30
0.0
 40
49.3877705185554916
 50
354.1085617786839066
 51
358.9326148875354079
  0
ARC
  5
26175
  8
0
 10
6615.6574893660135785
 20
49.0636855415181117
 30
0.0
 40
471.7700412731740016
 50
178.8877881889575008
 51
178.9326148875348963
  0
ARC
  5
26176
  8
0
 10
6096.8385054238860903
 20
44.303694650967401
 30
0.0
 40
40.5952784155937323
 50
358.3489806820339822
 51
2.869630313894493
  0
ARC
  5
26177
  8
0
 10
6057.4644959460492828
 20
42.8453669630129781
 30
0.0
 40
79.994579171711635
 50
2.5009731159389892
 51
5.2195919083615729
  0
ARC
  5
26178
  8
0
 10
6298.8260824969538589
 20
66.8772429790821832
 30
0.0
 40
162.5644149825751015
 50
183.7889247291008132
 51
185.9156301659103008
  0
ARC
  5
26179
  8
0
 10
6177.7802395094204257
 20
58.7952962855970824
 30
0.0
 40
41.2491352956825992
 50
181.1319818778684976
 51
183.6980157275505974
  0
ARC
  5
2617A
  8
0
 10
6129.4254433446212715
 20
57.9833308627937924
 30
0.0
 40
7.1137116318340636
 50
359.9763774208419136
 51
1.9145789252007399
  0
ARC
  5
2617B
  8
0
 10
6181.0577340872396235
 20
55.9049254487738523
 30
0.0
 40
48.4243059235529927
 50
175.1453865003086037
 51
175.6766141179969907
  0
ARC
  5
2617C
  8
0
 10
6134.5315183699585759
 20
59.8560775123527975
 30
0.0
 40
1.730619556813463
 50
171.4460684550863903
 51
175.1312727676680083
  0
ARC
  5
2617D
  8
0
 10
6132.9680366203683661
 20
60.0912461872181325
 30
0.0
 40
0.1495504606195883
 50
103.2728253759533033
 51
171.4460684550863903
  0
ARC
  5
2617E
  8
0
 10
6133.222962917762743
 20
58.8596728871579202
 30
0.0
 40
1.407180247839541
 50
93.1758322202665283
 51
101.8623385650177937
  0
ARC
  5
2617F
  8
0
 10
6133.6907404674993813
 20
53.1332005134439171
 30
0.0
 40
7.1523421805186329
 50
93.0983009116120428
 51
94.3760182530168521
  0
ARC
  5
26180
  8
0
 10
6132.9277996227719996
 20
59.9353246966635496
 30
0.0
 40
0.1260434280193545
 50
172.6081844165898076
 51
219.6770403855892937
  0
ARC
  5
26181
  8
0
 10
6133.0815019622141335
 20
60.2326317393838622
 30
0.0
 40
0.4534036954924226
 50
236.4299469360593093
 51
252.8375083918423059
  0
ARC
  5
26182
  8
0
 10
6134.520149729763034
 20
33.4567082152085078
 30
0.0
 40
26.8459329562691487
 50
90.639717684895885
 51
92.5961029388113559
  0
ARC
  5
26183
  8
0
 10
6140.256258960112973
 20
-259.4236188793486804
 30
0.0
 40
319.7815547615962828
 50
89.9993383403276539
 51
91.0815159390836442
  0
ARC
  5
26184
  8
0
 10
6167.321311355144644
 20
62.2785812196837369
 30
0.0
 40
19.7489585264621006
 50
186.301529585778809
 51
186.7119876564946992
  0
ARC
  5
26185
  8
0
 10
6147.5490131143224062
 20
60.0947439312402665
 30
0.0
 40
0.1435764328511632
 50
6.4685027680417884
 51
81.6595236881166073
  0
ARC
  5
26186
  8
0
 10
6147.2805783136791433
 20
58.8596728871579202
 30
0.0
 40
1.407180247839541
 50
78.1376614349821352
 51
86.8241677797334717
  0
ARC
  5
26187
  8
0
 10
6146.812800763940686
 20
53.1332005134439171
 30
0.0
 40
7.1523421805186329
 50
85.6239817469831621
 51
86.9016990883879714
  0
ARC
  5
26188
  8
0
 10
6147.5702495757113866
 20
59.9425435530841284
 30
0.0
 40
0.1402429979051937
 50
318.2196026400417281
 51
11.4368330248003094
  0
ARC
  5
26189
  8
0
 10
6147.3993198830721667
 20
60.3450438993084077
 30
0.0
 40
0.5673297270098391
 50
285.899209723221702
 51
299.0534239810190229
  0
ARC
  5
2618A
  8
0
 10
6145.9833915016770334
 20
33.4567082152085078
 30
0.0
 40
26.8459329562691487
 50
87.4038970611886441
 51
89.3602823151041434
  0
ARC
  5
2618B
  8
0
 10
6140.2807933227077228
 20
-255.8792374940956904
 30
0.0
 40
316.2371740417949013
 50
88.9124336097461452
 51
90.0037760547024419
  0
ARC
  5
2618C
  8
0
 10
5292.312367088657993
 20
81.6889794394006543
 30
0.0
 40
855.7226199708319427
 50
358.5124749494070784
 51
358.6550045820367814
  0
ARC
  5
2618D
  8
0
 10
10595.7453759247891867
 20
409.0284824573136007
 30
0.0
 40
4461.7127483268786818
 50
184.4875050821507898
 51
184.4999638064423948
  0
ARC
  5
2618E
  8
0
 10
-344200.7108927257941104
 20
3003.0598719461991095
 30
0.0
 40
350347.2904494311078452
 50
359.5187356871297766
 51
359.5207556359608247
  0
ARC
  5
2618F
  8
0
 10
6135.0074821025846177
 20
72.6897312796169928
 30
0.0
 40
0.684581022589801
 50
166.5654275290793862
 51
183.1642980395492089
  0
ARC
  5
26190
  8
0
 10
6134.6941598172879822
 20
72.9126727932525682
 30
0.0
 40
0.3863333388688813
 50
177.3311090359730997
 51
188.2188774414310899
  0
ARC
  5
26191
  8
0
 10
6134.1031840431987803
 20
72.8998476285641317
 30
0.0
 40
0.2073637943671676
 50
8.5458495404126396
 51
19.1131590058530989
  0
LINE
  5
26192
  8
0
 10
6134.2991166462452384
 20
72.9677457749164944
 30
0.0
 11
6133.9244514574502318
 21
74.0381024786165227
 31
0.0
  0
ARC
  5
26193
  8
0
 10
356481.2224076571874321
 20
3003.0598719461991095
 30
0.0
 40
350347.2904494311078452
 50
180.47924436403909
 51
180.481264312870195
  0
ARC
  5
26194
  8
0
 10
6145.5040328289060199
 20
72.6897312796169928
 30
0.0
 40
0.684581022589801
 50
356.8357019604508196
 51
13.4345724709205498
  0
ARC
  5
26195
  8
0
 10
6145.8173551142017459
 20
72.9126727932525682
 30
0.0
 40
0.3863333388688813
 50
351.7811225585688817
 51
2.668890964026855
  0
ARC
  5
26196
  8
0
 10
6146.4083308882909478
 20
72.8998476285641317
 30
0.0
 40
0.2073637943671676
 50
160.8868409941472919
 51
171.4541504595869128
  0
LINE
  5
26197
  8
0
 10
6146.2123982852453992
 20
72.9677457749164944
 30
0.0
 11
6146.5870634740404057
 21
74.0381024786165227
 31
0.0
  0
LINE
  5
26198
  8
0
 10
6132.9477104124725884
 20
59.7994173209903224
 30
0.0
 11
6147.5547375660498801
 21
59.7994173209903224
 31
0.0
  0
LINE
  5
26238
  8
0
 10
6145.1296396991210713
 20
43.1340742290689079
 30
0.0
 11
6135.3818760711219511
 21
43.1340742290689079
 31
0.0
  0
LINE
  5
26240
  8
0
 10
6135.0020633929461837
 20
58.6124585541164933
 30
0.0
 11
6136.3362218520451279
 21
58.6124585541164933
 31
0.0
  0
LINE
  5
26241
  8
0
 10
6133.3242801564456386
 20
58.6718412213165408
 30
0.0
 11
6134.7462885674458448
 21
58.6718412213165408
 31
0.0
  0
LINE
  5
26242
  8
0
 10
6133.3226863633462926
 20
58.809458208816487
 30
0.0
 11
6134.6448266492352559
 21
58.809458208816487
 31
0.0
  0
LINE
  5
26243
  8
0
 10
6147.1888285681452544
 20
58.809458208816487
 30
0.0
 11
6145.8666882822553816
 21
58.809458208816487
 31
0.0
  0
ENDSEC
  0
EOF
