  0
SECTION
  2
HEADER
  9
$ACADVER
  1
AC1009
  9
$INSBASE
 10
6183.7554587040349361
 20
43.1340742290689079
 30
0.0
  9
$EXTMIN
 10
6154.9045650112348085
 20
43.1257235195780027
 30
-0.0000000349181948
  9
$EXTMAX
 10
6183.819516851634944
 20
74.1412661488853928
 30
0.0000000814935746
  9
$LIMMIN
 10
0.0
 20
0.0
  9
$LIMMAX
 10
11.6929133858000007
 20
8.2677165353999982
  9
$ORTHOMODE
 70
     1
  9
$REGENMODE
 70
     1
  9
$FILLMODE
 70
     1
  9
$QTEXTMODE
 70
     0
  9
$MIRRTEXT
 70
     0
  9
$DRAGMODE
 70
     2
  9
$LTSCALE
 40
0.6431102362
  9
$OSMODE
 70
  2047
  9
$ATTMODE
 70
     1
  9
$TEXTSIZE
 40
0.2
  9
$TRACEWID
 40
0.05
  9
$TEXTSTYLE
  7
STANDARD
  9
$CLAYER
  8
0
  9
$CELTYPE
  6
BYLAYER
  9
$CECOLOR
 62
   256
  9
$DIMSCALE
 40
1.0
  9
$DIMASZ
 40
0.1875
  9
$DIMEXO
 40
0.0625
  9
$DIMDLI
 40
0.4443307087
  9
$DIMRND
 40
0.0
  9
$DIMDLE
 40
0.0
  9
$DIMEXE
 40
0.125
  9
$DIMTP
 40
0.01
  9
$DIMTM
 40
0.01
  9
$DIMTXT
 40
2.0
  9
$DIMCEN
 40
0.1052362205
  9
$DIMTSZ
 40
0.0
  9
$DIMTOL
 70
     1
  9
$DIMLIM
 70
     0
  9
$DIMTIH
 70
     1
  9
$DIMTOH
 70
     1
  9
$DIMSE1
 70
     0
  9
$DIMSE2
 70
     0
  9
$DIMTAD
 70
     0
  9
$DIMZIN
 70
     0
  9
$DIMBLK
  1

  9
$DIMASO
 70
     1
  9
$DIMSHO
 70
     1
  9
$DIMPOST
  1
\X
  9
$DIMAPOST
  1

  9
$DIMALT
 70
     1
  9
$DIMALTD
 70
     2
  9
$DIMALTF
 40
25.3999999999999986
  9
$DIMLFAC
 40
1.0
  9
$DIMTOFL
 70
     0
  9
$DIMTVP
 40
0.0
  9
$DIMTIX
 70
     0
  9
$DIMSOXD
 70
     0
  9
$DIMSAH
 70
     0
  9
$DIMBLK1
  1

  9
$DIMBLK2
  1

  9
$DIMSTYLE
  2
STANDARD
  9
$DIMCLRD
 70
     0
  9
$DIMCLRE
 70
     0
  9
$DIMCLRT
 70
     0
  9
$DIMTFAC
 40
1.0
  9
$DIMGAP
 40
0.09
  9
$LUNITS
 70
     2
  9
$LUPREC
 70
     4
  9
$SKETCHINC
 40
0.1
  9
$FILLETRAD
 40
0.0
  9
$AUNITS
 70
     0
  9
$AUPREC
 70
     0
  9
$MENU
  1
.
  9
$ELEVATION
 40
0.0
  9
$PELEVATION
 40
0.0
  9
$THICKNESS
 40
0.0
  9
$LIMCHECK
 70
     0
  9
$BLIPMODE
 70
     0
  9
$CHAMFERA
 40
0.0
  9
$CHAMFERB
 40
0.0
  9
$SKPOLY
 70
     0
  9
$TDCREATE
 40
2458060.468368056230247
  9
$TDUPDATE
 40
2460700.5039004632271826
  9
$TDINDWG
 40
0.6054700231
  9
$TDUSRTIMER
 40
0.6054700231
  9
$USRTIMER
 70
     1
  9
$ANGBASE
 50
0.0
  9
$ANGDIR
 70
     0
  9
$PDMODE
 70
     0
  9
$PDSIZE
 40
0.3125
  9
$PLINEWID
 40
0.0
  9
$COORDS
 70
     1
  9
$SPLFRAME
 70
     0
  9
$SPLINETYPE
 70
     6
  9
$SPLINESEGS
 70
     8
  9
$ATTDIA
 70
     1
  9
$ATTREQ
 70
     1
  9
$HANDLING
 70
     1
  9
$HANDSEED
  5
26315
  9
$SURFTAB1
 70
     6
  9
$SURFTAB2
 70
     6
  9
$SURFTYPE
 70
     6
  9
$SURFU
 70
     6
  9
$SURFV
 70
     6
  9
$UCSNAME
  2

  9
$UCSORG
 10
0.0
 20
0.0
 30
0.0
  9
$UCSXDIR
 10
1.0
 20
0.0
 30
0.0
  9
$UCSYDIR
 10
0.0
 20
1.0
 30
0.0
  9
$PUCSNAME
  2

  9
$PUCSORG
 10
0.0
 20
0.0
 30
0.0
  9
$PUCSXDIR
 10
1.0
 20
0.0
 30
0.0
  9
$PUCSYDIR
 10
0.0
 20
1.0
 30
0.0
  9
$USERI1
 70
     0
  9
$USERI2
 70
     0
  9
$USERI3
 70
     0
  9
$USERI4
 70
     0
  9
$USERI5
 70
     0
  9
$USERR1
 40
0.0
  9
$USERR2
 40
0.0
  9
$USERR3
 40
0.0
  9
$USERR4
 40
0.0
  9
$USERR5
 40
0.0
  9
$WORLDVIEW
 70
     1
  9
$SHADEDGE
 70
     3
  9
$SHADEDIF
 70
    70
  9
$TILEMODE
 70
     1
  9
$MAXACTVP
 70
    64
  9
$PLIMCHECK
 70
     0
  9
$PEXTMIN
 10
1.0000000000000000E+20
 20
1.0000000000000000E+20
 30
1.0000000000000000E+20
  9
$PEXTMAX
 10
-1.0000000000000000E+20
 20
-1.0000000000000000E+20
 30
-1.0000000000000000E+20
  9
$PLIMMIN
 10
0.0
 20
0.0
  9
$PLIMMAX
 10
12.0
 20
9.0
  9
$UNITMODE
 70
     0
  9
$VISRETAIN
 70
     1
  9
$PLINEGEN
 70
     0
  9
$PSLTSCALE
 70
     1
  0
ENDSEC
  0
SECTION
  2
TABLES
  0
TABLE
  2
VPORT
 70
     1
  0
VPORT
  2
*ACTIVE
 70
     0
 10
0.0
 20
0.0
 11
1.0
 21
1.0
 12
2377.0041307751848763
 22
-61.547161598873771
 13
0.0
 23
0.0
 14
1.0
 24
1.0
 15
0.0
 25
0.0
 16
0.0
 26
0.0
 36
5.1040778033513332
 17
3792.35791015625
 27
120.1806564331053977
 37
0.0
 40
31.272893369835149
 41
2.6101928374655641
 42
50.0
 43
0.0
 44
0.0
 50
0.0
 51
0.0
 71
     0
 72
   100
 73
     1
 74
     1
 75
     0
 76
     0
 77
     0
 78
     0
  0
ENDTAB
  0
TABLE
  2
LTYPE
 70
     2
  0
LTYPE
  2
CONTINUOUS
 70
     0
  3
Solid line
 72
    65
 73
     0
 40
0.0
  0
LTYPE
  2
PHANTOM2
 70
     0
  3
___ _ _ ___ _ _ ___ _ _ ___ _ _
 72
    65
 73
     6
 40
1.25
 49
0.625
 49
-0.125
 49
0.125
 49
-0.125
 49
0.125
 49
-0.125
  0
ENDTAB
  0
TABLE
  2
LAYER
 70
     2
  0
LAYER
  2
0
 70
     0
 62
   255
  6
CONTINUOUS
  0
LAYER
  2
DEFPOINTS
 70
     0
 62
     7
  6
CONTINUOUS
  0
ENDTAB
  0
TABLE
  2
STYLE
 70
     1
  0
STYLE
  2
STANDARD
 70
     0
 40
0.0
 41
0.8
 50
0.0
 71
     0
 42
0.2
  3
txt
  4

  0
ENDTAB
  0
TABLE
  2
VIEW
 70
     0
  0
ENDTAB
  0
TABLE
  2
UCS
 70
     0
  0
ENDTAB
  0
TABLE
  2
APPID
 70
     9
  0
APPID
  2
ACAD
 70
     0
  0
APPID
  2
ACAD_MLEADERVER
 70
     0
  0
APPID
  2
ACAD_EXEMPT_FROM_CAD_STANDARDS
 70
     0
  0
APPID
  2
ACAD_NAV_VCDISPLAY
 70
     0
  0
APPID
  2
ACAECLAYERSTANDARD
 70
     0
  0
APPID
  2
ACCMTRANSPARENCY
 70
     0
  0
APPID
  2
ACAD_DSTYLE_DIMJAG
 70
     0
  0
APPID
  2
ACAD_DSTYLE_DIMTALN
 70
     0
  0
APPID
  2
ACDBATTR
 70
     0
  0
ENDTAB
  0
TABLE
  2
DIMSTYLE
 70
     1
  0
DIMSTYLE
  2
STANDARD
 70
     0
  3

  4

  5

  6

  7

 40
1.0
 41
0.1875
 42
0.0625
 43
0.38
 44
0.125
 45
0.0
 46
0.0
 47
0.01
 48
0.01
140
0.15625
141
0.09
142
0.0
143
25.3999999999999986
144
1.0
145
0.0
146
1.0
147
0.09
 71
     1
 72
     0
 73
     1
 74
     1
 75
     0
 76
     0
 77
     0
 78
     4
170
     0
171
     2
172
     0
173
     0
174
     0
175
     0
176
     0
177
     0
178
     0
  0
ENDTAB
  0
ENDSEC
  0
SECTION
  2
BLOCKS
  0
BLOCK
  8
0
  2
$MODEL_SPACE
 70
     0
 10
0.0
 20
0.0
 30
0.0
  3
$MODEL_SPACE
  1

  0
ENDBLK
  5
21
  8
0
  0
BLOCK
 67
     1
  8
0
  2
$PAPER_SPACE
 70
     0
 10
0.0
 20
0.0
 30
0.0
  3
$PAPER_SPACE
  1

  0
ENDBLK
  5
1D
 67
     1
  8
0
  0
ENDSEC
  0
SECTION
  2
ENTITIES
  0
LINE
  5
26199
  8
0
 10
6159.9122246407841885
 20
43.1340742290689079
 30
0.0
 11
6182.9254587040350089
 21
43.1340742290689079
 31
0.0
  0
LINE
  5
2619A
  8
0
 10
6177.2284689206544499
 20
74.0382387195689375
 30
0.0
 11
6182.7323513181536327
 21
74.0317796207689298
 31
0.0
  0
LINE
  5
2619B
  8
0
 10
6176.7895192216583382
 20
72.8575807397689346
 30
0.0
 11
6182.832125977841315
 21
72.8498608385277464
 31
0.0
  0
LINE
  5
2619C
  8
0
 10
6155.6225257399828479
 20
58.4887283079689198
 30
0.0
 11
6177.8702152017585831
 21
58.4887283079689198
 31
0.0
  0
LINE
  5
2619D
  8
0
 10
6155.3845963138292063
 20
58.2211325647688795
 30
0.0
 11
6182.647550577257789
 21
58.2211325647688795
 31
0.0
  0
ARC
  5
2619E
  8
0
 10
6172.3960513926467684
 20
62.1248594077403595
 30
0.0
 40
17.4258533546545209
 50
192.9821941948887911
 51
195.251522716146809
  0
ARC
  5
2619F
  8
0
 10
6181.3783319181429761
 20
64.5739666131128729
 30
0.0
 40
26.7360353905812396
 50
195.251522716146809
 51
199.9635939385053973
  0
ARC
  5
261A0
  8
0
 10
6204.1864572870636039
 20
72.8590368553347503
 30
0.0
 40
51.002328304064882
 50
199.9635939385053973
 51
203.8424556005417969
  0
ARC
  5
261A1
  8
0
 10
6121.2967342014044334
 20
36.2269205502089733
 30
0.0
 40
39.6211683080703096
 50
17.5495945716606805
 51
23.8424556005418005
  0
ARC
  5
261A2
  8
0
 10
6138.3466939405607263
 20
42.1932339355147903
 30
0.0
 40
21.5726962787472907
 50
7.2933574131481249
 51
16.0952475003298012
  0
ARC
  5
261A3
  8
0
 10
6131.7109079013398514
 20
41.4152280019946488
 30
0.0
 40
28.2536492897958986
 50
3.4878143712539611
 51
7.1499857468430683
  0
LINE
  5
261A4
  8
0
 10
6155.3845963138292063
 20
58.2211325647688795
 30
0.0
 11
6155.3865843933936048
 21
58.263579143672473
 31
0.0
  0
LINE
  5
261A5
  8
0
 10
6155.3845963138292063
 20
58.2211325647688795
 30
0.0
 11
6155.4156041435180668
 21
58.2101721459689614
 31
0.0
  0
ARC
  5
261A6
  8
0
 10
6155.6225257399828479
 20
58.2525283079689302
 30
0.0
 40
0.2362
 50
90.0
 51
177.3183849883727987
  0
LINE
  5
261A7
  8
0
 10
6182.7881368099551764
 20
58.9969409064689216
 30
0.0
 11
6177.1941515740945761
 21
58.9969409064689216
 31
0.0
  0
ARC
  5
261A8
  8
0
 10
6182.7284603168845933
 20
58.7999409064689189
 30
0.0
 40
0.197
 50
359.7681527839401951
 51
90.0
  0
LINE
  5
261A9
  8
0
 10
6177.2124510939220272
 20
58.7999409064689189
 30
0.0
 11
6177.2124510939220272
 21
58.6857283079689225
 31
0.0
  0
ARC
  5
261AA
  8
0
 10
6177.4094510939212341
 20
58.7999409064689189
 30
0.0
 40
0.197
 50
90.0
 51
180.0
  0
ARC
  5
261AB
  8
0
 10
6177.0154510939219108
 20
58.6857283079689225
 30
0.0
 40
0.197
 50
270.0
 51
0.0
  0
LINE
  5
261AC
  8
0
 10
6176.7469814536498234
 20
72.6560779010644637
 30
0.0
 11
6177.0561876274878159
 21
59.1317866336708491
 31
0.0
  0
ARC
  5
261AD
  8
0
 10
6176.9439299861242034
 20
72.6605807397689318
 30
0.0
 40
0.197
 50
92.4921701941813836
 51
181.3097265149629038
  0
ARC
  5
261AE
  8
0
 10
6182.7881368099551764
 20
59.1349409064689624
 30
0.0
 40
0.138
 50
270.0
 51
354.3176909288523007
  0
ARC
  5
261AF
  8
0
 10
6182.72913680995498
 20
72.6605807397689318
 30
0.0
 40
0.197
 50
4.7553002085697473
 51
73.9721997657684511
  0
LINE
  5
261B0
  8
0
 10
6182.9069255237236575
 20
72.934446158095227
 30
0.0
 11
6182.8666345473047841
 21
73.8653838250189096
 31
0.0
  0
ARC
  5
261B1
  8
0
 10
6182.8283466468456027
 20
72.9285685439724318
 30
0.0
 40
0.0787983898258275
 50
272.749076748085713
 51
4.2776958382465047
  0
LINE
  5
261B2
  8
0
 10
6176.8821884755552674
 20
73.824303001568893
 30
0.0
 11
6176.747115666755235
 21
73.1949744094689123
 31
0.0
  0
ARC
  5
261B3
  8
0
 10
6177.1988961397937601
 20
73.6988898534377483
 30
0.0
 40
0.3406349986603783
 50
85.0195039586827193
 51
158.3969170227225902
  0
ARC
  5
261B4
  8
0
 10
6182.7267670042429017
 20
73.8898911022808136
 30
0.0
 40
0.1419983670349754
 50
350.0616490890354839
 51
87.7461702121063354
  0
LINE
  5
261B5
  8
0
 10
6176.7085429259159355
 20
72.930934298214126
 30
0.0
 11
6176.7096630964506403
 21
72.9686317851990509
 31
0.0
  0
ARC
  5
261B6
  8
0
 10
6176.7781414514456628
 20
72.9263929818162069
 30
0.0
 40
0.0697465290216067
 50
176.2667322425494092
 51
279.3886353242963878
  0
ARC
  5
261B7
  8
0
 10
6179.6634605704830392
 20
72.583488611746418
 30
0.0
 40
2.9797621513000019
 50
168.1580344587673039
 51
172.3285978758692067
  0
ARC
  5
261B8
  8
0
 10
6182.7292866132183917
 20
72.7862665470690331
 30
0.0
 40
0.1968503936996905
 50
4.7577991412745018
 51
31.6636684818805385
  0
ARC
  5
261B9
  8
0
 10
6177.1941515740945761
 20
59.1349409064689624
 30
0.0
 40
0.138
 50
181.3097265149596069
 51
270.0
  0
ARC
  5
261BA
  8
0
 10
6182.6412603559929266
 20
57.8047758115318402
 30
0.0
 40
0.4164042661280476
 50
47.48172374098489
 51
89.1344544994068286
  0
CIRCLE
  5
261BB
  8
0
 10
6176.9418488519177117
 20
44.5120269849189185
 30
0.0
 40
0.5421836388318125
  0
ARC
  5
261BC
  8
0
 10
6176.8990629338477447
 20
51.2236650259804733
 30
0.0
 40
7.3296849331172673
 50
77.8516335476047061
 51
82.3861626288226461
  0
ARC
  5
261BD
  8
0
 10
6180.9022450506054156
 20
70.0253231846415929
 30
0.0
 40
11.89345124556481
 50
258.0595512009725212
 51
261.2565783337648782
  0
ARC
  5
261BE
  8
0
 10
6179.0317918658556664
 20
57.8534492627738928
 30
0.0
 40
0.4213031519179276
 50
76.0304188374885541
 51
81.4644959871406655
  0
ARC
  5
261BF
  8
0
 10
6179.3650904122569045
 20
58.7940540728105177
 30
0.0
 40
0.5800054475472887
 50
246.4659023836348979
 51
261.035996179864128
  0
LINE
  5
261C0
  8
0
 10
6178.8878677012662592
 20
74.1066421889242122
 30
0.0
 11
6178.8851315626361611
 21
74.0382387195689375
 31
0.0
  0
LINE
  5
261C1
  8
0
 10
6178.911448843893595
 20
74.1292989432689353
 30
0.0
 11
6181.1416896501541487
 21
74.1292989432689353
 31
0.0
  0
ARC
  5
261C2
  8
0
 10
6178.911448843893595
 20
74.1056989432689193
 30
0.0
 40
0.0236
 50
90.0
 51
177.7093900781976004
  0
LINE
  5
261C3
  8
0
 10
6179.2535651598245749
 20
74.1411099679689301
 30
0.0
 11
6180.7995733535253748
 21
74.1411099679689301
 31
0.0
  0
ARC
  5
261C4
  8
0
 10
6179.2535651405241879
 20
74.1174879207688946
 30
0.0
 40
0.023622047200032
 50
89.9999531875242695
 51
150.0000030789655909
  0
LINE
  5
261C5
  8
0
 10
6181.165270792782394
 20
74.1066421889242122
 30
0.0
 11
6181.1680069314106731
 21
74.0382387195689375
 31
0.0
  0
ARC
  5
261C6
  8
0
 10
6181.1416896501541487
 20
74.1056989432689193
 30
0.0
 40
0.0236
 50
2.290609921802413
 51
90.0
  0
ARC
  5
261C7
  8
0
 10
6180.7995733535253748
 20
74.1174879207688946
 30
0.0
 40
0.023622047200032
 50
29.9999969210343487
 51
90.0000468124757163
  0
ARC
  5
261C8
  8
0
 10
6174.8734767042606109
 20
58.5620895212467829
 30
0.0
 40
0.0733768766335977
 50
268.8069066701070824
 51
268.8161187262443832
  0
ARC
  5
261C9
  8
0
 10
6156.3257344781641223
 20
55.1969431711872005
 30
0.0
 40
3.6629826678499282
 50
69.1159654297552919
 51
90.1442338040407094
  0
ARC
  5
261CA
  8
0
 10
6157.0323626279687232
 20
57.235876953119309
 30
0.0
 40
1.5075749344006431
 50
56.2114396989159388
 51
66.5828889788143528
  0
ARC
  5
261CB
  8
0
 10
6155.964923233733316
 20
43.031122461125058
 30
0.0
 40
15.8326960634384299
 50
88.7275513854065423
 51
89.5520321248867361
  0
LINE
  5
261CC
  8
0
 10
6155.3372481075411997
 20
58.8633345813706086
 30
0.0
 11
6172.9683595728547516
 21
58.8633346072689108
 31
0.0
  0
ARC
  5
261CD
  8
0
 10
6172.9683595667947884
 20
62.9888639258394818
 30
0.0
 40
4.125529318570571
 50
270.000000084157989
 51
273.5247550870039959
  0
ARC
  5
261CE
  8
0
 10
6173.0765277857735782
 20
61.2327810280073379
 30
0.0
 40
2.3661181933199318
 50
273.5247550870039959
 51
284.0022718882564732
  0
ARC
  5
261CF
  8
0
 10
6173.4487667443690952
 20
59.4975508969312301
 30
0.0
 40
0.5952805094141109
 50
289.6592789996641955
 51
327.1274760999227169
  0
ARC
  5
261D0
  8
0
 10
6155.3372643121547299
 20
58.9618032075955512
 30
0.0
 40
0.0984686275583028
 50
192.7201951905983037
 51
269.9905710474657781
  0
LINE
  5
261D1
  8
0
 10
6155.2412124007541934
 20
58.9401213965689124
 30
0.0
 11
6155.0851632263029387
 21
59.63142995286141
 31
0.0
  0
ARC
  5
261D2
  8
0
 10
6155.2195794467406813
 20
59.6617717445856286
 30
0.0
 40
0.1377982026074475
 50
90.8835816695171417
 51
192.7201951905987016
  0
ARC
  5
261D3
  8
0
 10
6148.8520771392813913
 20
472.5291942373459051
 30
0.0
 40
412.778723193002179
 50
270.8835816695171843
 51
271.2342694130038012
  0
ARC
  5
261D4
  8
0
 10
6148.235822811532671
 20
614.7147861131579702
 30
0.0
 40
554.9499926181669025
 50
270.981667142180072
 51
272.0388299968878982
  0
ARC
  5
261D5
  8
0
 10
6138.1057475058569253
 20
831.9426524446780604
 30
0.0
 40
772.4044517779819898
 50
272.2165168568466243
 51
272.6227430952835107
  0
ARC
  5
261D6
  8
0
 10
6174.1828957118950711
 20
46.6174882712901635
 30
0.0
 40
13.7493328401573809
 50
92.0505078976857334
 51
93.0530322260263745
  0
ARC
  5
261D7
  8
0
 10
6173.6930750339697624
 20
60.2983304353587712
 30
0.0
 40
0.0597248613041902
 50
20.4693499295180494
 51
92.0505078976857334
  0
ARC
  5
261D8
  8
0
 10
5904.256670898759694
 20
-37.9702646505023935
 30
0.0
 40
286.8570255499299151
 50
19.8861889081120786
 51
20.0379669576917614
  0
ARC
  5
261D9
  8
0
 10
6173.5154321998688829
 20
59.4529865646975324
 30
0.0
 40
0.5159195240226239
 50
0.0082413591025477
 51
17.1339780176857701
  0
ARC
  5
261DA
  8
0
 10
6173.5150999610941653
 20
59.4536484213984906
 30
0.0
 40
0.5162520919182589
 50
341.9624411540921187
 51
359.9347804583173911
  0
ARC
  5
261DB
  8
0
 10
6173.5131326162309051
 20
59.4568050473759087
 30
0.0
 40
0.5191056805643133
 50
327.0486312023824098
 51
341.6983902235817254
  0
ARC
  5
261DC
  8
0
 10
6159.3780572336590922
 20
58.6689445090353701
 30
0.0
 40
0.1947021478113419
 50
31.4703415328007985
 51
86.7589861528597623
  0
ARC
  5
261DD
  8
0
 10
6159.5799493170752612
 20
58.7925204304803017
 30
0.0
 40
0.0420074246757601
 50
211.4703415328042979
 51
267.9714558687472845
  0
ARC
  5
261DE
  8
0
 10
6159.5753722119434315
 20
58.7305945646776735
 30
0.0
 40
0.0201827358485207
 50
81.1928319823891371
 51
179.2626517196401892
  0
LINE
  5
261DF
  8
0
 10
6159.5551911473539803
 20
58.7308542922689085
 30
0.0
 11
6159.5551946080031485
 21
58.6437097152843734
 31
0.0
  0
ARC
  5
261E0
  8
0
 10
6159.5945938781387667
 20
58.6436998327799373
 30
0.0
 40
0.0394027307852288
 50
179.9999289741957114
 51
233.896183755637793
  0
ARC
  5
261E1
  8
0
 10
6159.7690152547884281
 20
58.889728393574778
 30
0.0
 40
0.3409835247326705
 50
234.5764745587810864
 51
238.849793626710607
  0
ARC
  5
261E2
  8
0
 10
6159.9191707011832477
 20
59.1756951489067475
 30
0.0
 40
0.6636750523471103
 50
240.5266442426178912
 51
250.9435190223900065
  0
ARC
  5
261E3
  8
0
 10
6160.05561451732774
 20
59.5640120502797927
 30
0.0
 40
1.075262218540828
 50
250.8273133348232022
 51
264.6531682883227745
  0
ARC
  5
261E4
  8
0
 10
6160.0336852140062547
 20
59.1182578294072272
 30
0.0
 40
0.6297123974668435
 50
262.860111984774619
 51
268.6191216829445239
  0
LINE
  5
261E5
  8
0
 10
6159.5784623798890607
 20
58.7505393306174568
 30
0.0
 11
6160.6138116756546879
 21
58.750539331668918
 31
0.0
  0
LINE
  5
261E6
  8
0
 10
6160.6334982283788122
 20
58.7308542922689085
 30
0.0
 11
6160.6334947677296441
 21
58.6437097152843734
 31
0.0
  0
ARC
  5
261E7
  8
0
 10
6160.5940954975931163
 20
58.6436998327799373
 30
0.0
 40
0.0394027307852288
 50
306.1038162443621786
 51
0.0000710258042227
  0
ARC
  5
261E8
  8
0
 10
6160.4196741209443644
 20
58.889728393574778
 30
0.0
 40
0.3409835247326705
 50
301.1502063732895067
 51
305.4235254412188851
  0
ARC
  5
261E9
  8
0
 10
6160.2695186745504543
 20
59.1756951489067475
 30
0.0
 40
0.6636750523471103
 50
289.0564809776100788
 51
299.4733557573820235
  0
ARC
  5
261EA
  8
0
 10
6160.1330748584050525
 20
59.5640120502797927
 30
0.0
 40
1.075262218540828
 50
275.3468317116772255
 51
289.1726866651767978
  0
ARC
  5
261EB
  8
0
 10
6160.1550041617256284
 20
59.1182578294072272
 30
0.0
 40
0.6297123974668435
 50
271.3808783170554761
 51
277.1398880152253241
  0
ARC
  5
261EC
  8
0
 10
6160.6137270205354071
 20
58.7307681172583926
 30
0.0
 40
0.0197713956451291
 50
0.2497284523629823
 51
89.7546760986928547
  0
ARC
  5
261ED
  8
0
 10
6160.8142168218837469
 20
58.6689445090353701
 30
0.0
 40
0.1947021478113419
 50
93.2410138471402234
 51
148.529658467199198
  0
ARC
  5
261EE
  8
0
 10
6160.6123247384675778
 20
58.7925204304803017
 30
0.0
 40
0.0420074246757601
 50
272.0285441312527155
 51
328.5296584671958158
  0
LINE
  5
261EF
  8
0
 10
6168.4447392538777422
 20
58.7907475533689095
 30
0.0
 11
6168.444735793230393
 21
58.7036029763843814
 31
0.0
  0
ARC
  5
261F0
  8
0
 10
6168.4053365230929558
 20
58.7035930938799382
 30
0.0
 40
0.0394027307852288
 50
306.1038162443621786
 51
0.0000710258042227
  0
ARC
  5
261F1
  8
0
 10
6168.2309151464451134
 20
58.9496216546747789
 30
0.0
 40
0.3409835247326705
 50
301.1502063732895067
 51
305.4235254412188851
  0
ARC
  5
261F2
  8
0
 10
6167.9520451133148526
 20
59.4437259274964234
 30
0.0
 40
0.9082576196022532
 50
292.3823982284511089
 51
300.0820802695254201
  0
ARC
  5
261F3
  8
0
 10
6167.9973448984774222
 20
59.3684827493479972
 30
0.0
 40
0.8215401156956643
 50
273.3152322206148028
 51
291.4592916937145901
  0
ARC
  5
261F4
  8
0
 10
6167.9688655833388111
 20
59.6872438649816601
 30
0.0
 40
1.141458506136289
 50
268.2620307222546217
 51
273.8170845209792219
  0
ARC
  5
261F5
  8
0
 10
6168.4250305380046484
 20
58.789870073404451
 30
0.0
 40
0.0197282399747241
 50
2.5492639193935971
 51
91.1339586092205707
  0
ARC
  5
261F6
  8
0
 10
6168.4245642620417129
 20
58.8491613365814175
 30
0.0
 40
0.0395669595220483
 50
270.1098416541502161
 51
311.808955730124012
  0
ARC
  5
261F7
  8
0
 10
6168.5825996554212907
 20
58.6728102791828121
 30
0.0
 40
0.19723441652785
 50
104.9881976553235035
 51
131.8760234700937133
  0
LINE
  5
261F8
  8
0
 10
6167.4919798866303609
 20
58.7907475533689095
 30
0.0
 11
6167.4919833472786195
 21
58.7036029763843814
 31
0.0
  0
ARC
  5
261F9
  8
0
 10
6167.7058039940638992
 20
58.9496216546747789
 30
0.0
 40
0.3409835247326705
 50
234.5764745587810864
 51
238.8497936267102943
  0
ARC
  5
261FA
  8
0
 10
6167.9846740271941599
 20
59.4437259274964234
 30
0.0
 40
0.9082576196022532
 50
239.9179197304746083
 51
247.6176017715486921
  0
ARC
  5
261FB
  8
0
 10
6167.9393742420315903
 20
59.3684827493479972
 30
0.0
 40
0.8215401156956643
 50
248.5407083062854099
 51
266.6847677793850835
  0
ARC
  5
261FC
  8
0
 10
6167.9678535571702014
 20
59.6872438649816601
 30
0.0
 40
1.141458506136289
 50
266.1829154790207781
 51
271.7379692777453215
  0
ARC
  5
261FD
  8
0
 10
6167.5116886025043641
 20
58.789870073404451
 30
0.0
 40
0.0197282399747241
 50
88.8660413907794293
 51
177.45073608060639
  0
ARC
  5
261FE
  8
0
 10
6167.5121548784672996
 20
58.8491613365814175
 30
0.0
 40
0.0395669595220483
 50
228.191044269875988
 51
269.8901583458498976
  0
ARC
  5
261FF
  8
0
 10
6167.3510558988300545
 20
58.6671518768212508
 30
0.0
 40
0.2034981187675299
 50
48.5451811044699397
 51
74.5905977701294773
  0
ARC
  5
26200
  8
0
 10
6167.5349182151376226
 20
58.7053853158312791
 30
0.0
 40
0.0429718467365014
 50
182.3771338365365864
 51
231.4947863079025012
  0
LINE
  5
26201
  8
0
 10
6167.5120790247574405
 20
58.8095944497689089
 30
0.0
 11
6168.4246401157543005
 21
58.8095944497689231
 31
0.0
  0
ARC
  5
26202
  8
0
 10
6163.2321487147428343
 20
59.1528890029891272
 30
0.0
 40
9.762091000128267
 50
358.0673412777143199
 51
358.3006262535930091
  0
ARC
  5
26203
  8
0
 10
6173.0085110350573814
 20
58.8234319155288929
 30
0.0
 40
0.0198235978252607
 50
178.9982594306069075
 51
264.8308897183698036
  0
ARC
  5
26204
  8
0
 10
6173.0066897541482831
 20
58.7840410557434865
 30
0.0
 40
0.0196479138655676
 50
89.8971750132210161
 51
177.1028251379879919
  0
ARC
  5
26205
  8
0
 10
6193.1441501214349046
 20
57.6985209921310798
 30
0.0
 40
20.1863447076566906
 50
176.9146115541905999
 51
177.0853885304904907
  0
ARC
  5
26206
  8
0
 10
6172.6693890253909558
 20
58.7414325464065215
 30
0.0
 40
0.3149606305699924
 50
321.8233696190508226
 51
357.000000023655673
  0
ARC
  5
26207
  8
0
 10
6172.9479316069546257
 20
58.5224250538688935
 30
0.0
 40
0.039370078700063
 50
141.823369568130687
 51
179.9999999999593001
  0
LINE
  5
26208
  8
0
 10
6172.9085615282547224
 20
58.5224250538689077
 30
0.0
 11
6172.9085615282547224
 21
58.4887283080689073
 31
0.0
  0
LINE
  5
26209
  8
0
 10
6173.0067250149559186
 20
58.8036889379689072
 30
0.0
 11
6174.03235633125405
 21
58.8036889379689072
 31
0.0
  0
ARC
  5
2620A
  8
0
 10
6213.4922692849550003
 20
60.3449646895301228
 30
0.0
 40
39.4710968412571575
 50
181.3016250300348133
 51
182.2083326189720935
  0
ARC
  5
2620B
  8
0
 10
6174.0308707066360512
 20
58.8232632323155471
 30
0.0
 40
0.0196305904056814
 50
274.3402404383223256
 51
2.2083326189688282
  0
ARC
  5
2620C
  8
0
 10
6174.0323563312813349
 20
58.7840038986336069
 30
0.0
 40
0.019685039335308
 50
2.9999998123481819
 51
89.9999750375428818
  0
ARC
  5
2620D
  8
0
 10
9828.6977155019740167
 20
250.1683405060809093
 30
0.0
 40
3659.6533675462428619
 50
182.997677339519413
 51
183.0023226897718871
  0
ARC
  5
2620E
  8
0
 10
6172.5290774366012556
 20
56.611926396147048
 30
0.0
 40
2.2524467341385459
 50
91.7103078970770866
 51
97.625985003595261
  0
ARC
  5
2620F
  8
0
 10
6172.6104827359440606
 20
56.0747114147802392
 30
0.0
 40
2.7970247466864722
 50
101.4548688225104058
 51
116.2026505896645006
  0
ARC
  5
26210
  8
0
 10
6172.6306193802784037
 20
56.0337931283978676
 30
0.0
 40
2.8426294679945099
 50
116.2026505896645006
 51
120.2751600297670933
  0
LINE
  5
26211
  8
0
 10
6172.0550048147551934
 20
58.8193034103689101
 30
0.0
 11
6172.0550048147551934
 21
58.8101827508689183
 31
0.0
  0
LINE
  5
26212
  8
0
 10
6172.0505160646544027
 20
58.8151184043978574
 30
0.0
 11
6172.0505160646544027
 21
58.8100997360798701
 31
0.0
  0
LINE
  5
26213
  8
0
 10
6172.0505160646544027
 20
58.8100997360798701
 30
0.0
 11
6172.0549944328540732
 21
58.8108093469689166
 31
0.0
  0
ARC
  5
26214
  8
0
 10
6172.4725480282977514
 20
56.735422137061633
 30
0.0
 40
2.1253114085675739
 50
96.5486133598047331
 51
101.3299852774152043
  0
ARC
  5
26215
  8
0
 10
6172.5359699571736201
 20
56.4229370469481779
 30
0.0
 40
2.4352144708650392
 50
97.2140448439699156
 51
101.3910506096297013
  0
LINE
  5
26216
  8
0
 10
6172.2301643764521941
 20
58.8468668435849835
 30
0.0
 11
6172.230164428223361
 21
58.8384966424991376
 31
0.0
  0
LINE
  5
26217
  8
0
 10
6172.2346649067985709
 20
58.8450492213465211
 30
0.0
 11
6172.234664787823931
 21
58.8396636559991322
 31
0.0
  0
LINE
  5
26218
  8
0
 10
6172.234664787823931
 20
58.8396636559991322
 30
0.0
 11
6172.230164550970585
 21
58.8389853799150799
 31
0.0
  0
ARC
  5
26219
  8
0
 10
6177.238099313030034
 20
72.9454968168777214
 30
0.0
 40
0.528942399276037
 50
176.1229445164296976
 51
177.4931882166445121
  0
ARC
  5
2621A
  8
0
 10
6176.915246765241136
 20
240.7527746557695991
 30
0.0
 40
167.8219676546370067
 50
269.9294296166405047
 51
270.0258653332610947
  0
ARC
  5
2621B
  8
0
 10
6176.9907126174603036
 20
82.7288004842625355
 30
0.0
 40
9.7979763870313672
 50
270.0017244527300022
 51
272.7647344289717921
  0
ARC
  5
2621C
  8
0
 10
6177.8646076493250803
 20
61.1808206424691221
 30
0.0
 40
11.7682519982725395
 50
89.2316012845845279
 51
91.9541273962150854
  0
ARC
  5
2621D
  8
0
 10
6179.3983150005651623
 20
189.9738285912258959
 30
0.0
 40
117.0339021952333951
 50
269.3263974443913185
 51
269.6781561141643806
  0
ARC
  5
2621E
  8
0
 10
6181.5976123632553936
 20
25784.4860549537515908
 30
0.0
 40
25711.544440855661378
 50
269.9936341083919729
 51
270.0021215706591988
  0
ARC
  5
2621F
  8
0
 10
6182.6324858790358121
 20
68.1744219780177332
 30
0.0
 40
4.7679290382196813
 50
86.7002594066738084
 51
90.9952465560462684
  0
LINE
  5
26220
  8
0
 10
6182.9254587040350089
 20
58.7991437486798603
 30
0.0
 11
6182.9254587040350089
 21
43.1340742290689079
 31
0.0
  0
LINE
  5
26221
  8
0
 10
6182.9254587040350089
 20
72.8025940785517207
 30
0.0
 11
6182.9254587040350089
 21
59.1212771805409503
 31
0.0
  0
LINE
  5
26223
  8
0
 10
6172.0570106510340338
 20
58.8191723274016027
 30
0.0
 11
6172.0570098869229696
 21
58.8100477579991434
 31
0.0
  0
ARC
  5
26224
  8
0
 10
6172.5448618949812953
 20
56.3819124814454469
 30
0.0
 40
2.4766590875459249
 50
97.3000407962875045
 51
101.3604043903626035
  0
ARC
  5
26225
  8
0
 10
6172.1916022052737389
 20
58.2256494065760322
 30
0.0
 40
0.6027608048782742
 50
99.6167062304359234
 51
102.9024999024355935
  0
ARC
  5
26226
  8
0
 10
6172.4038076515616922
 20
57.0881105226844099
 30
0.0
 40
1.759869151317238
 50
98.5447605341415169
 51
100.2414986522122007
  0
ARC
  5
26227
  8
0
 10
6172.1828714408929955
 20
58.5693677760358824
 30
0.0
 40
0.26223148285946
 50
96.1996476894273087
 51
98.8952982442799993
  0
ARC
  5
26228
  8
0
 10
6172.5095345096024175
 20
56.6809031299341015
 30
0.0
 40
2.1839059214014731
 50
97.349541756045511
 51
99.354628934038189
  0
LINE
  5
26229
  8
0
 10
6172.1545522127244112
 20
58.8360039058991404
 30
0.0
 11
6172.1545522127244112
 21
58.8300656316437909
 31
0.0
  0
ARC
  5
2622A
  8
0
 10
6172.3231282809892946
 20
57.568323670008958
 30
0.0
 40
1.2788397363464421
 50
97.5747493572132782
 51
102.0106541205273061
  0
LINE
  5
2622B
  8
0
 10
6172.0746361424244242
 20
58.8159883737537115
 30
0.0
 11
6172.0746361424244242
 21
58.8142631935603575
 31
0.0
  0
LINE
  5
2622C
  8
0
 10
6172.0570100838640428
 20
58.8123995056209026
 30
0.0
 11
6172.0746361424244242
 21
58.8157687344991373
 31
0.0
  0
LINE
  5
2622D
  8
0
 10
6172.0746361424244242
 20
58.8142631935603575
 30
0.0
 11
6172.0570099506239785
 21
58.8108218295069776
 31
0.0
  0
ARC
  5
2622E
  8
0
 10
6172.5150772891847737
 20
56.4740129251115022
 30
0.0
 40
2.3829933890065109
 50
99.3877977081164232
 51
100.6510371813738942
  0
LINE
  5
2622F
  8
0
 10
6172.1263733015239268
 20
58.8250908393541678
 30
0.0
 11
6172.1263733015239268
 21
58.8237312784991389
 31
0.0
  0
ARC
  5
26230
  8
0
 10
6172.3980268026889462
 20
57.1932252530745373
 30
0.0
 40
1.652980799537914
 50
99.4589885310846
 51
101.2821659277777968
  0
ARC
  5
26231
  8
0
 10
6172.6627337781510505
 20
55.5583143091418208
 30
0.0
 40
3.3109825157698252
 50
97.5069700020947039
 51
98.8288614740181401
  0
LINE
  5
26232
  8
0
 10
6172.2125382743688533
 20
58.83785366224825
 30
0.0
 11
6172.212537313123903
 21
58.8373435205991413
 31
0.0
  0
LINE
  5
26233
  8
0
 10
6172.212537313123903
 20
58.8373435205991413
 30
0.0
 11
6172.230163718323638
 21
58.8396155456991394
 31
0.0
  0
ARC
  5
26234
  8
0
 10
6172.4839542056142818
 20
56.7638870248737177
 30
0.0
 40
2.0916510752694939
 50
96.9691486370305995
 51
98.9365352895107719
  0
ARC
  5
26235
  8
0
 10
6171.9821049761585527
 20
59.8281986390247624
 30
0.0
 40
1.013429271187307
 50
278.1842344216203173
 51
279.1923213594267281
  0
ARC
  5
26236
  8
0
 10
6172.4117977840705862
 20
57.1729404420560101
 30
0.0
 40
1.6763722087997539
 50
98.6720609535535544
 51
99.1923213594266713
  0
LINE
  5
2623E
  8
0
 10
6159.5715623382147896
 20
58.6117317930991391
 30
0.0
 11
6160.6171270375170934
 21
58.6117317930991391
 31
0.0
  0
LINE
  5
2623F
  8
0
 10
6167.5097301011592208
 20
58.6706507015991434
 30
0.0
 11
6168.4269890393497917
 21
58.6706507015991434
 31
0.0
  0
ARC
  5
26244
  8
0
 10
6004.5512649709999096
 20
12194.5325929482605716
 30
0.0
 40
12135.8349245592999068
 50
270.7107199202083052
 51
270.7206666011845755
  0
ARC
  5
26245
  8
0
 10
6147.872806805989967
 20
800.5171158217143557
 30
0.0
 40
740.9180860144388134
 50
270.7206666011845755
 51
271.0255910696931778
  0
ARC
  5
26246
  8
0
 10
6153.5246694366687734
 20
484.8032818271344127
 30
0.0
 40
425.1536666655304089
 50
271.0255910696931778
 51
271.5474215502763968
  0
ARC
  5
26247
  8
0
 10
6157.6628249254181355
 20
331.6186540411424062
 30
0.0
 40
271.913154656525478
 50
271.5474215502763968
 51
272.4997577933137904
  0
ARC
  5
26248
  8
0
 10
6443.581848449665813
 20
-6217.6389421415860852
 30
0.0
 40
6283.5826121920990772
 50
92.4697644887075541
 51
92.4997577933137762
  0
ARC
  5
26249
  8
0
 10
6172.6120743918418157
 20
64.6537364257894041
 30
0.0
 40
4.5511266748308792
 50
272.4750394455733158
 51
284.7799367238238233
  0
ATTDEF
  5
2624A
  8
DEFPOINTS
 10
6183.7554936341248322
 20
43.1374406688696723
 30
0.0
 40
0.001
  1
K-23191PH-NS
  3

  2
MODELNUMBER
 70
     0
1001
ACDBATTR
1070
     0
1070
     1
  0
ATTDEF
  5
2624B
  8
DEFPOINTS
 10
6183.7554936341248322
 20
43.1357740022030001
 30
0.0
 40
0.001
  1
FAMILY CARE
  3

  2
TRADENAME
 70
     0
1001
ACDBATTR
1070
     0
1070
     1
  0
ATTDEF
  5
2624C
  8
DEFPOINTS
 10
6183.7554936341248322
 20
43.134107335536342
 30
0.0
 40
0.001
  1
TOILET
  3

  2
PRODUCT
 70
     0
1001
ACDBATTR
1070
     0
1070
     1
  0
ENDSEC
  0
EOF
