  0
SECTION
  2
HEADER
  9
$ACADVER
  1
AC1009
  9
$INSBASE
 10
4346.8686911145332488
 20
165.0793970291827009
 30
0.0
  9
$EXTMIN
 10
4339.5558393223891471
 20
142.2400201174127119
 30
0.0
  9
$EXTMAX
 10
4354.1815429066864453
 20
165.0862548174424944
 30
0.0
  9
$LIMMIN
 10
0.0
 20
0.0
  9
$LIMMAX
 10
11.6929133858000007
 20
8.2677165353999982
  9
$ORTHOMODE
 70
     0
  9
$REGENMODE
 70
     1
  9
$FILLMODE
 70
     1
  9
$QTEXTMODE
 70
     0
  9
$MIRRTEXT
 70
     0
  9
$DRAGMODE
 70
     2
  9
$LTSCALE
 40
0.6431102362
  9
$OSMODE
 70
  4095
  9
$ATTMODE
 70
     1
  9
$TEXTSIZE
 40
0.2
  9
$TRACEWID
 40
0.05
  9
$TEXTSTYLE
  7
STANDARD
  9
$CLAYER
  8
0
  9
$CELTYPE
  6
BYLAYER
  9
$CECOLOR
 62
   256
  9
$DIMSCALE
 40
1.0
  9
$DIMASZ
 40
0.1875
  9
$DIMEXO
 40
0.0625
  9
$DIMDLI
 40
0.4443307087
  9
$DIMRND
 40
0.0
  9
$DIMDLE
 40
0.0
  9
$DIMEXE
 40
0.125
  9
$DIMTP
 40
0.01
  9
$DIMTM
 40
0.01
  9
$DIMTXT
 40
2.0
  9
$DIMCEN
 40
0.1052362205
  9
$DIMTSZ
 40
0.0
  9
$DIMTOL
 70
     1
  9
$DIMLIM
 70
     0
  9
$DIMTIH
 70
     1
  9
$DIMTOH
 70
     1
  9
$DIMSE1
 70
     0
  9
$DIMSE2
 70
     0
  9
$DIMTAD
 70
     0
  9
$DIMZIN
 70
     0
  9
$DIMBLK
  1

  9
$DIMASO
 70
     1
  9
$DIMSHO
 70
     1
  9
$DIMPOST
  1
\X
  9
$DIMAPOST
  1

  9
$DIMALT
 70
     1
  9
$DIMALTD
 70
     2
  9
$DIMALTF
 40
25.3999999999999986
  9
$DIMLFAC
 40
1.0
  9
$DIMTOFL
 70
     0
  9
$DIMTVP
 40
0.0
  9
$DIMTIX
 70
     0
  9
$DIMSOXD
 70
     0
  9
$DIMSAH
 70
     0
  9
$DIMBLK1
  1

  9
$DIMBLK2
  1

  9
$DIMSTYLE
  2
STANDARD
  9
$DIMCLRD
 70
     0
  9
$DIMCLRE
 70
     0
  9
$DIMCLRT
 70
     0
  9
$DIMTFAC
 40
1.0
  9
$DIMGAP
 40
0.09
  9
$LUNITS
 70
     2
  9
$LUPREC
 70
     4
  9
$SKETCHINC
 40
0.1
  9
$FILLETRAD
 40
0.0
  9
$AUNITS
 70
     0
  9
$AUPREC
 70
     0
  9
$MENU
  1
.
  9
$ELEVATION
 40
0.0
  9
$PELEVATION
 40
0.0
  9
$THICKNESS
 40
0.0
  9
$LIMCHECK
 70
     0
  9
$BLIPMODE
 70
     0
  9
$CHAMFERA
 40
0.0
  9
$CHAMFERB
 40
0.0
  9
$SKPOLY
 70
     0
  9
$TDCREATE
 40
2458060.468368056230247
  9
$TDUPDATE
 40
2459386.0182638890109956
  9
$TDINDWG
 40
0.3850649306
  9
$TDUSRTIMER
 40
0.3850649306
  9
$USRTIMER
 70
     1
  9
$ANGBASE
 50
0.0
  9
$ANGDIR
 70
     0
  9
$PDMODE
 70
     0
  9
$PDSIZE
 40
0.3125
  9
$PLINEWID
 40
0.0
  9
$COORDS
 70
     1
  9
$SPLFRAME
 70
     0
  9
$SPLINETYPE
 70
     6
  9
$SPLINESEGS
 70
     8
  9
$ATTDIA
 70
     1
  9
$ATTREQ
 70
     1
  9
$HANDLING
 70
     1
  9
$HANDSEED
  5
979D
  9
$SURFTAB1
 70
     6
  9
$SURFTAB2
 70
     6
  9
$SURFTYPE
 70
     6
  9
$SURFU
 70
     6
  9
$SURFV
 70
     6
  9
$UCSNAME
  2

  9
$UCSORG
 10
0.0
 20
0.0
 30
0.0
  9
$UCSXDIR
 10
1.0
 20
0.0
 30
0.0
  9
$UCSYDIR
 10
0.0
 20
1.0
 30
0.0
  9
$PUCSNAME
  2

  9
$PUCSORG
 10
0.0
 20
0.0
 30
0.0
  9
$PUCSXDIR
 10
1.0
 20
0.0
 30
0.0
  9
$PUCSYDIR
 10
0.0
 20
1.0
 30
0.0
  9
$USERI1
 70
     0
  9
$USERI2
 70
     0
  9
$USERI3
 70
     0
  9
$USERI4
 70
     0
  9
$USERI5
 70
     0
  9
$USERR1
 40
0.0
  9
$USERR2
 40
0.0
  9
$USERR3
 40
0.0
  9
$USERR4
 40
0.0
  9
$USERR5
 40
0.0
  9
$WORLDVIEW
 70
     1
  9
$SHADEDGE
 70
     3
  9
$SHADEDIF
 70
    70
  9
$TILEMODE
 70
     1
  9
$MAXACTVP
 70
    64
  9
$PLIMCHECK
 70
     0
  9
$PEXTMIN
 10
1.0000000000000000E+20
 20
1.0000000000000000E+20
 30
1.0000000000000000E+20
  9
$PEXTMAX
 10
-1.0000000000000000E+20
 20
-1.0000000000000000E+20
 30
-1.0000000000000000E+20
  9
$PLIMMIN
 10
0.0
 20
0.0
  9
$PLIMMAX
 10
12.0
 20
9.0
  9
$UNITMODE
 70
     0
  9
$VISRETAIN
 70
     1
  9
$PLINEGEN
 70
     0
  9
$PSLTSCALE
 70
     1
  0
ENDSEC
  0
SECTION
  2
TABLES
  0
TABLE
  2
VPORT
 70
     1
  0
VPORT
  2
*ACTIVE
 70
     0
 10
0.0
 20
0.0
 11
1.0
 21
1.0
 12
318.1264806182480243
 22
18.1543289377424202
 13
0.0
 23
0.0
 14
1.0
 24
1.0
 15
0.0
 25
0.0
 16
0.0
 26
0.0
 36
47.0568789906323275
 17
4028.786865234375
 27
135.8743591308592897
 37
0.0
 40
23.055359681294
 41
1.67063492063492
 42
50.0
 43
0.0
 44
0.0
 50
0.0
 51
0.0
 71
     0
 72
   100
 73
     1
 74
     1
 75
     0
 76
     0
 77
     0
 78
     0
  0
ENDTAB
  0
TABLE
  2
LTYPE
 70
     2
  0
LTYPE
  2
CONTINUOUS
 70
     0
  3
Solid line
 72
    65
 73
     0
 40
0.0
  0
LTYPE
  2
PHANTOM2
 70
     0
  3
___ _ _ ___ _ _ ___ _ _ ___ _ _
 72
    65
 73
     6
 40
1.25
 49
0.625
 49
-0.125
 49
0.125
 49
-0.125
 49
0.125
 49
-0.125
  0
ENDTAB
  0
TABLE
  2
LAYER
 70
     2
  0
LAYER
  2
0
 70
     0
 62
   255
  6
CONTINUOUS
  0
LAYER
  2
DEFPOINTS
 70
     0
 62
     7
  6
CONTINUOUS
  0
ENDTAB
  0
TABLE
  2
STYLE
 70
     1
  0
STYLE
  2
STANDARD
 70
     0
 40
0.0
 41
0.8
 50
0.0
 71
     0
 42
0.2
  3
txt
  4

  0
ENDTAB
  0
TABLE
  2
VIEW
 70
     0
  0
ENDTAB
  0
TABLE
  2
UCS
 70
     0
  0
ENDTAB
  0
TABLE
  2
APPID
 70
     9
  0
APPID
  2
ACAD
 70
     0
  0
APPID
  2
ACAD_MLEADERVER
 70
     0
  0
APPID
  2
ACAD_EXEMPT_FROM_CAD_STANDARDS
 70
     0
  0
APPID
  2
ACAD_NAV_VCDISPLAY
 70
     0
  0
APPID
  2
ACAECLAYERSTANDARD
 70
     0
  0
APPID
  2
ACCMTRANSPARENCY
 70
     0
  0
APPID
  2
ACAD_DSTYLE_DIMJAG
 70
     0
  0
APPID
  2
ACAD_DSTYLE_DIMTALN
 70
     0
  0
APPID
  2
ACDBATTR
 70
     0
  0
ENDTAB
  0
TABLE
  2
DIMSTYLE
 70
     1
  0
DIMSTYLE
  2
STANDARD
 70
     0
  3

  4

  5

  6

  7

 40
1.0
 41
0.1875
 42
0.0625
 43
0.38
 44
0.125
 45
0.0
 46
0.0
 47
0.01
 48
0.01
140
0.15625
141
0.09
142
0.0
143
25.3999999999999986
144
1.0
145
0.0
146
1.0
147
0.09
 71
     1
 72
     0
 73
     1
 74
     1
 75
     0
 76
     0
 77
     0
 78
     4
170
     0
171
     2
172
     0
173
     0
174
     0
175
     0
176
     0
177
     0
178
     0
  0
ENDTAB
  0
ENDSEC
  0
SECTION
  2
BLOCKS
  0
BLOCK
  8
0
  2
$MODEL_SPACE
 70
     0
 10
0.0
 20
0.0
 30
0.0
  3
$MODEL_SPACE
  1

  0
ENDBLK
  5
21
  8
0
  0
BLOCK
 67
     1
  8
0
  2
$PAPER_SPACE
 70
     0
 10
0.0
 20
0.0
 30
0.0
  3
$PAPER_SPACE
  1

  0
ENDBLK
  5
1D
 67
     1
  8
0
  0
ENDSEC
  0
SECTION
  2
ENTITIES
  0
ATTDEF
  5
7608
  8
DEFPOINTS
 10
4346.8645917743479004
 20
165.0852548174424044
 30
0.0
 40
0.001
  1
K-23208K
  3

  2
MODELNUMBER
 70
     0
1001
ACDBATTR
1070
     0
1070
     1
  0
ATTDEF
  5
7609
  8
DEFPOINTS
 10
4346.8645917743479004
 20
165.0835881507757961
 30
0.0
 40
0.001
  1
PARLIAMENT GRANDE
  3

  2
TRADENAME
 70
     0
1001
ACDBATTR
1070
     0
1070
     1
  0
ATTDEF
  5
760A
  8
DEFPOINTS
 10
4346.8645917743479004
 20
165.0819214841091025
 30
0.0
 40
0.001
  1
TOILET
  3

  2
PRODUCT
 70
     0
1001
ACDBATTR
1070
     0
1070
     1
  0
LINE
  5
96AE
  8
0
 10
4339.9377629274385981
 20
165.0793957811497137
 30
0.0
 11
4353.7996164847390901
 21
165.0793957811497137
 31
0.0
  0
ARC
  5
96AF
  8
0
 10
4339.9377629274385981
 20
164.8431753087496929
 30
0.0
 40
0.2362204724000136
 50
90.0
 51
179.9999999999967031
  0
ARC
  5
96B0
  8
0
 10
4200.4912211062601273
 20
163.1281306014753056
 30
0.0
 40
139.2208854604002113
 50
357.7468804637819062
 51
0.7058374079847115
  0
ARC
  5
96B1
  8
0
 10
4347.0433921118055878
 20
148.6369442934037863
 30
0.0
 40
6.399309325539881
 50
215.7501489560735877
 51
268.4356195644875811
  0
ARC
  5
96B2
  8
0
 10
4349.8254083880874532
 20
150.944759664354109
 30
0.0
 40
10.0085245474121791
 50
193.5548893275569071
 51
217.1675080577375923
  0
ARC
  5
96B3
  8
0
 10
4364.6383519484516
 20
153.8775078606147986
 30
0.0
 40
25.1039099266291217
 50
182.3657959948450866
 51
192.1379766754648983
  0
ARC
  5
96B4
  8
0
 10
4341.5455772737686857
 20
159.1265470357321021
 30
0.0
 40
0.0481993178459133
 50
358.5800245897935952
 51
90.6625885047480438
  0
ARC
  5
96B5
  8
0
 10
4341.4338951107356479
 20
155.0572533617782938
 30
0.0
 40
4.1189890402838092
 50
88.4540493934482868
 51
90.8680118898606111
  0
ARC
  5
96B6
  8
0
 10
4341.3418562265496803
 20
157.0026916269067954
 30
0.0
 40
2.1732802343128812
 50
89.2185556466459531
 51
110.6428215640853949
  0
ARC
  5
96B7
  8
0
 10
4341.0905355927743585
 20
157.7275594633240985
 30
0.0
 40
1.4064981025815131
 50
111.4722782319507957
 51
145.3545682116669013
  0
ARC
  5
96B8
  8
0
 10
4341.3923083246991155
 20
157.4788266471423128
 30
0.0
 40
1.7964703834382241
 50
144.2997163330284138
 51
175.9788724769923078
  0
ARC
  5
96B9
  8
0
 10
4257.1266236765750364
 20
159.0409380001819954
 30
0.0
 40
82.4861396586043156
 50
357.871273467244805
 51
359.0023943668774109
  0
ARC
  5
96BA
  8
0
 10
4343.7979122150391049
 20
159.4153379299496862
 30
0.0
 40
1.1022833883388961
 50
347.8374729712343765
 51
192.1625270287655098
  0
LINE
  5
96BB
  8
0
 10
4342.1257461672239515
 20
159.1640049066456015
 30
0.0
 11
4342.1293532300678635
 21
159.0475656516044012
 31
0.0
  0
LINE
  5
96BC
  8
0
 10
4342.077142929949332
 20
159.183103729549714
 30
0.0
 11
4341.692135145285647
 21
159.183103729549714
 31
0.0
  0
LINE
  5
96BD
  8
0
 10
4342.2661671067517091
 20
159.0138140501497048
 30
0.0
 11
4351.4712123054177937
 21
159.0138140501497048
 31
0.0
  0
ARC
  5
96BE
  8
0
 10
4342.0858291830327289
 20
159.1284252032534141
 30
0.0
 40
0.0534722443918699
 50
41.7119746226290999
 51
73.046458983309023
  0
ARC
  5
96BF
  8
0
 10
4342.0781145798528087
 20
159.1045324941478043
 30
0.0
 40
0.0785772431192126
 50
72.7458114986648354
 51
90.7085112085286767
  0
ARC
  5
96C0
  8
0
 10
4342.190169157184755
 20
159.1014022216916999
 30
0.0
 40
0.0812216305550604
 50
221.5164749187206894
 51
265.60842161558611
  0
ARC
  5
96C1
  8
0
 10
4342.2603224408949245
 20
159.4560728184947038
 30
0.0
 40
0.4422973867174703
 50
260.0567557632504077
 51
270.7571476634188912
  0
LINE
  5
96C2
  8
0
 10
4341.6096629919638872
 20
159.0199351741198939
 30
0.0
 11
4341.6122493842785843
 21
159.1032156420151864
 31
0.0
  0
LINE
  5
96C3
  8
0
 10
4341.5937617901390695
 20
159.1253526224757024
 30
0.0
 11
4341.5958589115389259
 21
159.0175803136656896
 31
0.0
  0
ARC
  5
96C4
  8
0
 10
4341.6915856864907255
 20
159.1043127395965939
 30
0.0
 40
0.0787929057900323
 50
89.6004472126725915
 51
141.7383441461952032
  0
ARC
  5
96C5
  8
0
 10
4341.6949318660235804
 20
159.1022678554678009
 30
0.0
 40
0.0826879137890389
 50
142.0615977563655861
 51
179.3432491253497858
  0
LINE
  5
96C6
  8
0
 10
4341.6873211130778145
 20
159.0596408832952875
 30
0.0
 11
4341.6914802463061278
 21
159.1831055806810014
 31
0.0
  0
ARC
  5
96C7
  8
0
 10
4341.6353160086546268
 20
159.0861954549907011
 30
0.0
 40
0.0583924324213259
 50
279.5968792132279077
 51
332.9504746376949811
  0
ARC
  5
96C8
  8
0
 10
4341.5375098511285614
 20
159.392689778553688
 30
0.0
 40
0.3796204993137331
 50
272.764323534679022
 51
286.4564031228177896
  0
ARC
  5
96C9
  8
0
 10
4341.4247593645523011
 20
164.9535639095153954
 30
0.0
 40
5.9414985251037757
 50
269.4169172031021162
 51
271.2639442516381791
  0
ARC
  5
96CA
  8
0
 10
4341.3597768750350951
 20
157.1956314384804045
 30
0.0
 40
1.816747229787647
 50
89.8574942761234894
 51
97.6922130938011577
  0
ARC
  5
96CB
  8
0
 10
4341.3565744085335609
 20
157.2147921045678061
 30
0.0
 40
1.7973304310761951
 50
97.6728003495346542
 51
126.1372288604787002
  0
ARC
  5
96CC
  8
0
 10
4341.2703844747820767
 20
157.3113144202802118
 30
0.0
 40
1.668598538711739
 50
125.7016059242569952
 51
149.5587822082185028
  0
ARC
  5
96CD
  8
0
 10
4341.2906084106807612
 20
157.2871707045889877
 30
0.0
 40
1.6982999929752169
 50
149.2022137933082035
 51
179.7614974130179917
  0
LINE
  5
96CE
  8
0
 10
4352.5154487875788618
 20
158.8884002284495125
 30
0.0
 11
4341.2219306245970074
 21
158.8884002284495125
 31
0.0
  0
LINE
  5
96CF
  8
0
 10
4342.1638392716577073
 20
159.1831028084444029
 30
0.0
 11
4351.5735401405199809
 21
159.1831028084444029
 31
0.0
  0
LINE
  5
96D0
  8
0
 10
4342.1442816640392266
 20
159.1634033230600096
 30
0.0
 11
4342.1442816640392266
 21
159.0329557137966106
 31
0.0
  0
ARC
  5
96D1
  8
0
 10
4342.1639816640390563
 20
159.1634033230600096
 30
0.0
 40
0.0197
 50
90.4141397699918343
 51
180.0
  0
ARC
  5
96D2
  8
0
 10
4341.3652626788862108
 20
157.1830512367903054
 30
0.0
 40
1.711361814795346
 50
94.8043337001286233
 51
103.5663587190691004
  0
ARC
  5
96D3
  8
0
 10
4341.3648704269226073
 20
157.1846767875798037
 30
0.0
 40
1.709689607579991
 50
103.5663587190691004
 51
147.2982235888823936
  0
ARC
  5
96D4
  8
0
 10
4342.2550218030455653
 20
156.7878779959177962
 30
0.0
 40
2.67716341389692
 50
150.446175836874005
 51
175.7487283712349893
  0
ARC
  5
96D5
  8
0
 10
4534.120877081180879
 20
192.9891846991534976
 30
0.0
 40
198.8582923332876078
 50
192.0679582076876102
 51
192.8736892190518972
  0
ARC
  5
96D6
  8
0
 10
4349.514366575323038
 20
151.1415862483306967
 30
0.0
 40
9.5742402436701681
 50
194.8793774994753107
 51
218.5471256459960046
  0
ARC
  5
96D7
  8
0
 10
4347.509807703111619
 20
149.5008033331197055
 30
0.0
 40
6.9840990324656946
 50
218.267439011545207
 51
247.7006621578015881
  0
ARC
  5
96D8
  8
0
 10
4346.8445211450998613
 20
148.1081157543648885
 30
0.0
 40
5.4438214456764049
 50
248.617248218605198
 51
270.2543729812339279
  0
ARC
  5
96D9
  8
0
 10
4353.7996164847390901
 20
164.8431753087496077
 30
0.0
 40
0.2362204724000172
 50
0.0000000000065138
 51
90.0
  0
ARC
  5
96DA
  8
0
 10
4493.2461583059157419
 20
163.1281306014753056
 30
0.0
 40
139.2208854604002113
 50
179.2941625920153115
 51
182.2531195362180085
  0
ARC
  5
96DB
  8
0
 10
4346.6939873003721004
 20
148.6369442934037863
 30
0.0
 40
6.399309325539881
 50
271.5643804355124189
 51
324.2498510439251049
  0
ARC
  5
96DC
  8
0
 10
4343.911971024090235
 20
150.944759664354109
 30
0.0
 40
10.0085245474121791
 50
322.8324919422623793
 51
346.4451106724430929
  0
ARC
  5
96DD
  8
0
 10
4327.1795076336538841
 20
154.1217837744104031
 30
0.0
 40
27.0323825219663902
 50
348.2113145918651185
 51
357.2848378602291177
  0
ARC
  5
96DE
  8
0
 10
4352.191802138408093
 20
159.1265470357321021
 30
0.0
 40
0.0481993178459133
 50
89.3374114952519562
 51
181.4199754102064048
  0
ARC
  5
96DF
  8
0
 10
4352.3034843014411308
 20
155.0572533617782938
 30
0.0
 40
4.1189890402838092
 50
89.1319881101393889
 51
91.5459506065517132
  0
ARC
  5
96E0
  8
0
 10
4352.3955231856280079
 20
157.0026916269067954
 30
0.0
 40
2.1732802343128812
 50
69.357178435914534
 51
90.7814443533540327
  0
ARC
  5
96E1
  8
0
 10
4352.6468438194033297
 20
157.7275594633240985
 30
0.0
 40
1.4064981025815131
 50
34.6454317883330987
 51
68.5277217680491901
  0
ARC
  5
96E2
  8
0
 10
4352.3450710874767537
 20
157.4788266471423128
 30
0.0
 40
1.7964703834382241
 50
4.0211275230076522
 51
35.7002836669716217
  0
ARC
  5
96E3
  8
0
 10
4294.5080362574572064
 20
155.1629700418897073
 30
0.0
 40
59.6790588044953125
 50
0.7815572857738465
 51
2.3449730335548429
  0
ARC
  5
96E4
  8
0
 10
4349.9394671971376738
 20
159.4153379299496862
 30
0.0
 40
1.1022833883388961
 50
347.8375219488789867
 51
192.1624780511193933
  0
LINE
  5
96E5
  8
0
 10
4351.6116332449528272
 20
159.1640049066456015
 30
0.0
 11
4351.6080261821098247
 21
159.0475656516044012
 31
0.0
  0
LINE
  5
96E6
  8
0
 10
4351.6582931823677427
 20
159.183103729549714
 30
0.0
 11
4352.0452442668911317
 21
159.183103729549714
 31
0.0
  0
ARC
  5
96E7
  8
0
 10
4351.6515502291440498
 20
159.1284252032534141
 30
0.0
 40
0.0534722443918699
 50
106.9535410166910054
 51
138.2880253773709001
  0
ARC
  5
96E8
  8
0
 10
4351.65926483232397
 20
159.1045324941478043
 30
0.0
 40
0.0785772431192126
 50
89.2914887914713233
 51
107.254188501335193
  0
ARC
  5
96E9
  8
0
 10
4351.5472102549920237
 20
159.1014022216916999
 30
0.0
 40
0.0812216305550604
 50
274.3915783844137763
 51
318.4835250812791969
  0
ARC
  5
96EA
  8
0
 10
4351.4770569712809447
 20
159.4560728184947038
 30
0.0
 40
0.4422973867174703
 50
269.2428523365811088
 51
279.9432442367495923
  0
LINE
  5
96EB
  8
0
 10
4352.127716420213801
 20
159.0199351741198939
 30
0.0
 11
4352.1251300278981944
 21
159.1032156420151864
 31
0.0
  0
LINE
  5
96EC
  8
0
 10
4352.1436176220386187
 20
159.1253526224757024
 30
0.0
 11
4352.1415205006387623
 21
159.0175803136656896
 31
0.0
  0
ARC
  5
96ED
  8
0
 10
4352.0457937256869627
 20
159.1043127395965939
 30
0.0
 40
0.0787929057900323
 50
38.2616558538047968
 51
90.3995527873273943
  0
ARC
  5
96EE
  8
0
 10
4352.0424475461522889
 20
159.1022678554678009
 30
0.0
 40
0.0826879137890389
 50
0.6567508746501546
 51
37.9384022436344068
  0
LINE
  5
96EF
  8
0
 10
4352.0500582990989642
 20
159.0596408832952875
 30
0.0
 11
4352.0458991658697414
 21
159.1831055806810014
 31
0.0
  0
ARC
  5
96F0
  8
0
 10
4352.1020634035221519
 20
159.0861954549907011
 30
0.0
 40
0.0583924324213259
 50
207.0495253623049905
 51
260.4031207867719218
  0
ARC
  5
96F1
  8
0
 10
4352.1998695610482173
 20
159.392689778553688
 30
0.0
 40
0.3796204993137331
 50
253.5435968771822104
 51
267.235676465320978
  0
ARC
  5
96F2
  8
0
 10
4352.3126200476262966
 20
164.9535639095153954
 30
0.0
 40
5.9414985251037757
 50
268.7360557483618209
 51
270.5830827968978838
  0
ARC
  5
96F3
  8
0
 10
4352.3776025371416836
 20
157.1956314384804045
 30
0.0
 40
1.816747229787647
 50
82.3077869061988565
 51
90.1425057238765248
  0
ARC
  5
96F4
  8
0
 10
4352.3808050036441273
 20
157.2147921045678061
 30
0.0
 40
1.7973304310761951
 50
53.8627711395213211
 51
82.3271996504653458
  0
ARC
  5
96F5
  8
0
 10
4352.466994937394702
 20
157.3113144202802118
 30
0.0
 40
1.668598538711739
 50
30.4412177917815114
 51
54.2983940757429266
  0
ARC
  5
96F6
  8
0
 10
4352.4467710014960176
 20
157.2871707045889877
 30
0.0
 40
1.6982999929752169
 50
0.2385025869819871
 51
30.7977862066917893
  0
LINE
  5
96F7
  8
0
 10
4351.5930977481375521
 20
159.1634033230600096
 30
0.0
 11
4351.5930977481375521
 21
159.0343851250468958
 31
0.0
  0
ARC
  5
96F8
  8
0
 10
4351.5733977481386319
 20
159.1634033230600096
 30
0.0
 40
0.0197
 50
0.0
 51
89.5858602300081657
  0
ARC
  5
96F9
  8
0
 10
4352.3721167332905679
 20
157.1830512367903054
 30
0.0
 40
1.711361814795346
 50
76.4336412809308428
 51
85.1956662998713767
  0
ARC
  5
96FA
  8
0
 10
4352.3725089852532619
 20
157.1846767875798037
 30
0.0
 40
1.709689607579991
 50
32.7017764111175424
 51
76.4336412809308428
  0
ARC
  5
96FB
  8
0
 10
4351.4823576091312134
 20
156.7878779959177962
 30
0.0
 40
2.67716341389692
 50
4.2512716287649397
 51
29.5538241631259986
  0
ARC
  5
96FC
  8
0
 10
4205.6399759003452345
 20
182.6407615373987881
 30
0.0
 40
151.6861191345084023
 50
347.0636677384508744
 51
348.0992506436400049
  0
ARC
  5
96FD
  8
0
 10
4344.2230128368546502
 20
151.1415862483306967
 30
0.0
 40
9.5742402436701681
 50
321.4528743540038818
 51
345.1206225005246893
  0
ARC
  5
96FE
  8
0
 10
4346.2275717090651597
 20
149.5008033331197055
 30
0.0
 40
6.9840990324656946
 50
292.2993378421983266
 51
321.732560988454793
  0
ARC
  5
96FF
  8
0
 10
4346.8928582670769174
 20
148.1081157543648885
 30
0.0
 40
5.4438214456764049
 50
269.7456270187660721
 51
291.382751781394802
  0
LINE
  5
9701
  8
0
 10
4354.1815429066864453
 20
152.8412386061903874
 30
0.0
 11
4354.1815429066864453
 21
155.9770117943847083
 31
0.0
  0
LINE
  5
9702
  8
0
 10
4339.5558393223891471
 20
155.9770117943845094
 30
0.0
 11
4339.5558393223891471
 21
152.8412386061903021
 31
0.0
  0
ENDSEC
  0
EOF
