  0
SECTION
  2
HEADER
  9
$ACADVER
  1
AC1009
  9
$INSBASE
 10
4528.6685314236110571
 20
269.2821448199861152
 30
0.0
  9
$EXTMIN
 10
4515.6734526835098222
 20
268.2978928514859831
 30
0.0
  9
$EXTMAX
 10
4541.641956620511337
 20
270.2663967884860199
 30
0.0
  9
$LIMMIN
 10
0.0
 20
0.0
  9
$LIMMAX
 10
11.6929133858000007
 20
8.2677165353999982
  9
$ORTHOMODE
 70
     1
  9
$REGENMODE
 70
     1
  9
$FILLMODE
 70
     1
  9
$QTEXTMODE
 70
     0
  9
$MIRRTEXT
 70
     0
  9
$DRAGMODE
 70
     2
  9
$LTSCALE
 40
0.6431102362
  9
$OSMODE
 70
  4095
  9
$ATTMODE
 70
     1
  9
$TEXTSIZE
 40
0.2
  9
$TRACEWID
 40
0.05
  9
$TEXTSTYLE
  7
STANDARD
  9
$CLAYER
  8
0
  9
$CELTYPE
  6
BYLAYER
  9
$CECOLOR
 62
   256
  9
$DIMSCALE
 40
1.0
  9
$DIMASZ
 40
0.1875
  9
$DIMEXO
 40
0.0625
  9
$DIMDLI
 40
0.4443307087
  9
$DIMRND
 40
0.0
  9
$DIMDLE
 40
0.0
  9
$DIMEXE
 40
0.125
  9
$DIMTP
 40
0.01
  9
$DIMTM
 40
0.01
  9
$DIMTXT
 40
2.0
  9
$DIMCEN
 40
0.1052362205
  9
$DIMTSZ
 40
0.0
  9
$DIMTOL
 70
     1
  9
$DIMLIM
 70
     0
  9
$DIMTIH
 70
     1
  9
$DIMTOH
 70
     1
  9
$DIMSE1
 70
     0
  9
$DIMSE2
 70
     0
  9
$DIMTAD
 70
     0
  9
$DIMZIN
 70
     0
  9
$DIMBLK
  1

  9
$DIMASO
 70
     1
  9
$DIMSHO
 70
     1
  9
$DIMPOST
  1
\X
  9
$DIMAPOST
  1

  9
$DIMALT
 70
     1
  9
$DIMALTD
 70
     2
  9
$DIMALTF
 40
25.3999999999999986
  9
$DIMLFAC
 40
1.0
  9
$DIMTOFL
 70
     0
  9
$DIMTVP
 40
0.0
  9
$DIMTIX
 70
     0
  9
$DIMSOXD
 70
     0
  9
$DIMSAH
 70
     0
  9
$DIMBLK1
  1

  9
$DIMBLK2
  1

  9
$DIMSTYLE
  2
STANDARD
  9
$DIMCLRD
 70
     0
  9
$DIMCLRE
 70
     0
  9
$DIMCLRT
 70
     0
  9
$DIMTFAC
 40
1.0
  9
$DIMGAP
 40
0.09
  9
$LUNITS
 70
     2
  9
$LUPREC
 70
     4
  9
$SKETCHINC
 40
0.1
  9
$FILLETRAD
 40
0.0
  9
$AUNITS
 70
     0
  9
$AUPREC
 70
     0
  9
$MENU
  1
.
  9
$ELEVATION
 40
0.0
  9
$PELEVATION
 40
0.0
  9
$THICKNESS
 40
0.0
  9
$LIMCHECK
 70
     0
  9
$BLIPMODE
 70
     0
  9
$CHAMFERA
 40
0.0
  9
$CHAMFERB
 40
0.0
  9
$SKPOLY
 70
     0
  9
$TDCREATE
 40
2458060.468368056230247
  9
$TDUPDATE
 40
2459863.4972106488421559
  9
$TDINDWG
 40
0.5115927083
  9
$TDUSRTIMER
 40
0.5115927083
  9
$USRTIMER
 70
     1
  9
$ANGBASE
 50
0.0
  9
$ANGDIR
 70
     0
  9
$PDMODE
 70
     0
  9
$PDSIZE
 40
0.3125
  9
$PLINEWID
 40
0.0
  9
$COORDS
 70
     1
  9
$SPLFRAME
 70
     0
  9
$SPLINETYPE
 70
     6
  9
$SPLINESEGS
 70
     8
  9
$ATTDIA
 70
     1
  9
$ATTREQ
 70
     1
  9
$HANDLING
 70
     1
  9
$HANDSEED
  5
2021E
  9
$SURFTAB1
 70
     6
  9
$SURFTAB2
 70
     6
  9
$SURFTYPE
 70
     6
  9
$SURFU
 70
     6
  9
$SURFV
 70
     6
  9
$UCSNAME
  2

  9
$UCSORG
 10
0.0
 20
0.0
 30
0.0
  9
$UCSXDIR
 10
1.0
 20
0.0
 30
0.0
  9
$UCSYDIR
 10
0.0
 20
1.0
 30
0.0
  9
$PUCSNAME
  2

  9
$PUCSORG
 10
0.0
 20
0.0
 30
0.0
  9
$PUCSXDIR
 10
1.0
 20
0.0
 30
0.0
  9
$PUCSYDIR
 10
0.0
 20
1.0
 30
0.0
  9
$USERI1
 70
     0
  9
$USERI2
 70
     0
  9
$USERI3
 70
     0
  9
$USERI4
 70
     0
  9
$USERI5
 70
     0
  9
$USERR1
 40
0.0
  9
$USERR2
 40
0.0
  9
$USERR3
 40
0.0
  9
$USERR4
 40
0.0
  9
$USERR5
 40
0.0
  9
$WORLDVIEW
 70
     1
  9
$SHADEDGE
 70
     3
  9
$SHADEDIF
 70
    70
  9
$TILEMODE
 70
     1
  9
$MAXACTVP
 70
    64
  9
$PLIMCHECK
 70
     0
  9
$PEXTMIN
 10
1.0000000000000000E+20
 20
1.0000000000000000E+20
 30
1.0000000000000000E+20
  9
$PEXTMAX
 10
-1.0000000000000000E+20
 20
-1.0000000000000000E+20
 30
-1.0000000000000000E+20
  9
$PLIMMIN
 10
0.0
 20
0.0
  9
$PLIMMAX
 10
12.0
 20
9.0
  9
$UNITMODE
 70
     0
  9
$VISRETAIN
 70
     1
  9
$PLINEGEN
 70
     0
  9
$PSLTSCALE
 70
     1
  0
ENDSEC
  0
SECTION
  2
TABLES
  0
TABLE
  2
VPORT
 70
     1
  0
VPORT
  2
*ACTIVE
 70
     0
 10
0.0
 20
0.0
 11
1.0
 21
1.0
 12
-0.0441368638212225
 22
1.8742821675836869
 13
0.0
 23
0.0
 14
1.0
 24
1.0
 15
0.0
 25
0.0
 16
0.0
 26
0.0
 36
85.7126100102011463
 17
4528.65771484375
 27
269.282135009765625
 37
0.0
 40
16.6756174682885892
 41
1.583333333333333
 42
50.0
 43
0.0
 44
0.0
 50
0.0
 51
0.0
 71
     0
 72
   100
 73
     1
 74
     1
 75
     0
 76
     0
 77
     0
 78
     0
  0
ENDTAB
  0
TABLE
  2
LTYPE
 70
     2
  0
LTYPE
  2
CONTINUOUS
 70
     0
  3
Solid line
 72
    65
 73
     0
 40
0.0
  0
LTYPE
  2
PHANTOM2
 70
     0
  3
___ _ _ ___ _ _ ___ _ _ ___ _ _
 72
    65
 73
     6
 40
1.25
 49
0.625
 49
-0.125
 49
0.125
 49
-0.125
 49
0.125
 49
-0.125
  0
ENDTAB
  0
TABLE
  2
LAYER
 70
     2
  0
LAYER
  2
0
 70
     0
 62
   255
  6
CONTINUOUS
  0
LAYER
  2
DEFPOINTS
 70
     0
 62
     7
  6
CONTINUOUS
  0
ENDTAB
  0
TABLE
  2
STYLE
 70
     1
  0
STYLE
  2
STANDARD
 70
     0
 40
0.0
 41
0.8
 50
0.0
 71
     0
 42
0.2
  3
txt
  4

  0
ENDTAB
  0
TABLE
  2
VIEW
 70
     0
  0
ENDTAB
  0
TABLE
  2
UCS
 70
     0
  0
ENDTAB
  0
TABLE
  2
APPID
 70
    11
  0
APPID
  2
ACAD
 70
     0
  0
APPID
  2
ACAD_MLEADERVER
 70
     0
  0
APPID
  2
ACAD_EXEMPT_FROM_CAD_STANDARDS
 70
     0
  0
APPID
  2
ACAD_NAV_VCDISPLAY
 70
     0
  0
APPID
  2
ACAECLAYERSTANDARD
 70
     0
  0
APPID
  2
ACCMTRANSPARENCY
 70
     0
  0
APPID
  2
ACAD_DSTYLE_DIMJAG
 70
     0
  0
APPID
  2
ACAD_DSTYLE_DIMTALN
 70
     0
  0
APPID
  2
ACDBATTR
 70
     0
  0
APPID
  2
ACADANNOTATIVE
 70
     0
  0
APPID
  2
DCO15
 70
     0
  0
ENDTAB
  0
TABLE
  2
DIMSTYLE
 70
     1
  0
DIMSTYLE
  2
STANDARD
 70
     0
  3

  4

  5

  6

  7

 40
1.0
 41
0.1875
 42
0.0625
 43
0.38
 44
0.125
 45
0.0
 46
0.0
 47
0.01
 48
0.01
140
0.15625
141
0.09
142
0.0
143
25.3999999999999986
144
1.0
145
0.0
146
1.0
147
0.09
 71
     1
 72
     0
 73
     1
 74
     1
 75
     0
 76
     0
 77
     0
 78
     4
170
     0
171
     2
172
     0
173
     0
174
     0
175
     0
176
     0
177
     0
178
     0
  0
ENDTAB
  0
ENDSEC
  0
SECTION
  2
BLOCKS
  0
BLOCK
  8
0
  2
$MODEL_SPACE
 70
     0
 10
0.0
 20
0.0
 30
0.0
  3
$MODEL_SPACE
  1

  0
ENDBLK
  5
21
  8
0
  0
BLOCK
 67
     1
  8
0
  2
$PAPER_SPACE
 70
     0
 10
0.0
 20
0.0
 30
0.0
  3
$PAPER_SPACE
  1

  0
ENDBLK
  5
1D
 67
     1
  8
0
  0
BLOCK
  8
0
  2
_FILLED
 70
     0
 10
0.0
 20
0.0
 30
0.0
  3
_FILLED
  1

  0
SOLID
  5
1FF3E
  8
0
  6
BYBLOCK
 62
     0
 10
0.0
 20
0.0
 30
0.0
 11
-1.0
 21
0.1666666667
 31
0.0
 12
-1.0
 22
-0.1666666667
 32
0.0
 13
-1.0
 23
-0.1666666667
 33
0.0
  0
ENDBLK
  5
1FF3F
  8
0
  6
BYBLOCK
 62
     0
  0
ENDSEC
  0
SECTION
  2
ENTITIES
  0
ATTDEF
  5
1FD29
  8
DEFPOINTS
 10
4528.669202417935594
 20
269.2804798521218004
 30
0.0
 40
0.001
  1
K-23285
  3

  2
MODELNUMBER
 70
     0
1001
ACDBATTR
1070
     0
1070
     1
  0
ATTDEF
  5
1FD2A
  8
DEFPOINTS
 10
4528.669202417935594
 20
269.2788130117427272
 30
0.0
 40
0.001
  1
SQUARE
  3

  2
TRADENAME
 70
     0
1001
ACDBATTR
1070
     0
1070
     1
  0
ATTDEF
  5
1FD2B
  8
DEFPOINTS
 10
4528.669202417935594
 20
269.2771465187885269
 30
0.0
 40
0.001
  1
TOWEL BAR
  3

  2
PRODUCT
 70
     0
1001
ACDBATTR
1070
     0
1070
     1
  0
LINE
  5
1FF64
  8
0
 10
4515.6734526835098222
 20
268.3372629301860002
 30
0.0
 11
4515.6734526835098222
 21
270.2270267097860028
 31
0.0
  0
LINE
  5
1FF65
  8
0
 10
4516.2580983527095668
 20
269.3845070246860018
 30
0.0
 11
4516.2580983527095668
 21
269.1797826152860011
 31
0.0
  0
LINE
  5
1FF66
  8
0
 10
4516.2600668567110915
 20
269.1049794656859717
 30
0.0
 11
4516.2600668567110915
 21
269.4593101742859744
 31
0.0
  0
LINE
  5
1FF67
  8
0
 10
4517.641956620511337
 20
270.2270267097860028
 30
0.0
 11
4517.641956620511337
 21
269.4789952136860052
 31
0.0
  0
LINE
  5
1FF68
  8
0
 10
4517.641956620511337
 20
269.0852944262859978
 30
0.0
 11
4517.641956620511337
 21
268.3372629301860002
 31
0.0
  0
LINE
  5
1FF69
  8
0
 10
4541.6025865417113891
 20
268.2978928514859831
 30
0.0
 11
4539.7128227622106351
 21
268.2978928514859831
 31
0.0
  0
LINE
  5
1FF6A
  8
0
 10
4517.6025865417095702
 20
268.2978928514859831
 30
0.0
 11
4515.7128227622097256
 21
268.2978928514859831
 31
0.0
  0
LINE
  5
1FF6B
  8
0
 10
4541.0403818173108448
 20
269.0852944262859978
 30
0.0
 11
4516.2797518960096568
 21
269.0852944262859978
 31
0.0
  0
LINE
  5
1FF6C
  8
0
 10
4516.2797518960096568
 20
269.4789952136860052
 30
0.0
 11
4541.0403818173108448
 21
269.4789952136860052
 31
0.0
  0
LINE
  5
1FF6D
  8
0
 10
4515.7128227622097256
 20
270.2663967884860199
 30
0.0
 11
4517.6025865417095702
 21
270.2663967884860199
 31
0.0
  0
LINE
  5
1FF6E
  8
0
 10
4539.7128227622106351
 20
270.2663967884860199
 30
0.0
 11
4541.6025865417113891
 21
270.2663967884860199
 31
0.0
  0
LINE
  5
1FF6F
  8
0
 10
4539.6734526835107317
 20
268.3372629301860002
 30
0.0
 11
4539.6734526835107317
 21
269.0852944262859978
 31
0.0
  0
LINE
  5
1FF70
  8
0
 10
4539.6734526835107317
 20
269.4789952136860052
 30
0.0
 11
4539.6734526835107317
 21
270.2270267097860028
 31
0.0
  0
LINE
  5
1FF71
  8
0
 10
4541.0600668567121829
 20
269.1049794656859717
 30
0.0
 11
4541.0600668567121829
 21
269.4593101742859744
 31
0.0
  0
LINE
  5
1FF72
  8
0
 10
4541.641956620511337
 20
270.2270267097860028
 30
0.0
 11
4541.641956620511337
 21
268.3372629301860002
 31
0.0
  0
ARC
  5
1FF73
  8
0
 10
4516.3132164630096668
 20
269.1797826152860011
 30
0.0
 40
0.0551181102
 50
180.0000000001986109
 51
195.3588854405948041
  0
ARC
  5
1FF74
  8
0
 10
4516.3132164630096668
 20
269.3845070246860018
 30
0.0
 40
0.0551181102
 50
164.6411145594051106
 51
179.9999999998013038
  0
ARC
  5
1FF75
  8
0
 10
4541.6025865417113891
 20
270.2270267097860028
 30
0.0
 40
0.0393700787
 50
0.0
 51
90.0
  0
ARC
  5
1FF76
  8
0
 10
4539.7128227622106351
 20
270.2270267097860028
 30
0.0
 40
0.0393700787
 50
90.0
 51
180.0
  0
ARC
  5
1FF77
  8
0
 10
4539.7128227622106351
 20
268.3372629301860002
 30
0.0
 40
0.0393700787
 50
180.0
 51
270.0
  0
ARC
  5
1FF78
  8
0
 10
4541.6025865417113891
 20
268.3372629301860002
 30
0.0
 40
0.0393700787
 50
270.0
 51
0.0
  0
ARC
  5
1FF79
  8
0
 10
4517.6025865417095702
 20
270.2270267097860028
 30
0.0
 40
0.0393700787
 50
0.0
 51
90.0
  0
ARC
  5
1FF7A
  8
0
 10
4515.7128227622097256
 20
270.2270267097860028
 30
0.0
 40
0.0393700787
 50
90.0
 51
180.0
  0
ARC
  5
1FF7B
  8
0
 10
4515.7128227622097256
 20
268.3372629301860002
 30
0.0
 40
0.0393700787
 50
180.0
 51
270.0
  0
ARC
  5
1FF7C
  8
0
 10
4517.6025865417095702
 20
268.3372629301860002
 30
0.0
 40
0.0393700787
 50
270.0
 51
0.0
  0
ARC
  5
1FF7D
  8
0
 10
4541.0403818173108448
 20
269.1049794656859717
 30
0.0
 40
0.0196850394
 50
270.0
 51
0.0
  0
ARC
  5
1FF7E
  8
0
 10
4541.0403818173108448
 20
269.4593101742859744
 30
0.0
 40
0.0196850394
 50
0.0
 51
90.0
  0
ARC
  5
1FF7F
  8
0
 10
4516.2797518960096568
 20
269.4593101742859744
 30
0.0
 40
0.0196850394
 50
90.0
 51
180.0000000001008971
  0
ARC
  5
1FF80
  8
0
 10
4516.2797518960096568
 20
269.1049794656859717
 30
0.0
 40
0.0196850394
 50
179.9999999998989892
 51
270.0
  0
LINE
  5
1FF81
  8
0
 10
4516.3388070142109427
 20
269.0852944262859978
 30
0.0
 11
4516.3388070142109427
 21
269.4789952136860052
 31
0.0
  0
LINE
  5
1FF82
  8
0
 10
4540.9813266992123317
 20
269.0852944262859978
 30
0.0
 11
4540.9813266992123317
 21
269.4789952136860052
 31
0.0
  0
ENDSEC
  0
EOF
