  0
SECTION
  2
HEADER
  9
$ACADVER
  1
AC1009
  9
$INSBASE
 10
4425.6389780293429794
 20
243.5916430580732026
 30
0.0
  9
$EXTMIN
 10
4415.5713294048982789
 20
222.9999750525878994
 30
-0.0000000000112498
  9
$EXTMAX
 10
4433.4979769111487258
 20
243.6112937315674003
 30
0.0000000000002956
  9
$LIMMIN
 10
0.0
 20
0.0
  9
$LIMMAX
 10
11.6929133858000007
 20
8.2677165353999982
  9
$ORTHOMODE
 70
     0
  9
$REGENMODE
 70
     1
  9
$FILLMODE
 70
     1
  9
$QTEXTMODE
 70
     0
  9
$MIRRTEXT
 70
     0
  9
$DRAGMODE
 70
     2
  9
$LTSCALE
 40
0.6431102362
  9
$OSMODE
 70
     7
  9
$ATTMODE
 70
     1
  9
$TEXTSIZE
 40
0.2
  9
$TRACEWID
 40
0.05
  9
$TEXTSTYLE
  7
STANDARD
  9
$CLAYER
  8
0
  9
$CELTYPE
  6
BYLAYER
  9
$CECOLOR
 62
   256
  9
$DIMSCALE
 40
1.0
  9
$DIMASZ
 40
0.1875
  9
$DIMEXO
 40
0.0625
  9
$DIMDLI
 40
0.4443307087
  9
$DIMRND
 40
0.0
  9
$DIMDLE
 40
0.0
  9
$DIMEXE
 40
0.125
  9
$DIMTP
 40
0.01
  9
$DIMTM
 40
0.01
  9
$DIMTXT
 40
2.0
  9
$DIMCEN
 40
0.1052362205
  9
$DIMTSZ
 40
0.0
  9
$DIMTOL
 70
     1
  9
$DIMLIM
 70
     0
  9
$DIMTIH
 70
     1
  9
$DIMTOH
 70
     1
  9
$DIMSE1
 70
     0
  9
$DIMSE2
 70
     0
  9
$DIMTAD
 70
     0
  9
$DIMZIN
 70
     0
  9
$DIMBLK
  1

  9
$DIMASO
 70
     1
  9
$DIMSHO
 70
     1
  9
$DIMPOST
  1
\X
  9
$DIMAPOST
  1

  9
$DIMALT
 70
     1
  9
$DIMALTD
 70
     2
  9
$DIMALTF
 40
25.3999999999999986
  9
$DIMLFAC
 40
1.0
  9
$DIMTOFL
 70
     0
  9
$DIMTVP
 40
0.0
  9
$DIMTIX
 70
     0
  9
$DIMSOXD
 70
     0
  9
$DIMSAH
 70
     0
  9
$DIMBLK1
  1

  9
$DIMBLK2
  1

  9
$DIMSTYLE
  2
STANDARD
  9
$DIMCLRD
 70
     0
  9
$DIMCLRE
 70
     0
  9
$DIMCLRT
 70
     0
  9
$DIMTFAC
 40
1.0
  9
$DIMGAP
 40
0.09
  9
$LUNITS
 70
     2
  9
$LUPREC
 70
     4
  9
$SKETCHINC
 40
0.1
  9
$FILLETRAD
 40
0.0
  9
$AUNITS
 70
     0
  9
$AUPREC
 70
     0
  9
$MENU
  1
.
  9
$ELEVATION
 40
0.0
  9
$PELEVATION
 40
0.0
  9
$THICKNESS
 40
0.0
  9
$LIMCHECK
 70
     0
  9
$BLIPMODE
 70
     0
  9
$CHAMFERA
 40
0.0
  9
$CHAMFERB
 40
0.0
  9
$SKPOLY
 70
     0
  9
$TDCREATE
 40
2458060.468368056230247
  9
$TDUPDATE
 40
2459393.5514236120507121
  9
$TDINDWG
 40
0.7384561343
  9
$TDUSRTIMER
 40
0.7384561343
  9
$USRTIMER
 70
     1
  9
$ANGBASE
 50
0.0
  9
$ANGDIR
 70
     0
  9
$PDMODE
 70
     0
  9
$PDSIZE
 40
0.3125
  9
$PLINEWID
 40
0.0
  9
$COORDS
 70
     1
  9
$SPLFRAME
 70
     0
  9
$SPLINETYPE
 70
     6
  9
$SPLINESEGS
 70
     8
  9
$ATTDIA
 70
     1
  9
$ATTREQ
 70
     1
  9
$HANDLING
 70
     1
  9
$HANDSEED
  5
13ECE
  9
$SURFTAB1
 70
     6
  9
$SURFTAB2
 70
     6
  9
$SURFTYPE
 70
     6
  9
$SURFU
 70
     6
  9
$SURFV
 70
     6
  9
$UCSNAME
  2

  9
$UCSORG
 10
0.0
 20
0.0
 30
0.0
  9
$UCSXDIR
 10
1.0
 20
0.0
 30
0.0
  9
$UCSYDIR
 10
0.0
 20
1.0
 30
0.0
  9
$PUCSNAME
  2

  9
$PUCSORG
 10
0.0
 20
0.0
 30
0.0
  9
$PUCSXDIR
 10
1.0
 20
0.0
 30
0.0
  9
$PUCSYDIR
 10
0.0
 20
1.0
 30
0.0
  9
$USERI1
 70
     0
  9
$USERI2
 70
     0
  9
$USERI3
 70
     0
  9
$USERI4
 70
     0
  9
$USERI5
 70
     0
  9
$USERR1
 40
0.0
  9
$USERR2
 40
0.0
  9
$USERR3
 40
0.0
  9
$USERR4
 40
0.0
  9
$USERR5
 40
0.0
  9
$WORLDVIEW
 70
     1
  9
$SHADEDGE
 70
     3
  9
$SHADEDIF
 70
    70
  9
$TILEMODE
 70
     1
  9
$MAXACTVP
 70
    64
  9
$PLIMCHECK
 70
     0
  9
$PEXTMIN
 10
1.0000000000000000E+20
 20
1.0000000000000000E+20
 30
1.0000000000000000E+20
  9
$PEXTMAX
 10
-1.0000000000000000E+20
 20
-1.0000000000000000E+20
 30
-1.0000000000000000E+20
  9
$PLIMMIN
 10
0.0
 20
0.0
  9
$PLIMMAX
 10
12.0
 20
9.0
  9
$UNITMODE
 70
     0
  9
$VISRETAIN
 70
     1
  9
$PLINEGEN
 70
     0
  9
$PSLTSCALE
 70
     1
  0
ENDSEC
  0
SECTION
  2
TABLES
  0
TABLE
  2
VPORT
 70
     1
  0
VPORT
  2
*ACTIVE
 70
     0
 10
0.0
 20
0.0
 11
1.0
 21
1.0
 12
262.9782566736485023
 22
7.1948021777221793
 13
0.0
 23
0.0
 14
1.0
 24
1.0
 15
0.0
 25
0.0
 16
0.0
 26
0.0
 36
202.37134017897489
 17
4161.556396484375
 27
226.1108322143554972
 37
0.0
 40
20.7696642770253206
 41
2.3461538461538458
 42
50.0
 43
0.0
 44
0.0
 50
0.0
 51
0.0
 71
     0
 72
   100
 73
     1
 74
     1
 75
     0
 76
     0
 77
     0
 78
     0
  0
ENDTAB
  0
TABLE
  2
LTYPE
 70
     2
  0
LTYPE
  2
CONTINUOUS
 70
     0
  3
Solid line
 72
    65
 73
     0
 40
0.0
  0
LTYPE
  2
PHANTOM2
 70
     0
  3
___ _ _ ___ _ _ ___ _ _ ___ _ _
 72
    65
 73
     6
 40
1.25
 49
0.625
 49
-0.125
 49
0.125
 49
-0.125
 49
0.125
 49
-0.125
  0
ENDTAB
  0
TABLE
  2
LAYER
 70
     2
  0
LAYER
  2
0
 70
     0
 62
   255
  6
CONTINUOUS
  0
LAYER
  2
DEFPOINTS
 70
     0
 62
     7
  6
CONTINUOUS
  0
ENDTAB
  0
TABLE
  2
STYLE
 70
     1
  0
STYLE
  2
STANDARD
 70
     0
 40
0.0
 41
0.8
 50
0.0
 71
     0
 42
0.2
  3
txt
  4

  0
ENDTAB
  0
TABLE
  2
VIEW
 70
     0
  0
ENDTAB
  0
TABLE
  2
UCS
 70
     0
  0
ENDTAB
  0
TABLE
  2
APPID
 70
    10
  0
APPID
  2
ACAD
 70
     0
  0
APPID
  2
ACAD_MLEADERVER
 70
     0
  0
APPID
  2
ACAD_EXEMPT_FROM_CAD_STANDARDS
 70
     0
  0
APPID
  2
ACAD_NAV_VCDISPLAY
 70
     0
  0
APPID
  2
ACAECLAYERSTANDARD
 70
     0
  0
APPID
  2
ACCMTRANSPARENCY
 70
     0
  0
APPID
  2
ACAD_DSTYLE_DIMJAG
 70
     0
  0
APPID
  2
ACAD_DSTYLE_DIMTALN
 70
     0
  0
APPID
  2
ACDBATTR
 70
     0
  0
APPID
  2
DCO15
 70
     0
  0
ENDTAB
  0
TABLE
  2
DIMSTYLE
 70
     1
  0
DIMSTYLE
  2
STANDARD
 70
     0
  3

  4

  5

  6

  7

 40
1.0
 41
0.1875
 42
0.0625
 43
0.38
 44
0.125
 45
0.0
 46
0.0
 47
0.01
 48
0.01
140
0.15625
141
0.09
142
0.0
143
25.3999999999999986
144
1.0
145
0.0
146
1.0
147
0.09
 71
     1
 72
     0
 73
     1
 74
     1
 75
     0
 76
     0
 77
     0
 78
     4
170
     0
171
     2
172
     0
173
     0
174
     0
175
     0
176
     0
177
     0
178
     0
  0
ENDTAB
  0
ENDSEC
  0
SECTION
  2
BLOCKS
  0
BLOCK
  8
0
  2
$MODEL_SPACE
 70
     0
 10
0.0
 20
0.0
 30
0.0
  3
$MODEL_SPACE
  1

  0
ENDBLK
  5
21
  8
0
  0
BLOCK
 67
     1
  8
0
  2
$PAPER_SPACE
 70
     0
 10
0.0
 20
0.0
 30
0.0
  3
$PAPER_SPACE
  1

  0
ENDBLK
  5
1D
 67
     1
  8
0
  0
ENDSEC
  0
SECTION
  2
ENTITIES
  0
ATTDEF
  5
12CA7
  8
DEFPOINTS
 10
4425.6389789698478126
 20
243.5949770885299017
 30
0.0
 40
0.001
  1
K-23358T-HC
  3

  2
MODELNUMBER
 70
     0
1001
ACDBATTR
1070
     0
1070
     1
  0
ATTDEF
  5
12CA8
  8
DEFPOINTS
 10
4425.6389789698478126
 20
243.5933104218632081
 30
0.0
 40
0.001
  1
C3
  3

  2
TRADENAME
 70
     0
1001
ACDBATTR
1070
     0
1070
     1
  0
ATTDEF
  5
12CA9
  8
DEFPOINTS
 10
4425.6389789698478126
 20
243.5916437551965998
 30
0.0
 40
0.001
  1
TOILET SEAT
  3

  2
PRODUCT
 70
     0
1001
ACDBATTR
1070
     0
1070
     1
  0
ARC
  5
13D28
  8
0
 10
4434.1388901680893468
 20
210.8924114266619938
 30
0.0
 40
32.9387821573129429
 50
118.5084487081350062
 51
119.5796402329659998
  0
ARC
  5
13D29
  8
0
 10
4429.4009187460223984
 20
219.3242704251661905
 30
0.0
 40
23.2670631029401314
 50
119.682498178504602
 51
122.9405998231190011
  0
ARC
  5
13D2A
  8
0
 10
4419.3571964243656112
 20
234.7641636008843875
 30
0.0
 40
4.8480148939143541
 50
122.5470266079462931
 51
128.5787007873809955
  0
ARC
  5
13D2B
  8
0
 10
4417.3461861846235479
 20
237.2824779858345892
 30
0.0
 40
1.6252737137757849
 50
128.5181101547671858
 51
144.7651549402428941
  0
ARC
  5
13D2C
  8
0
 10
4417.0593631790452491
 20
237.5096613030318053
 30
0.0
 40
1.260089757810372
 50
145.6784712550384882
 51
164.0026236398767878
  0
ARC
  5
13D2D
  8
0
 10
4429.7410815031807942
 20
219.6085561042621919
 30
0.0
 40
23.1589538555939782
 50
119.3117498008216018
 51
123.043235132178495
  0
ARC
  5
13D2E
  8
0
 10
4430.2740045334885508
 20
218.6856494882219124
 30
0.0
 40
24.2232427284643705
 50
122.9095773054357039
 51
124.1372029367506968
  0
ARC
  5
13D2F
  8
0
 10
4419.69768065840708
 20
234.2181860639140041
 30
0.0
 40
5.4319667628646311
 50
123.7417901605036974
 51
128.6461632647217925
  0
ARC
  5
13D30
  8
0
 10
4417.3684005214845456
 20
237.1129765224470987
 30
0.0
 40
1.716465787206042
 50
128.2661014665548009
 51
141.5221279142182027
  0
ARC
  5
13D31
  8
0
 10
4416.9382977755440152
 20
237.4718672716429921
 30
0.0
 40
1.1565311955486199
 50
142.183112112275893
 51
158.8169912976821081
  0
ARC
  5
13D32
  8
0
 10
4417.2905018336950889
 20
237.3554615468605959
 30
0.0
 40
1.5271150026663469
 50
159.5196622770017996
 51
173.5634240661269132
  0
ARC
  5
13D33
  8
0
 10
4418.8536995332451625
 20
237.158410411131598
 30
0.0
 40
3.1026174446182
 50
173.1835676497665872
 51
179.218079726531812
  0
ARC
  5
13D34
  8
0
 10
4424.506404273472981
 20
237.2424761307192966
 30
0.0
 40
8.7551326973796257
 50
180.2730622012830111
 51
185.8091105408695967
  0
ARC
  5
13D35
  8
0
 10
4498.9338627267934498
 20
242.9965141491568943
 30
0.0
 40
83.4023837589964643
 50
184.5665076260524131
 51
185.3454666658390977
  0
ARC
  5
13D36
  8
0
 10
4432.6523193104312668
 20
236.6958155063221056
 30
0.0
 40
16.8224037658885486
 50
185.010111352714091
 51
187.6583023949640108
  0
ARC
  5
13D37
  8
0
 10
4420.5615939194076418
 20
235.0880596261486914
 30
0.0
 40
4.625299190731722
 50
187.8794753341942965
 51
192.7396147191055888
  0
ARC
  5
13D38
  8
0
 10
4418.4877542422673287
 20
234.5607986464794976
 30
0.0
 40
2.486893045771525
 50
191.4272717940235111
 51
231.0822054504760104
  0
ARC
  5
13D39
  8
0
 10
4419.9996208651837151
 20
236.2442675931800125
 30
0.0
 40
4.7479596329803728
 50
229.6491452773597928
 51
235.6911733673292986
  0
ARC
  5
13D3A
  8
0
 10
4424.5929141420274391
 20
243.2261698812019119
 30
0.0
 40
13.1048773046683404
 50
236.3087848210122104
 51
242.2746626108664998
  0
ARC
  5
13D3B
  8
0
 10
4423.6251680091736489
 20
238.1246325272952049
 30
0.0
 40
5.1955669033433054
 50
105.6783826329378968
 51
118.711831313015594
  0
ARC
  5
13D3C
  8
0
 10
4423.6569871686288025
 20
238.0247582656957093
 30
0.0
 40
5.2979747148011693
 50
124.6309797889912971
 51
130.357627701642798
  0
ARC
  5
13D3D
  8
0
 10
4423.6130079472350189
 20
238.0811902176866965
 30
0.0
 40
5.226494430942866
 50
130.3908436939655076
 51
135.5215589785634052
  0
ARC
  5
13D3E
  8
0
 10
4420.2817242215724036
 20
243.7932958053420975
 30
0.0
 40
1.7073307680798511
 50
286.0728717547083875
 51
289.1452023492603871
  0
ARC
  5
13D3F
  8
0
 10
4421.6119417542577139
 20
239.1987229774659909
 30
0.0
 40
3.075931640522747
 50
106.1877577954611951
 51
123.9781923259860008
  0
ARC
  5
13D40
  8
0
 10
4421.8568047582366489
 20
238.9450746680024054
 30
0.0
 40
3.4236666949806072
 50
125.0040225084298982
 51
137.9332415967784868
  0
ARC
  5
13D41
  8
0
 10
4423.1004141055000218
 20
237.8184158918610933
 30
0.0
 40
5.10173624873772
 50
137.8975465969645882
 51
143.0001759477497103
  0
ARC
  5
13D42
  8
0
 10
4422.6741801749030856
 20
238.0760625660296057
 30
0.0
 40
4.606554427160634
 50
142.3689819941031942
 51
159.8764917897611895
  0
ARC
  5
13D43
  8
0
 10
4423.1109280204263996
 20
237.9090995308091863
 30
0.0
 40
5.0740871699797419
 50
159.8029867355978126
 51
175.6990678408826057
  0
ARC
  5
13D44
  8
0
 10
4439.2990618810335945
 20
236.532549419107113
 30
0.0
 40
21.3204584006725817
 50
175.2727265410084101
 51
184.7272734589915046
  0
ARC
  5
13D45
  8
0
 10
4438.3365943879380211
 20
236.0638740207548949
 30
0.0
 40
20.326339016166429
 50
183.634187476699708
 51
189.0178212300270104
  0
ARC
  5
13D46
  8
0
 10
4444.3609817738706624
 20
237.1202180797791925
 30
0.0
 40
26.4420212933784384
 50
189.2323713900221094
 51
198.7572679149550083
  0
ARC
  5
13D47
  8
0
 10
4429.5354322396306088
 20
232.0938209659769029
 30
0.0
 40
10.7875830832025095
 50
198.7989911207120031
 51
217.6398064292991137
  0
ARC
  5
13D48
  8
0
 10
4426.8267163212540254
 20
230.0508682730610133
 30
0.0
 40
7.3951121813780851
 50
217.9222661259034908
 51
236.3855198681044101
  0
ARC
  5
13D49
  8
0
 10
4414.9313066934309973
 20
252.1388541148041895
 30
0.0
 40
11.3382498268078802
 50
301.0258518741803186
 51
302.5760272639408868
  0
ARC
  5
13D4A
  8
0
 10
4420.3691788799487767
 20
243.0928468116455861
 30
0.0
 40
0.7836014840135159
 50
291.6003629566919813
 51
301.2184629534639839
  0
LINE
  5
13D4B
  8
0
 10
4420.6576464410918561
 20
242.3642744048692066
 30
0.0
 11
4420.6163749401930545
 21
242.4357587413693125
 31
0.0
  0
LINE
  5
13D4C
  8
0
 10
4420.6163749401930545
 20
242.4357587413693125
 30
0.0
 11
4420.6648919044646391
 21
242.4698346402400091
 31
0.0
  0
LINE
  5
13D4D
  8
0
 10
4420.6648919044646391
 20
242.4698346402400091
 30
0.0
 11
4420.6755939798922554
 21
242.4512985920692927
 31
0.0
  0
ARC
  5
13D4E
  8
0
 10
4420.6229665547871264
 20
242.6382433798659122
 30
0.0
 40
0.1942112240776357
 50
285.7226115959063009
 51
298.7925428658538181
  0
ARC
  5
13D4F
  8
0
 10
4418.8698868971150659
 20
245.7262616328079901
 30
0.0
 40
3.745129462063002
 50
299.5427136408029014
 51
301.1776376735530221
  0
LINE
  5
13D50
  8
0
 10
4420.7320788856932268
 20
242.4873329634692993
 30
0.0
 11
4420.6927041659919269
 21
242.5555212606691953
 31
0.0
  0
LINE
  5
13D51
  8
0
 10
4420.6927041659919269
 20
242.5555212606691953
 30
0.0
 11
4420.9654680726926017
 21
242.7130015756692956
 31
0.0
  0
LINE
  5
13D52
  8
0
 10
4421.0048381513915956
 20
242.6448105989692863
 30
0.0
 11
4420.7320788856932268
 21
242.4873329634692993
 31
0.0
  0
LINE
  5
13D53
  8
0
 10
4420.8002652214017871
 20
242.5267003627523934
 30
0.0
 11
4420.8044388498592525
 21
242.519471426113995
 31
0.0
  0
LINE
  5
13D54
  8
0
 10
4420.808714669928122
 20
242.5220547800936117
 30
0.0
 11
4420.938299529591859
 21
242.6013552550693078
 31
0.0
  0
ARC
  5
13D55
  8
0
 10
4418.9352459455440112
 20
245.846206958264986
 30
0.0
 40
3.8133038478862988
 50
301.6871182682405106
 51
302.881584609904678
  0
ARC
  5
13D56
  8
0
 10
4420.8073718353325603
 20
242.9503004625807989
 30
0.0
 40
0.3649520997365095
 50
302.881584609904678
 51
313.4997765753427075
  0
LINE
  5
13D57
  8
0
 10
4421.0585872507926979
 20
242.6855725831692894
 30
0.0
 11
4421.047891408693431
 21
242.7040983250693102
 31
0.0
  0
LINE
  5
13D58
  8
0
 10
4421.047891408693431
 20
242.7040983250693102
 30
0.0
 11
4421.1001658273899011
 21
242.731666350231194
 31
0.0
  0
LINE
  5
13D59
  8
0
 10
4421.1001658273899011
 20
242.731666350231194
 30
0.0
 11
4421.1401437379918207
 21
242.6624228399693095
 31
0.0
  0
ARC
  5
13D5A
  8
0
 10
4420.6238008882701251
 20
243.2426593076264112
 30
0.0
 40
0.7767137805260959
 50
302.0548926959667142
 51
311.6653572539131005
  0
LINE
  5
13D5B
  8
0
 10
4420.9654680726926017
 20
242.7130015756692956
 30
0.0
 11
4421.0048381513915956
 21
242.6448105989692863
 31
0.0
  0
LINE
  5
13D5C
  8
0
 10
4420.9366471746752723
 20
242.6054405201992097
 30
0.0
 11
4420.9388202026957515
 21
242.6016767253377964
 31
0.0
  0
ARC
  5
13D5D
  8
0
 10
4385.5523198163728011
 20
300.2766013612642837
 30
0.0
 40
67.669661257045675
 50
301.4105724428512758
 51
301.5980243259281792
  0
ARC
  5
13D5E
  8
0
 10
4420.9277925311043873
 20
242.4632968980114924
 30
0.0
 40
0.2525309337055789
 50
81.419907578861725
 51
158.5800924342156009
  0
ARC
  5
13D5F
  8
0
 10
4414.8343815132766395
 20
252.2763038500322921
 30
0.0
 40
11.4427644603644598
 50
300.895869466180784
 51
301.5370807120922905
  0
ARC
  5
13D60
  8
0
 10
4420.4442163150451961
 20
242.9014192426415946
 30
0.0
 40
0.5176233672244389
 50
290.6902871244784023
 51
300.895869466180784
  0
ARC
  5
13D61
  8
0
 10
4420.5923423850872496
 20
243.3255600763220912
 30
0.0
 40
0.8024651003127086
 50
301.2200495188719742
 51
310.2534671559544108
  0
ARC
  5
13D62
  8
0
 10
4420.8660559357440434
 20
242.1532652788883979
 30
0.0
 40
0.0364826127658923
 50
9.4047152265759664
 51
131.9540652858028125
  0
ARC
  5
13D63
  8
0
 10
4420.747555750032916
 20
242.1336376808312991
 30
0.0
 40
0.1565972938800331
 50
4.393477234630681
 51
9.4047152265759664
  0
ARC
  5
13D64
  8
0
 10
4449.6227734025978862
 20
242.0229535740857898
 30
0.0
 40
28.7193425507746092
 50
179.7552490574306034
 51
180.3610248088338039
  0
ARC
  5
13D65
  8
0
 10
1118.8449239192609639
 20
241.5589102880558983
 30
0.0
 40
3302.059089194077842
 50
359.9717238829928192
 51
0.0049119034037479
  0
LINE
  5
13D66
  8
0
 10
4420.9783948760932617
 20
242.2088326051693059
 30
0.0
 11
4420.9817815697933838
 21
240.2811765063692917
 31
0.0
  0
ARC
  5
13D67
  8
0
 10
4421.0177357373677296
 20
242.2087667783044083
 30
0.0
 40
0.0393409163476208
 50
122.4178484956387933
 51
179.9041302632508064
  0
ARC
  5
13D68
  8
0
 10
4412.7604228614109161
 20
240.2374409175403969
 30
0.0
 40
8.2214750388000795
 50
358.7582073872198976
 51
0.3047964582539711
  0
ARC
  5
13D69
  8
0
 10
4418.8714736503043241
 20
240.1049731121796071
 30
0.0
 40
2.10898868185178
 50
355.2911120917826224
 51
358.7582073872198976
  0
ARC
  5
13D6A
  8
0
 10
4428.4660206549970098
 20
32.6936866750793982
 30
0.0
 40
207.3735572945128922
 50
91.8014252661442356
 51
92.0899012287460579
  0
ARC
  5
13D6B
  8
0
 10
4423.1929790854619569
 20
238.7151868878395078
 30
0.0
 40
4.1547718024609201
 50
116.0913567785784011
 51
121.9128807629767977
  0
ARC
  5
13D6C
  8
0
 10
4424.6754761483862239
 20
235.7551086179886966
 30
0.0
 40
7.465266376451611
 50
99.4439155528216929
 51
116.3182931763634969
  0
ARC
  5
13D6D
  8
0
 10
4420.8496378906247628
 20
241.8421254301775036
 30
0.0
 40
0.0543632519763709
 50
0.8606371647000386
 51
44.8928932309806967
  0
ARC
  5
13D6E
  8
0
 10
4420.8646141674871615
 20
241.8570458191705086
 30
0.0
 40
0.033223079878006
 50
44.8928932309806967
 51
118.414550690345493
  0
ARC
  5
13D6F
  8
0
 10
4422.2439813525688805
 20
239.3075073570909979
 30
0.0
 40
2.9319814694141288
 50
118.414550690345493
 51
125.4891380334302937
  0
ARC
  5
13D70
  8
0
 10
4423.7137105822221201
 20
237.043050436535907
 30
0.0
 40
5.6302448371466527
 50
124.2888814375134956
 51
148.2578789450284944
  0
ARC
  5
13D71
  8
0
 10
4422.8917964050524461
 20
237.7201608446293051
 30
0.0
 40
4.5772906627394061
 50
150.0534780347844048
 51
172.4592064470674018
  0
ARC
  5
13D72
  8
0
 10
4433.000147141969137
 20
236.330934162667802
 30
0.0
 40
14.7806190519213096
 50
172.2627780941226945
 51
187.7372219058771918
  0
ARC
  5
13D73
  8
0
 10
4444.3702742858667989
 20
237.2805666585290965
 30
0.0
 40
26.181724413707741
 50
186.4464612876151079
 51
190.2534779641048885
  0
ARC
  5
13D74
  8
0
 10
4442.1422764898452442
 20
236.7532043140363101
 30
0.0
 40
23.8957489763937012
 50
189.960114700913806
 51
199.6279059582550985
  0
ARC
  5
13D75
  8
0
 10
4428.8011138579868202
 20
231.8150807938411901
 30
0.0
 40
9.6725113558371021
 50
198.6223051178529886
 51
219.3797637214514111
  0
ARC
  5
13D76
  8
0
 10
4426.4609553711643457
 20
229.6857378543643904
 30
0.0
 40
6.5146838222802037
 50
217.962231200830189
 51
247.0266194724752893
  0
ARC
  5
13D77
  8
0
 10
4424.5740672802730842
 20
235.7943584229741987
 30
0.0
 40
7.1340878550749176
 50
100.7185744118580999
 51
120.0354977616219969
  0
ARC
  5
13D78
  8
0
 10
4421.0235286585193535
 20
241.9288365896445043
 30
0.0
 40
0.0463137612252513
 50
116.041008515882794
 51
164.6583491289028132
  0
ARC
  5
13D79
  8
0
 10
4427.65278804951231
 20
238.1246325272952049
 30
0.0
 40
5.1955669033433054
 50
61.2881686869843989
 51
74.3216173670620606
  0
ARC
  5
13D7A
  8
0
 10
4427.6209688900562469
 20
238.0247582656957093
 30
0.0
 40
5.2979747148011693
 50
49.6423722983571167
 51
55.3690202021946902
  0
ARC
  5
13D7B
  8
0
 10
4427.6649481114509399
 20
238.0811902176866965
 30
0.0
 40
5.226494430942866
 50
44.4784410214366304
 51
49.6091563060344782
  0
ARC
  5
13D7C
  8
0
 10
4430.9962318371126457
 20
243.7932958053420975
 30
0.0
 40
1.7073307680798511
 50
250.8547976507396982
 51
253.9271282452914988
  0
ARC
  5
13D7D
  8
0
 10
4429.6660143044282449
 20
239.1987229774659909
 30
0.0
 40
3.075931640522747
 50
56.0218076740139566
 51
73.8122422045387623
  0
ARC
  5
13D7E
  8
0
 10
4429.4211513004484004
 20
238.9450746680024054
 30
0.0
 40
3.4236666949806072
 50
42.0667584032214705
 51
54.9959774915701303
  0
ARC
  5
13D7F
  8
0
 10
4428.177541953185937
 20
237.8184158918610933
 30
0.0
 40
5.10173624873772
 50
36.9998240522502613
 51
42.1024534030354189
  0
ARC
  5
13D80
  8
0
 10
4428.6037758837819638
 20
238.0760625660296057
 30
0.0
 40
4.606554427160634
 50
20.1235082102387715
 51
37.6310180058967916
  0
ARC
  5
13D81
  8
0
 10
4428.1670280382586498
 20
237.9090995308091863
 30
0.0
 40
5.0740871699797419
 50
4.3009321591174334
 51
20.1970132644006917
  0
ARC
  5
13D82
  8
0
 10
4411.9788941776505453
 20
236.532549419107113
 30
0.0
 40
21.3204584006725817
 50
355.2727265410084101
 51
4.7272734589915322
  0
ARC
  5
13D83
  8
0
 10
4412.9413616707479378
 20
236.0638740207548949
 30
0.0
 40
20.326339016166429
 50
350.9821787699729043
 51
356.365812523300292
  0
ARC
  5
13D84
  8
0
 10
4406.9169742848143869
 20
237.1202180797791925
 30
0.0
 40
26.4420212933784384
 50
341.2427320850450201
 51
350.7676286099778054
  0
ARC
  5
13D85
  8
0
 10
4421.74252381905535
 20
232.0938209659769029
 30
0.0
 40
10.7875830832025095
 50
322.3601935707010284
 51
341.2010088792878832
  0
ARC
  5
13D86
  8
0
 10
4424.4512397374319335
 20
230.0508682730610133
 30
0.0
 40
7.3951121813780851
 50
303.6144801318956183
 51
322.0777338740965092
  0
ARC
  5
13D87
  8
0
 10
4436.3466493652540521
 20
252.1388541148041895
 30
0.0
 40
11.3382498268078802
 50
237.4239727360591132
 51
238.974148125819795
  0
ARC
  5
13D88
  8
0
 10
4430.9087771787371821
 20
243.0928468116455861
 30
0.0
 40
0.7836014840135159
 50
238.7815370465359877
 51
248.3996370433079051
  0
LINE
  5
13D89
  8
0
 10
4430.6203096175941027
 20
242.3642744048692066
 30
0.0
 11
4430.6615811184929044
 21
242.4357587413693125
 31
0.0
  0
LINE
  5
13D8A
  8
0
 10
4430.6615811184929044
 20
242.4357587413693125
 30
0.0
 11
4430.6130641542204103
 21
242.4698346402400091
 31
0.0
  0
LINE
  5
13D8B
  8
0
 10
4430.6130641542204103
 20
242.4698346402400091
 30
0.0
 11
4430.6023620787927939
 21
242.4512985920692927
 31
0.0
  0
ARC
  5
13D8C
  8
0
 10
4430.6549895038988325
 20
242.6382433798659122
 30
0.0
 40
0.1942112240776357
 50
241.2074571341462956
 51
254.2773884040936991
  0
ARC
  5
13D8D
  8
0
 10
4432.4080691615699834
 20
245.7262616328079901
 30
0.0
 40
3.745129462063002
 50
238.8223623264470064
 51
240.4572863591970986
  0
LINE
  5
13D8E
  8
0
 10
4430.5458771729927321
 20
242.4873329634692993
 30
0.0
 11
4430.5852518926931225
 21
242.5555212606691953
 31
0.0
  0
LINE
  5
13D8F
  8
0
 10
4430.5852518926931225
 20
242.5555212606691953
 30
0.0
 11
4430.3124879859933571
 21
242.7130015756692956
 31
0.0
  0
LINE
  5
13D90
  8
0
 10
4430.2731179072934538
 20
242.6448105989692863
 30
0.0
 11
4430.5458771729927321
 21
242.4873329634692993
 31
0.0
  0
LINE
  5
13D91
  8
0
 10
4430.4776908372841717
 20
242.5267003627523934
 30
0.0
 11
4430.4735172088257968
 21
242.519471426113995
 31
0.0
  0
LINE
  5
13D92
  8
0
 10
4430.4692413887578368
 20
242.5220547800936117
 30
0.0
 11
4430.3396565290931903
 21
242.6013552550693078
 31
0.0
  0
ARC
  5
13D93
  8
0
 10
4432.3427101131419477
 20
245.846206958264986
 30
0.0
 40
3.8133038478862988
 50
237.1184153900952936
 51
238.3128817317594894
  0
ARC
  5
13D94
  8
0
 10
4430.4705842233515796
 20
242.9503004625807989
 30
0.0
 40
0.3649520997365095
 50
226.5002234246572925
 51
237.1184153900952936
  0
LINE
  5
13D95
  8
0
 10
4430.219368807893261
 20
242.6855725831692894
 30
0.0
 11
4430.2300646499916184
 21
242.7040983250693102
 31
0.0
  0
LINE
  5
13D96
  8
0
 10
4430.2300646499916184
 20
242.7040983250693102
 30
0.0
 11
4430.1777902312951483
 21
242.731666350231194
 31
0.0
  0
LINE
  5
13D97
  8
0
 10
4430.1777902312951483
 20
242.731666350231194
 30
0.0
 11
4430.1378123206932287
 21
242.6624228399693095
 31
0.0
  0
ARC
  5
13D98
  8
0
 10
4430.6541551704149242
 20
243.2426593076264112
 30
0.0
 40
0.7767137805260959
 50
228.3346427460870132
 51
237.9451073040333995
  0
LINE
  5
13D99
  8
0
 10
4430.3124879859933571
 20
242.7130015756692956
 30
0.0
 11
4430.2731179072934538
 21
242.6448105989692863
 31
0.0
  0
LINE
  5
13D9A
  8
0
 10
4430.3413088840088676
 20
242.6054405201992097
 30
0.0
 11
4430.3391358559892979
 21
242.6016767253377964
 31
0.0
  0
ARC
  5
13D9B
  8
0
 10
4465.7256362423131577
 20
300.2766013612642837
 30
0.0
 40
67.669661257045675
 50
238.4019756740717924
 51
238.5894275571486958
  0
ARC
  5
13D9C
  8
0
 10
4430.350163527580662
 20
242.4632968980114924
 30
0.0
 40
0.2525309337055789
 50
21.4199075657844098
 51
98.580092421138275
  0
ARC
  5
13D9D
  8
0
 10
4436.4435745454093194
 20
252.2763038500322921
 30
0.0
 40
11.4427644603644598
 50
238.4629192879077095
 51
239.1041305338191876
  0
ARC
  5
13D9E
  8
0
 10
4430.8337397436407628
 20
242.9014192426415946
 30
0.0
 40
0.5176233672244389
 50
239.1041305338191876
 51
249.3097128755215977
  0
ARC
  5
13D9F
  8
0
 10
4430.6856136735977998
 20
243.3255600763220912
 30
0.0
 40
0.8024651003127086
 50
229.7465328440455892
 51
238.7799504811279121
  0
ARC
  5
13DA0
  8
0
 10
4430.411900122941006
 20
242.1532652788883979
 30
0.0
 40
0.0364826127658923
 50
48.0459347141971804
 51
170.5952847734224065
  0
ARC
  5
13DA1
  8
0
 10
4430.5304003086530429
 20
242.1336376808312991
 30
0.0
 40
0.1565972938800331
 50
170.5952847734224065
 51
175.6065227653693057
  0
ARC
  5
13DA2
  8
0
 10
4401.6551826560871632
 20
242.0229535740857898
 30
0.0
 40
28.7193425507746092
 50
359.6389751911660824
 51
0.2447509425694206
  0
ARC
  5
13DA3
  8
0
 10
7732.4330321394236307
 20
241.5589102880558983
 30
0.0
 40
3302.059089194077842
 50
179.9950880965978968
 51
180.0282761170055892
  0
LINE
  5
13DA4
  8
0
 10
4430.2995611825917877
 20
242.2088326051693059
 30
0.0
 11
4430.2961744888916655
 21
240.2811765063692917
 31
0.0
  0
ARC
  5
13DA5
  8
0
 10
4430.2602203213182293
 20
242.2087667783044083
 30
0.0
 40
0.0393409163476208
 50
0.0958697367475179
 51
57.5821515043611569
  0
ARC
  5
13DA6
  8
0
 10
4438.5175331972732238
 20
240.2374409175403969
 30
0.0
 40
8.2214750388000795
 50
179.6952035417459967
 51
181.2417926127801024
  0
ARC
  5
13DA7
  8
0
 10
4432.4064824083816347
 20
240.1049731121796071
 30
0.0
 40
2.10898868185178
 50
181.2417926127801024
 51
184.7092663446478014
  0
ARC
  5
13DA8
  8
0
 10
4422.811935403688949
 20
32.6936866750793982
 30
0.0
 40
207.3735572945128922
 50
87.9100987712539563
 51
88.1985747338557502
  0
ARC
  5
13DA9
  8
0
 10
4428.0849769732230925
 20
238.7151868878395078
 30
0.0
 40
4.1547718024609201
 50
58.0871192370232095
 51
63.9086432214215705
  0
ARC
  5
13DAA
  8
0
 10
4426.6024799102988254
 20
235.7551086179886966
 30
0.0
 40
7.465266376451611
 50
63.6817068236364321
 51
80.5560844471783071
  0
ARC
  5
13DAB
  8
0
 10
4430.4283181680602866
 20
241.8421254301775036
 30
0.0
 40
0.0543632519763709
 50
135.1071067690193104
 51
179.1393628353000054
  0
ARC
  5
13DAC
  8
0
 10
4430.4133418911978879
 20
241.8570458191705086
 30
0.0
 40
0.033223079878006
 50
61.5854493096544786
 51
135.1071067690193104
  0
ARC
  5
13DAD
  8
0
 10
4429.0339747061161688
 20
239.3075073570909979
 30
0.0
 40
2.9319814694141288
 50
54.5108619665697134
 51
61.5854493096544786
  0
ARC
  5
13DAE
  8
0
 10
4427.5642454764629292
 20
237.043050436535907
 30
0.0
 40
5.6302448371466527
 50
31.7421210549714914
 51
55.7111185624865186
  0
ARC
  5
13DAF
  8
0
 10
4428.3861596536344223
 20
237.7201608446293051
 30
0.0
 40
4.5772906627394061
 50
7.5407935529325556
 51
29.9465219652155987
  0
ARC
  5
13DB0
  8
0
 10
4418.2778089167150029
 20
236.330934162667802
 30
0.0
 40
14.7806190519213896
 50
352.2627780941227229
 51
7.7372219058772824
  0
ARC
  5
13DB1
  8
0
 10
4406.90768177281916
 20
237.2805666585290965
 30
0.0
 40
26.181724413707741
 50
349.7465220358951115
 51
353.5535387123849205
  0
ARC
  5
13DB2
  8
0
 10
4409.1356795688398051
 20
236.7532043140363101
 30
0.0
 40
23.8957489763937012
 50
340.3720940417449015
 51
350.0398852990862224
  0
ARC
  5
13DB3
  8
0
 10
4422.4768422006982291
 20
231.8150807938411901
 30
0.0
 40
9.6725113558371021
 50
320.6202362785485889
 51
341.3776948821468977
  0
ARC
  5
13DB4
  8
0
 10
4424.8170006875216131
 20
229.6857378543643904
 30
0.0
 40
6.5146838222802037
 50
292.9733805275246823
 51
322.0377687991697826
  0
ARC
  5
13DB5
  8
0
 10
4426.7038887784128747
 20
235.7943584229741987
 30
0.0
 40
7.1340878550749176
 50
59.9645022383779818
 51
79.2814255881419285
  0
ARC
  5
13DB6
  8
0
 10
4430.2544274001647864
 20
241.9288365896445043
 30
0.0
 40
0.0463137612252513
 50
15.3416508710971797
 51
63.9589914841171421
  0
ARC
  5
13DB7
  8
0
 10
4425.6389780293429794
 20
228.2019451982195903
 30
0.0
 40
4.8310232902463914
 50
249.134064307485005
 51
290.8659356925148813
  0
ARC
  5
13DB8
  8
0
 10
4425.6389780293429794
 20
228.2223743602602042
 30
0.0
 40
5.2148935083959183
 50
236.1313728496959072
 51
303.8686271503041212
  0
ARC
  5
13DB9
  8
0
 10
4425.6389780293429794
 20
230.7916061720416963
 30
0.0
 40
12.8000368860314602
 50
74.5130782892631913
 51
105.4869217107367945
  0
ARC
  5
13DBA
  8
0
 10
4425.6389780293429794
 20
230.3728407412588979
 30
0.0
 40
12.9328552568142499
 50
80.2578853806008681
 51
99.7421146193991603
  0
ARC
  5
13DBB
  8
0
 10
4425.6389780293429794
 20
230.124207895946995
 30
0.0
 40
12.9033689564261405
 50
79.3179833634340667
 51
100.6820166365659048
  0
ARC
  5
13DBC
  8
0
 10
4425.6389780293429794
 20
132.1815160606429913
 30
0.0
 40
107.8464493981049941
 50
88.0382279788373836
 51
91.9617720211626306
  0
ENDSEC
  0
EOF
