  0
SECTION
  2
HEADER
  9
$ACADVER
  1
AC1009
  9
$INSBASE
 10
3337.7096277442310566
 20
287.6535392159324829
 30
0.0
  9
$EXTMIN
 10
3327.7263776135141597
 20
279.0235392159324874
 30
0.0
  9
$EXTMAX
 10
3347.6928778749470439
 20
287.6535392159324829
 30
0.0
  9
$LIMMIN
 10
0.0
 20
0.0
  9
$LIMMAX
 10
11.6929133858000007
 20
8.2677165353999982
  9
$ORTHOMODE
 70
     0
  9
$REGENMODE
 70
     1
  9
$FILLMODE
 70
     1
  9
$QTEXTMODE
 70
     0
  9
$MIRRTEXT
 70
     0
  9
$DRAGMODE
 70
     2
  9
$LTSCALE
 40
0.6431102362
  9
$OSMODE
 70
  3839
  9
$ATTMODE
 70
     1
  9
$TEXTSIZE
 40
0.2
  9
$TRACEWID
 40
0.05
  9
$TEXTSTYLE
  7
STANDARD
  9
$CLAYER
  8
0
  9
$CELTYPE
  6
BYLAYER
  9
$CECOLOR
 62
   256
  9
$DIMSCALE
 40
1.0
  9
$DIMASZ
 40
0.1875
  9
$DIMEXO
 40
0.0625
  9
$DIMDLI
 40
0.4443307087
  9
$DIMRND
 40
0.0
  9
$DIMDLE
 40
0.0
  9
$DIMEXE
 40
0.125
  9
$DIMTP
 40
0.01
  9
$DIMTM
 40
0.01
  9
$DIMTXT
 40
2.0
  9
$DIMCEN
 40
0.1052362205
  9
$DIMTSZ
 40
0.0
  9
$DIMTOL
 70
     1
  9
$DIMLIM
 70
     0
  9
$DIMTIH
 70
     1
  9
$DIMTOH
 70
     1
  9
$DIMSE1
 70
     0
  9
$DIMSE2
 70
     0
  9
$DIMTAD
 70
     0
  9
$DIMZIN
 70
     0
  9
$DIMBLK
  1

  9
$DIMASO
 70
     1
  9
$DIMSHO
 70
     1
  9
$DIMPOST
  1
\X
  9
$DIMAPOST
  1

  9
$DIMALT
 70
     1
  9
$DIMALTD
 70
     2
  9
$DIMALTF
 40
25.3999999999999986
  9
$DIMLFAC
 40
1.0
  9
$DIMTOFL
 70
     0
  9
$DIMTVP
 40
0.0
  9
$DIMTIX
 70
     0
  9
$DIMSOXD
 70
     0
  9
$DIMSAH
 70
     0
  9
$DIMBLK1
  1

  9
$DIMBLK2
  1

  9
$DIMSTYLE
  2
STANDARD
  9
$DIMCLRD
 70
     0
  9
$DIMCLRE
 70
     0
  9
$DIMCLRT
 70
     0
  9
$DIMTFAC
 40
1.0
  9
$DIMGAP
 40
0.09
  9
$LUNITS
 70
     2
  9
$LUPREC
 70
     4
  9
$SKETCHINC
 40
0.1
  9
$FILLETRAD
 40
0.0
  9
$AUNITS
 70
     0
  9
$AUPREC
 70
     0
  9
$MENU
  1
.
  9
$ELEVATION
 40
0.0
  9
$PELEVATION
 40
0.0
  9
$THICKNESS
 40
0.0
  9
$LIMCHECK
 70
     0
  9
$BLIPMODE
 70
     0
  9
$CHAMFERA
 40
0.0
  9
$CHAMFERB
 40
0.0
  9
$SKPOLY
 70
     0
  9
$TDCREATE
 40
2458060.468368056230247
  9
$TDUPDATE
 40
2459017.4810879630967975
  9
$TDINDWG
 40
0.4696844329
  9
$TDUSRTIMER
 40
0.4696844329
  9
$USRTIMER
 70
     1
  9
$ANGBASE
 50
0.0
  9
$ANGDIR
 70
     0
  9
$PDMODE
 70
     0
  9
$PDSIZE
 40
0.3125
  9
$PLINEWID
 40
0.0
  9
$COORDS
 70
     1
  9
$SPLFRAME
 70
     0
  9
$SPLINETYPE
 70
     6
  9
$SPLINESEGS
 70
     8
  9
$ATTDIA
 70
     1
  9
$ATTREQ
 70
     1
  9
$HANDLING
 70
     1
  9
$HANDSEED
  5
7CA3
  9
$SURFTAB1
 70
     6
  9
$SURFTAB2
 70
     6
  9
$SURFTYPE
 70
     6
  9
$SURFU
 70
     6
  9
$SURFV
 70
     6
  9
$UCSNAME
  2

  9
$UCSORG
 10
0.0
 20
0.0
 30
0.0
  9
$UCSXDIR
 10
1.0
 20
0.0
 30
0.0
  9
$UCSYDIR
 10
0.0
 20
1.0
 30
0.0
  9
$PUCSNAME
  2

  9
$PUCSORG
 10
0.0
 20
0.0
 30
0.0
  9
$PUCSXDIR
 10
1.0
 20
0.0
 30
0.0
  9
$PUCSYDIR
 10
0.0
 20
1.0
 30
0.0
  9
$USERI1
 70
     0
  9
$USERI2
 70
     0
  9
$USERI3
 70
     0
  9
$USERI4
 70
     0
  9
$USERI5
 70
     0
  9
$USERR1
 40
0.0
  9
$USERR2
 40
0.0
  9
$USERR3
 40
0.0
  9
$USERR4
 40
0.0
  9
$USERR5
 40
0.0
  9
$WORLDVIEW
 70
     1
  9
$SHADEDGE
 70
     3
  9
$SHADEDIF
 70
    70
  9
$TILEMODE
 70
     1
  9
$MAXACTVP
 70
    64
  9
$PLIMCHECK
 70
     0
  9
$PEXTMIN
 10
1.0000000000000000E+20
 20
1.0000000000000000E+20
 30
1.0000000000000000E+20
  9
$PEXTMAX
 10
-1.0000000000000000E+20
 20
-1.0000000000000000E+20
 30
-1.0000000000000000E+20
  9
$PLIMMIN
 10
0.0
 20
0.0
  9
$PLIMMAX
 10
12.0
 20
9.0
  9
$UNITMODE
 70
     0
  9
$VISRETAIN
 70
     1
  9
$PLINEGEN
 70
     0
  9
$PSLTSCALE
 70
     1
  0
ENDSEC
  0
SECTION
  2
TABLES
  0
TABLE
  2
VPORT
 70
     1
  0
VPORT
  2
*ACTIVE
 70
     0
 10
0.0
 20
0.0
 11
1.0
 21
1.0
 12
0.0
 22
0.0
 13
0.0
 23
0.0
 14
1.0
 24
1.0
 15
0.0
 25
0.0
 16
0.0
 26
0.0
 36
67.0892312047469659
 17
3337.7095947265620453
 27
283.338531494140625
 37
0.0
 40
21.7517864179461213
 41
2.3528591352859132
 42
50.0
 43
0.0
 44
0.0
 50
0.0
 51
0.0
 71
     0
 72
   100
 73
     1
 74
     1
 75
     0
 76
     0
 77
     0
 78
     0
  0
ENDTAB
  0
TABLE
  2
LTYPE
 70
     2
  0
LTYPE
  2
CONTINUOUS
 70
     0
  3
Solid line
 72
    65
 73
     0
 40
0.0
  0
LTYPE
  2
PHANTOM2
 70
     0
  3
___ _ _ ___ _ _ ___ _ _ ___ _ _
 72
    65
 73
     6
 40
1.25
 49
0.625
 49
-0.125
 49
0.125
 49
-0.125
 49
0.125
 49
-0.125
  0
ENDTAB
  0
TABLE
  2
LAYER
 70
     2
  0
LAYER
  2
0
 70
     0
 62
   255
  6
CONTINUOUS
  0
LAYER
  2
DEFPOINTS
 70
     0
 62
     7
  6
CONTINUOUS
  0
ENDTAB
  0
TABLE
  2
STYLE
 70
     1
  0
STYLE
  2
STANDARD
 70
     0
 40
0.0
 41
0.8
 50
0.0
 71
     0
 42
0.2
  3
txt
  4

  0
ENDTAB
  0
TABLE
  2
VIEW
 70
     0
  0
ENDTAB
  0
TABLE
  2
UCS
 70
     0
  0
ENDTAB
  0
TABLE
  2
APPID
 70
     9
  0
APPID
  2
ACAD
 70
     0
  0
APPID
  2
ACAD_MLEADERVER
 70
     0
  0
APPID
  2
ACAD_EXEMPT_FROM_CAD_STANDARDS
 70
     0
  0
APPID
  2
ACAD_NAV_VCDISPLAY
 70
     0
  0
APPID
  2
ACAECLAYERSTANDARD
 70
     0
  0
APPID
  2
ACCMTRANSPARENCY
 70
     0
  0
APPID
  2
ACAD_DSTYLE_DIMJAG
 70
     0
  0
APPID
  2
ACAD_DSTYLE_DIMTALN
 70
     0
  0
APPID
  2
ACDBATTR
 70
     0
  0
ENDTAB
  0
TABLE
  2
DIMSTYLE
 70
     1
  0
DIMSTYLE
  2
STANDARD
 70
     0
  3

  4

  5

  6

  7

 40
1.0
 41
0.1875
 42
0.0625
 43
0.38
 44
0.125
 45
0.0
 46
0.0
 47
0.01
 48
0.01
140
0.15625
141
0.09
142
0.0
143
25.3999999999999986
144
1.0
145
0.0
146
1.0
147
0.09
 71
     1
 72
     0
 73
     1
 74
     1
 75
     0
 76
     0
 77
     0
 78
     4
170
     0
171
     2
172
     0
173
     0
174
     0
175
     0
176
     0
177
     0
178
     0
  0
ENDTAB
  0
ENDSEC
  0
SECTION
  2
BLOCKS
  0
BLOCK
  8
0
  2
$MODEL_SPACE
 70
     0
 10
0.0
 20
0.0
 30
0.0
  3
$MODEL_SPACE
  1

  0
ENDBLK
  5
21
  8
0
  0
BLOCK
 67
     1
  8
0
  2
$PAPER_SPACE
 70
     0
 10
0.0
 20
0.0
 30
0.0
  3
$PAPER_SPACE
  1

  0
ENDBLK
  5
1D
 67
     1
  8
0
  0
BLOCK
  8
0
  2
_FILLED
 70
     0
 10
0.0
 20
0.0
 30
0.0
  3
_FILLED
  1

  0
SOLID
  5
7975
  8
0
  6
BYBLOCK
 62
     0
 10
0.0
 20
0.0
 30
0.0
 11
-1.0
 21
0.1666666667
 31
0.0
 12
-1.0
 22
-0.1666666667
 32
0.0
 13
-1.0
 23
-0.1666666667
 33
0.0
  0
ENDBLK
  5
7976
  8
0
  6
BYBLOCK
 62
     0
  0
ENDSEC
  0
SECTION
  2
ENTITIES
  0
ATTDEF
  5
3930
  8
DEFPOINTS
 10
3337.6988206484152215
 20
287.6518376192784103
 30
0.0
 40
0.001
  1
K-2336T
  3

  2
MODELNUMBER
 70
     0
1001
ACDBATTR
1070
     0
1070
     1
  0
ATTDEF
  5
3931
  8
DEFPOINTS
 10
3337.6988206484152215
 20
287.6501709526116883
 30
0.0
 40
0.001
  1
DEVONSHIRE
  3

  2
TRADENAME
 70
     0
1001
ACDBATTR
1070
     0
1070
     1
  0
ATTDEF
  5
3932
  8
DEFPOINTS
 10
3337.6988206484152215
 20
287.6485042859450232
 30
0.0
 40
0.001
  1
BATHROOM SINK
  3

  2
PRODUCT
 70
     0
1001
ACDBATTR
1070
     0
1070
     1
  0
ARC
  5
7A26
  8
0
 10
3327.7867492184209368
 20
287.5931687859314252
 30
0.0
 40
0.0603716049064495
 50
90.357456686278752
 51
181.6359628618365889
  0
ARC
  5
7A6E
  8
0
 10
3327.800004770328087
 20
287.2139205411838248
 30
0.0
 40
0.0603824478633761
 50
182.3494077173436949
 51
269.6506201942414123
  0
LINE
  5
7A6F
  8
0
 10
3327.7996365708308986
 20
287.1535392159324829
 30
0.0
 11
3347.6196189176312146
 21
287.1535392159324829
 31
0.0
  0
LINE
  5
7A71
  8
0
 10
3327.7863725747311037
 20
287.6535392159324829
 30
0.0
 11
3347.6328829137310095
 21
287.6535392159324829
 31
0.0
  0
LINE
  5
7A73
  8
0
 10
3327.726402221430817
 20
287.5914452334324096
 30
0.0
 11
3327.7396730789309913
 21
287.2114452587325104
 31
0.0
  0
ARC
  5
7A74
  8
0
 10
3347.6325062700398121
 20
287.5931687859314252
 30
0.0
 40
0.0603716049064495
 50
358.3640371381633827
 51
89.6425433137212337
  0
ARC
  5
7A75
  8
0
 10
3347.6192507181340261
 20
287.2139205411838248
 30
0.0
 40
0.0603824478633761
 50
270.3493798057585877
 51
357.6505922826561914
  0
LINE
  5
7A76
  8
0
 10
3347.6928532670308414
 20
287.5914452334324096
 30
0.0
 11
3347.6795824095311218
 21
287.2114452587325104
 31
0.0
  0
ARC
  5
7A77
  8
0
 10
3328.2919896624498506
 20
286.9022265890831136
 30
0.0
 40
0.2514107438779129
 50
16.6814164466691786
 51
88.3992185888189681
  0
ARC
  5
7A78
  8
0
 10
3328.7741696076641347
 20
287.0465224633476851
 30
0.0
 40
0.251897147550982
 50
196.6390183420139124
 51
241.3064298152717129
  0
ARC
  5
7A79
  8
0
 10
3338.7357854734941611
 20
305.2466346063749825
 30
0.0
 40
20.999857834739931
 50
241.3064298152717129
 51
241.6399745462252895
  0
ARC
  5
7A7A
  8
0
 10
3328.2262524122379546
 20
285.7772051474963177
 30
0.0
 40
1.1249917380802821
 50
41.2545512529939771
 51
61.6399745462252397
  0
ARC
  5
7A7B
  8
0
 10
3328.1088095891509511
 20
285.946420126226883
 30
0.0
 40
1.120550086650405
 50
0.13729900358111
 51
30.7310395703819808
  0
ARC
  5
7A7C
  8
0
 10
3329.7267085368789594
 20
285.9926147136258123
 30
0.0
 40
0.4992515970968853
 50
184.9996255933164946
 51
239.496825942021502
  0
ARC
  5
7A7D
  8
0
 10
3329.3159876238200923
 20
285.3005931234155241
 30
0.0
 40
0.3054823608423642
 50
20.8009085944348584
 51
59.0059738884439398
  0
ARC
  5
7A7E
  8
0
 10
3336.3396621145848258
 20
288.0169566406968897
 30
0.0
 40
7.2251696642973311
 50
201.1581683146270052
 51
229.919600037085786
  0
ARC
  5
7A7F
  8
0
 10
3337.3415291898231771
 20
289.1458645142868136
 30
0.0
 40
8.7340984876023882
 50
229.6591045054099993
 51
261.4653744247281111
  0
ARC
  5
7A80
  8
0
 10
3336.0056724043070062
 20
280.2620007750049922
 30
0.0
 40
0.2496530306207302
 50
4.9794088379778287
 51
80.8604564877468022
  0
ARC
  5
7A81
  8
0
 10
3336.4837534520311237
 20
279.1535392159324829
 30
0.0
 40
0.1299999999999997
 50
185.0000000000005116
 51
270.0
  0
LINE
  5
7A83
  8
0
 10
3336.2543832334308718
 20
280.2836700891324995
 30
0.0
 11
3336.3542481413360292
 21
279.142208969372291
 31
0.0
  0
ARC
  5
7A84
  8
0
 10
3347.9630884059711207
 20
286.0423583975580755
 30
0.0
 40
8.2258711046719402
 50
173.6840235777758892
 51
176.2344348557298872
  0
ARC
  5
7A85
  8
0
 10
3326.3229164719150504
 20
283.2653694075104909
 30
0.0
 40
12.9706619706441693
 50
343.9273318823001091
 51
346.7020911174719231
  0
ARC
  5
7A86
  8
0
 10
3338.1384692699780317
 20
279.8610904494776719
 30
0.0
 40
0.674467309370996
 50
272.4781645187035224
 51
343.9273318823001091
  0
ARC
  5
7A87
  8
0
 10
3337.7096228136679201
 20
269.2948096527367738
 30
0.0
 40
9.9030412652983202
 50
87.3491601739729902
 51
89.9999714733610148
  0
ARC
  5
7A88
  8
0
 10
3340.0315005876191208
 20
286.9075186818050724
 30
0.0
 40
0.2475716803581589
 50
96.41712551396013
 51
170.7536269074460904
  0
LINE
  5
7A89
  8
0
 10
3338.9457995622310591
 20
280.2819327239325276
 30
0.0
 11
3339.7549759797311708
 21
286.5825859689325057
 31
0.0
  0
ARC
  5
7A8A
  8
0
 10
3327.456167082490083
 20
286.0423583975580755
 30
0.0
 40
8.2258711046719402
 50
3.7655651442700639
 51
6.3159764222240398
  0
ARC
  5
7A8B
  8
0
 10
3349.0963390165470628
 20
283.2653694075104909
 30
0.0
 40
12.9706619706441693
 50
193.2979088825279916
 51
196.0726681176998056
  0
ARC
  5
7A8C
  8
0
 10
3337.2807862184840815
 20
279.8610904494776719
 30
0.0
 40
0.674467309370996
 50
196.0726681176998056
 51
267.5218354812964776
  0
ARC
  5
7A8D
  8
0
 10
3337.7096326747928288
 20
269.2948096527367738
 30
0.0
 40
9.9030412652983202
 50
90.0000285266390136
 51
92.6508398260270241
  0
ARC
  5
7A8E
  8
0
 10
3335.3877549008420829
 20
286.9075186818050724
 30
0.0
 40
0.2475716803581589
 50
9.2463730925539256
 51
83.5828744860398558
  0
LINE
  5
7A8F
  8
0
 10
3336.473455926231054
 20
280.2819327239325276
 30
0.0
 11
3335.6642795087300328
 21
286.5825859689325057
 31
0.0
  0
ARC
  5
7A90
  8
0
 10
3346.6450858807979785
 20
287.0465224633476851
 30
0.0
 40
0.251897147550982
 50
298.6935701847282871
 51
343.3609816579860876
  0
ARC
  5
7A91
  8
0
 10
3336.6834700149670425
 20
305.2466346063749825
 30
0.0
 40
20.999857834739931
 50
298.3600254537748242
 51
298.6935701847282871
  0
ARC
  5
7A92
  8
0
 10
3347.1930030762241586
 20
285.7772051474963177
 30
0.0
 40
1.1249917380802821
 50
118.3600254537746963
 51
138.7454487470060087
  0
ARC
  5
7A93
  8
0
 10
3347.3104458993111621
 20
285.946420126226883
 30
0.0
 40
1.120550086650405
 50
149.268960429618005
 51
179.8627009964189085
  0
ARC
  5
7A94
  8
0
 10
3345.6925469515831537
 20
285.9926147136258123
 30
0.0
 40
0.4992515970968853
 50
300.5031740579785264
 51
355.0003744066834201
  0
ARC
  5
7A95
  8
0
 10
3346.1032678646420209
 20
285.3005931234155241
 30
0.0
 40
0.3054823608423642
 50
120.9940261115559963
 51
159.199091405565099
  0
ARC
  5
7A96
  8
0
 10
3339.0795933738768326
 20
288.0169566406968897
 30
0.0
 40
7.2251696642973311
 50
310.080399962914214
 51
338.8418316853729948
  0
ARC
  5
7A97
  8
0
 10
3338.077726298638936
 20
289.1458645142868136
 30
0.0
 40
8.7340984876023882
 50
278.5346255752718889
 51
310.3408954945899723
  0
ARC
  5
7A98
  8
0
 10
3339.4135830841541974
 20
280.2620007750049922
 30
0.0
 40
0.2496530306207302
 50
99.139543512253212
 51
175.0205911620222139
  0
ARC
  5
7A99
  8
0
 10
3338.9355020364309894
 20
279.1535392159324829
 30
0.0
 40
0.1299999999999997
 50
270.0
 51
354.9999999999993747
  0
LINE
  5
7A9A
  8
0
 10
3339.1648722550307866
 20
280.2836700891324995
 30
0.0
 11
3339.0650073471251744
 21
279.142208969372291
 31
0.0
  0
ARC
  5
7A9B
  8
0
 10
3347.1272658260108983
 20
286.9022265890831136
 30
0.0
 40
0.2514107438779129
 50
91.6007814111810461
 51
163.3185835533307966
  0
LINE
  5
7A9C
  8
0
 10
3335.6500425671101766
 20
286.7671755974324128
 30
0.0
 11
3328.7606351580311639
 21
286.7671755974324128
 31
0.0
  0
LINE
  5
7A9D
  8
0
 10
3335.7952917451189023
 20
285.562459017032495
 30
0.0
 11
3329.4732953685311259
 21
285.562459017032495
 31
0.0
  0
LINE
  5
7A9E
  8
0
 10
3339.7692129213519365
 20
286.7671755974324128
 30
0.0
 11
3346.6586203304300398
 21
286.7671755974324128
 31
0.0
  0
LINE
  5
7A9F
  8
0
 10
3339.6239637433418466
 20
285.562459017032495
 30
0.0
 11
3345.9459601199309873
 21
285.562459017032495
 31
0.0
  0
LINE
  5
7ACC
  8
0
 10
3338.9355020364309894
 20
279.0235392159324874
 30
0.0
 11
3336.4837534520311237
 21
279.0235392159324874
 31
0.0
  0
ENDSEC
  0
EOF
