  0
SECTION
  2
HEADER
  9
$ACADVER
  1
AC1009
  9
$INSBASE
 10
4169.9158724257131325
 20
226.249116526142501
 30
0.0
  9
$EXTMIN
 10
4163.8056362051629549
 20
217.0011607465384884
 30
0.0
  9
$EXTMAX
 10
4185.6837037353980122
 20
226.253850211277495
 30
0.0
  9
$LIMMIN
 10
0.0
 20
0.0
  9
$LIMMAX
 10
11.6929133858000007
 20
8.2677165353999982
  9
$ORTHOMODE
 70
     0
  9
$REGENMODE
 70
     1
  9
$FILLMODE
 70
     1
  9
$QTEXTMODE
 70
     0
  9
$MIRRTEXT
 70
     0
  9
$DRAGMODE
 70
     2
  9
$LTSCALE
 40
0.6431102362
  9
$OSMODE
 70
  3839
  9
$ATTMODE
 70
     1
  9
$TEXTSIZE
 40
0.2
  9
$TRACEWID
 40
0.05
  9
$TEXTSTYLE
  7
STANDARD
  9
$CLAYER
  8
0
  9
$CELTYPE
  6
BYLAYER
  9
$CECOLOR
 62
   256
  9
$DIMSCALE
 40
1.0
  9
$DIMASZ
 40
0.1875
  9
$DIMEXO
 40
0.0625
  9
$DIMDLI
 40
0.4443307087
  9
$DIMRND
 40
0.0
  9
$DIMDLE
 40
0.0
  9
$DIMEXE
 40
0.125
  9
$DIMTP
 40
0.01
  9
$DIMTM
 40
0.01
  9
$DIMTXT
 40
2.0
  9
$DIMCEN
 40
0.1052362205
  9
$DIMTSZ
 40
0.0
  9
$DIMTOL
 70
     1
  9
$DIMLIM
 70
     0
  9
$DIMTIH
 70
     1
  9
$DIMTOH
 70
     1
  9
$DIMSE1
 70
     0
  9
$DIMSE2
 70
     0
  9
$DIMTAD
 70
     0
  9
$DIMZIN
 70
     0
  9
$DIMBLK
  1

  9
$DIMASO
 70
     1
  9
$DIMSHO
 70
     1
  9
$DIMPOST
  1
\X
  9
$DIMAPOST
  1

  9
$DIMALT
 70
     1
  9
$DIMALTD
 70
     2
  9
$DIMALTF
 40
25.3999999999999986
  9
$DIMLFAC
 40
1.0
  9
$DIMTOFL
 70
     0
  9
$DIMTVP
 40
0.0
  9
$DIMTIX
 70
     0
  9
$DIMSOXD
 70
     0
  9
$DIMSAH
 70
     0
  9
$DIMBLK1
  1

  9
$DIMBLK2
  1

  9
$DIMSTYLE
  2
STANDARD
  9
$DIMCLRD
 70
     0
  9
$DIMCLRE
 70
     0
  9
$DIMCLRT
 70
     0
  9
$DIMTFAC
 40
1.0
  9
$DIMGAP
 40
0.09
  9
$LUNITS
 70
     2
  9
$LUPREC
 70
     4
  9
$SKETCHINC
 40
0.1
  9
$FILLETRAD
 40
0.0
  9
$AUNITS
 70
     0
  9
$AUPREC
 70
     0
  9
$MENU
  1
.
  9
$ELEVATION
 40
0.0
  9
$PELEVATION
 40
0.0
  9
$THICKNESS
 40
0.0
  9
$LIMCHECK
 70
     0
  9
$BLIPMODE
 70
     0
  9
$CHAMFERA
 40
0.0
  9
$CHAMFERB
 40
0.0
  9
$SKPOLY
 70
     0
  9
$TDCREATE
 40
2458060.468368056230247
  9
$TDUPDATE
 40
2459145.562662037089467
  9
$TDINDWG
 40
0.5992894676
  9
$TDUSRTIMER
 40
0.5992894676
  9
$USRTIMER
 70
     1
  9
$ANGBASE
 50
0.0
  9
$ANGDIR
 70
     0
  9
$PDMODE
 70
     0
  9
$PDSIZE
 40
0.3125
  9
$PLINEWID
 40
0.0
  9
$COORDS
 70
     1
  9
$SPLFRAME
 70
     0
  9
$SPLINETYPE
 70
     6
  9
$SPLINESEGS
 70
     8
  9
$ATTDIA
 70
     1
  9
$ATTREQ
 70
     1
  9
$HANDLING
 70
     1
  9
$HANDSEED
  5
D804
  9
$SURFTAB1
 70
     6
  9
$SURFTAB2
 70
     6
  9
$SURFTYPE
 70
     6
  9
$SURFU
 70
     6
  9
$SURFV
 70
     6
  9
$UCSNAME
  2

  9
$UCSORG
 10
0.0
 20
0.0
 30
0.0
  9
$UCSXDIR
 10
1.0
 20
0.0
 30
0.0
  9
$UCSYDIR
 10
0.0
 20
1.0
 30
0.0
  9
$PUCSNAME
  2

  9
$PUCSORG
 10
0.0
 20
0.0
 30
0.0
  9
$PUCSXDIR
 10
1.0
 20
0.0
 30
0.0
  9
$PUCSYDIR
 10
0.0
 20
1.0
 30
0.0
  9
$USERI1
 70
     0
  9
$USERI2
 70
     0
  9
$USERI3
 70
     0
  9
$USERI4
 70
     0
  9
$USERI5
 70
     0
  9
$USERR1
 40
0.0
  9
$USERR2
 40
0.0
  9
$USERR3
 40
0.0
  9
$USERR4
 40
0.0
  9
$USERR5
 40
0.0
  9
$WORLDVIEW
 70
     1
  9
$SHADEDGE
 70
     3
  9
$SHADEDIF
 70
    70
  9
$TILEMODE
 70
     1
  9
$MAXACTVP
 70
    64
  9
$PLIMCHECK
 70
     0
  9
$PEXTMIN
 10
1.0000000000000000E+20
 20
1.0000000000000000E+20
 30
1.0000000000000000E+20
  9
$PEXTMAX
 10
-1.0000000000000000E+20
 20
-1.0000000000000000E+20
 30
-1.0000000000000000E+20
  9
$PLIMMIN
 10
0.0
 20
0.0
  9
$PLIMMAX
 10
12.0
 20
9.0
  9
$UNITMODE
 70
     0
  9
$VISRETAIN
 70
     1
  9
$PLINEGEN
 70
     0
  9
$PSLTSCALE
 70
     1
  0
ENDSEC
  0
SECTION
  2
TABLES
  0
TABLE
  2
VPORT
 70
     1
  0
VPORT
  2
*ACTIVE
 70
     0
 10
0.0
 20
0.0
 11
1.0
 21
1.0
 12
0.0
 22
0.0
 13
0.0
 23
0.0
 14
1.0
 24
1.0
 15
0.0
 25
0.0
 16
0.0
 26
0.0
 36
93.3561674737646143
 17
4174.74365234375
 27
221.6275049396230941
 37
0.0
 40
23.7522763720297512
 41
3.1182994454713491
 42
50.0
 43
0.0
 44
0.0
 50
0.0
 51
0.0
 71
     0
 72
   100
 73
     1
 74
     1
 75
     0
 76
     0
 77
     0
 78
     0
  0
ENDTAB
  0
TABLE
  2
LTYPE
 70
     2
  0
LTYPE
  2
CONTINUOUS
 70
     0
  3
Solid line
 72
    65
 73
     0
 40
0.0
  0
LTYPE
  2
PHANTOM2
 70
     0
  3
___ _ _ ___ _ _ ___ _ _ ___ _ _
 72
    65
 73
     6
 40
1.25
 49
0.625
 49
-0.125
 49
0.125
 49
-0.125
 49
0.125
 49
-0.125
  0
ENDTAB
  0
TABLE
  2
LAYER
 70
     2
  0
LAYER
  2
0
 70
     0
 62
   255
  6
CONTINUOUS
  0
LAYER
  2
DEFPOINTS
 70
     0
 62
     7
  6
CONTINUOUS
  0
ENDTAB
  0
TABLE
  2
STYLE
 70
     1
  0
STYLE
  2
STANDARD
 70
     0
 40
0.0
 41
0.8
 50
0.0
 71
     0
 42
0.2
  3
txt
  4

  0
ENDTAB
  0
TABLE
  2
VIEW
 70
     0
  0
ENDTAB
  0
TABLE
  2
UCS
 70
     0
  0
ENDTAB
  0
TABLE
  2
APPID
 70
     9
  0
APPID
  2
ACAD
 70
     0
  0
APPID
  2
ACAD_MLEADERVER
 70
     0
  0
APPID
  2
ACAD_EXEMPT_FROM_CAD_STANDARDS
 70
     0
  0
APPID
  2
ACAD_NAV_VCDISPLAY
 70
     0
  0
APPID
  2
ACAECLAYERSTANDARD
 70
     0
  0
APPID
  2
ACCMTRANSPARENCY
 70
     0
  0
APPID
  2
ACAD_DSTYLE_DIMJAG
 70
     0
  0
APPID
  2
ACAD_DSTYLE_DIMTALN
 70
     0
  0
APPID
  2
ACDBATTR
 70
     0
  0
ENDTAB
  0
TABLE
  2
DIMSTYLE
 70
     1
  0
DIMSTYLE
  2
STANDARD
 70
     0
  3

  4

  5

  6

  7

 40
1.0
 41
0.1875
 42
0.0625
 43
0.38
 44
0.125
 45
0.0
 46
0.0
 47
0.01
 48
0.01
140
0.15625
141
0.09
142
0.0
143
25.3999999999999986
144
1.0
145
0.0
146
1.0
147
0.09
 71
     1
 72
     0
 73
     1
 74
     1
 75
     0
 76
     0
 77
     0
 78
     4
170
     0
171
     2
172
     0
173
     0
174
     0
175
     0
176
     0
177
     0
178
     0
  0
ENDTAB
  0
ENDSEC
  0
SECTION
  2
BLOCKS
  0
BLOCK
  8
0
  2
$MODEL_SPACE
 70
     0
 10
0.0
 20
0.0
 30
0.0
  3
$MODEL_SPACE
  1

  0
ENDBLK
  5
21
  8
0
  0
BLOCK
 67
     1
  8
0
  2
$PAPER_SPACE
 70
     0
 10
0.0
 20
0.0
 30
0.0
  3
$PAPER_SPACE
  1

  0
ENDBLK
  5
1D
 67
     1
  8
0
  0
BLOCK
  8
0
  2
_FILLED
 70
     0
 10
0.0
 20
0.0
 30
0.0
  3
_FILLED
  1

  0
SOLID
  5
6F59
  8
0
  6
BYBLOCK
 62
     0
 10
0.0
 20
0.0
 30
0.0
 11
-1.0
 21
0.1666666667
 31
0.0
 12
-1.0
 22
-0.1666666667
 32
0.0
 13
-1.0
 23
-0.1666666667
 33
0.0
  0
ENDBLK
  5
6F5A
  8
0
  6
BYBLOCK
 62
     0
  0
ENDSEC
  0
SECTION
  2
ENTITIES
  0
ATTDEF
  5
3930
  8
DEFPOINTS
 10
4169.9161930253267201
 20
226.2528502112774049
 30
0.0
 40
0.001
  1
K-23370T-9
  3

  2
MODELNUMBER
 70
     0
1001
ACDBATTR
1070
     0
1070
     1
  0
ATTDEF
  5
3931
  8
DEFPOINTS
 10
4169.9161930253267201
 20
226.2511835446107114
 30
0.0
 40
0.001
  1
MEMOIRS
  3

  2
TRADENAME
 70
     0
1001
ACDBATTR
1070
     0
1070
     1
  0
ATTDEF
  5
3932
  8
DEFPOINTS
 10
4169.9161930253267201
 20
226.249516877944103
 30
0.0
 40
0.001
  1
BATH AND SHOWER FAUCET
  3

  2
PRODUCT
 70
     0
1001
ACDBATTR
1070
     0
1070
     1
  0
LINE
  5
D4AA
  8
0
 10
4171.6827155180117188
 20
226.249116526142501
 30
0.0
 11
4174.054541144412724
 21
226.249116526142501
 31
0.0
  0
LINE
  5
D4AB
  8
0
 10
4182.0951240573631367
 20
226.249116526142501
 30
0.0
 11
4184.4651240573630275
 21
226.249116526142501
 31
0.0
  0
LINE
  5
D4AC
  8
0
 10
4174.0428779172116265
 20
225.9637495159425953
 30
0.0
 11
4171.6943787452128163
 21
225.9637495159425953
 31
0.0
  0
LINE
  5
D4AD
  8
0
 10
4173.6647431640658397
 20
225.1467543214425007
 30
0.0
 11
4172.0725134983586031
 21
225.1467543214425007
 31
0.0
  0
LINE
  5
D4AE
  8
0
 10
4182.6494235346863206
 20
224.874116526142501
 30
0.0
 11
4183.9108245800380246
 21
224.874116526142501
 31
0.0
  0
LINE
  5
D4AF
  8
0
 10
4184.500124057362882
 20
226.1641165261424931
 30
0.0
 11
4184.500124057362882
 21
226.2141165261425044
 31
0.0
  0
LINE
  5
D4B0
  8
0
 10
4182.1651240573619361
 20
226.099116526142609
 30
0.0
 11
4184.3951240573624091
 21
226.099116526142609
 31
0.0
  0
LINE
  5
D4B1
  8
0
 10
4174.054541144412724
 20
226.249116526142501
 30
0.0
 11
4174.0499409434123663
 21
225.9855711863293095
 31
0.0
  0
ARC
  5
D4B2
  8
0
 10
4174.0105768609873849
 20
225.9862582889412863
 30
0.0
 40
0.0393700786794112
 50
325.1295482353925763
 51
359.0000000038518806
  0
ARC
  5
D4B3
  8
0
 10
4175.81978396931936
 20
224.7255245324789996
 30
0.0
 40
2.1657784345780349
 50
145.1295482353924911
 51
167.9519804899912003
  0
ARC
  5
D4B4
  8
0
 10
4173.6635774246424262
 20
225.1857294783465875
 30
0.0
 40
0.0389925865274882
 50
271.7131949606117018
 51
347.9519804899911719
  0
LINE
  5
D4B5
  8
0
 10
4171.6827155180117188
 20
226.249116526142501
 30
0.0
 11
4171.6873157190129859
 21
225.9855711863293095
 31
0.0
  0
ARC
  5
D4B6
  8
0
 10
4171.7266798014388769
 20
225.9862582889412863
 30
0.0
 40
0.0393700786794112
 50
180.9999999961464141
 51
214.8704517646073953
  0
ARC
  5
D4B7
  8
0
 10
4169.9174726931059922
 20
224.7255245324789996
 30
0.0
 40
2.1657784345780349
 50
12.0480195100087499
 51
34.8704517646074379
  0
ARC
  5
D4B8
  8
0
 10
4172.0736792377838356
 20
225.1857294783465875
 30
0.0
 40
0.0389925865274882
 50
192.048019510008686
 51
268.2868050393884118
  0
ARC
  5
D4B9
  8
0
 10
4184.4651240573630275
 20
226.2141165261425897
 30
0.0
 40
0.0349999999999895
 50
0.0000000000928213
 51
90.0000000002084306
  0
LINE
  5
D4BA
  8
0
 10
4182.0951240573631367
 20
226.1291165261424965
 30
0.0
 11
4184.4651240573630275
 21
226.1291165261424965
 31
0.0
  0
ARC
  5
D4BB
  8
0
 10
4184.4651240573630275
 20
226.1641165261424931
 30
0.0
 40
0.0349999999999895
 50
269.999999999791612
 51
359.9999999999071747
  0
ARC
  5
D4BC
  8
0
 10
4184.4251240573630639
 20
226.099116526142609
 30
0.0
 40
0.0300000000000095
 50
90.0
 51
180.0
  0
LINE
  5
D4BD
  8
0
 10
4184.3951240573624091
 20
226.099116526142609
 30
0.0
 11
4184.3951240573624091
 21
226.0891165261425044
 31
0.0
  0
ARC
  5
D4BE
  8
0
 10
4192.1187195752963817
 20
222.5376508092051893
 30
0.0
 40
8.5009903225001402
 50
155.3060700317977876
 51
163.7952851794273101
  0
ARC
  5
D4BF
  8
0
 10
4183.9072371205165837
 20
224.9242824287570954
 30
0.0
 40
0.0502940120785073
 50
274.0903674719415903
 51
343.5298191627931033
  0
ARC
  5
D4C0
  8
0
 10
4183.9980620808992171
 20
225.2198741597393052
 30
0.0
 40
0.0510198412745178
 50
279.3720692666552736
 51
333.6851756969207941
  0
ARC
  5
D4C1
  8
0
 10
4184.1514143131471428
 20
224.5943213880287033
 30
0.0
 40
0.5932190446721624
 50
104.1524714414180011
 51
150.6315297936106958
  0
ARC
  5
D4C2
  8
0
 10
4183.6167835782071052
 20
224.8933267190292895
 30
0.0
 40
0.0194099767984046
 50
278.2277027591645719
 51
335.4119319683416052
  0
CIRCLE
  5
D4C3
  8
0
 10
4183.2801240573626274
 20
225.874116526142501
 30
0.0
 40
0.0838782825160518
  0
ARC
  5
D4C4
  8
0
 10
4173.9903787426037525
 20
223.6257364948965005
 30
0.0
 40
0.0199819166109912
 50
0.1208563407633538
 51
32.193360079887519
  0
ARC
  5
D4C5
  8
0
 10
5502.1402060238197009
 20
222.8114626648288095
 30
0.0
 40
1328.13009504972797
 50
179.9648702549040138
 51
180.0351297450910977
  0
ARC
  5
D4C6
  8
0
 10
4173.9906610999905752
 20
221.997152153564997
 30
0.0
 40
0.0196995155308919
 50
270.0513399268369881
 51
359.9840983650145176
  0
ARC
  5
D4C7
  8
0
 10
4173.6854467530201873
 20
61.6369662992386793
 30
0.0
 40
160.3407768737278047
 50
89.8909290811496646
 51
90.2572428248220575
  0
ARC
  5
D4C8
  8
0
 10
4172.9887227333592818
 20
216.8974550643677901
 30
0.0
 40
5.0787248717093876
 50
90.2612928694573213
 51
102.9121549446556969
  0
ARC
  5
D4C9
  8
0
 10
4172.0832078887669923
 20
220.3779257214328879
 30
0.0
 40
1.4876204219537441
 50
98.8692403828995339
 51
177.3529485670080135
  0
ARC
  5
D4CA
  8
0
 10
4360.9164653453899518
 20
215.5836704479916079
 30
0.0
 40
190.3814085582145879
 50
178.53632079999349
 51
179.1301375792201043
  0
ARC
  5
D4CB
  8
0
 10
4178.683355557570394
 20
218.5772239428810906
 30
0.0
 40
8.1270150413759126
 50
180.7282955874624122
 51
186.2895800668912045
  0
ARC
  5
D4CC
  8
0
 10
4167.8716724024334326
 20
217.6872274229376103
 30
0.0
 40
2.7335854882830288
 50
347.2803468048542186
 51
359.9927312732000928
  0
ARC
  5
D4CD
  8
0
 10
4170.4874507744243601
 20
217.104751031838191
 30
0.0
 40
0.0543082091050646
 50
290.781221634365977
 51
339.06286279739561
  0
LINE
  5
D4CE
  8
0
 10
4183.4301241141456558
 20
224.8647381238424998
 30
0.0
 11
4183.4301239135629658
 21
223.8416683692425124
 31
0.0
  0
ARC
  5
D4CF
  8
0
 10
4183.4010346860131904
 20
223.8447281739798029
 30
0.0
 40
0.0292497105020156
 50
278.660385921977479
 51
353.9953172658695735
  0
ARC
  5
D4D0
  8
0
 10
4183.336432098350997
 20
224.1333235810332951
 30
0.0
 40
0.3249239678148565
 50
268.740648043153783
 51
282.26178694095438
  0
ARC
  5
D4D1
  8
0
 10
4183.2664252477679838
 20
223.3256975749303024
 30
0.0
 40
0.590961030168011
 50
353.1468780999218211
 51
25.9834908315342688
  0
ARC
  5
D4D2
  8
0
 10
4183.2962993010924038
 20
223.3195264982996093
 30
0.0
 40
0.5671165247551727
 50
27.8665734748664704
 51
76.3509705228254774
  0
ARC
  5
D4D3
  8
0
 10
4183.3351973724966228
 20
223.1172561650579951
 30
0.0
 40
0.5360157127162793
 50
330.8510118540413032
 51
21.2159473696384708
  0
ARC
  5
D4D4
  8
0
 10
4183.3068196934791558
 20
223.1062401010117924
 30
0.0
 40
0.5664565788916885
 50
21.2159473696384708
 51
71.6126938790644232
  0
ARC
  5
D4D5
  8
0
 10
4181.5387274748500204
 20
222.1803547710185001
 30
0.0
 40
2.3632930161919599
 50
343.0894033476357095
 51
22.8983809894103594
  0
ARC
  5
D4D6
  8
0
 10
4183.3196164406826938
 20
221.225777563604197
 30
0.0
 40
0.5498794361248285
 50
350.1544100198927936
 51
60.9843284471705829
  0
ARC
  5
D4D7
  8
0
 10
4183.3378774889433771
 20
221.2226083670620937
 30
0.0
 40
0.531345421711901
 50
312.0223031250413896
 51
350.1544100198927936
  0
LINE
  5
D4D8
  8
0
 10
4183.6934211980233158
 20
221.1807055774883963
 30
0.0
 11
4183.6934211980233158
 21
219.4207173102915931
 31
0.0
  0
ARC
  5
D4D9
  8
0
 10
4183.3054528339544049
 20
221.1896995673990034
 30
0.0
 40
0.4256208605002409
 50
335.7183639011525997
 51
34.8190546323956625
  0
ARC
  5
D4DA
  8
0
 10
4183.5438967829741159
 20
219.4556378255198865
 30
0.0
 40
0.153548015550374
 50
341.4199259846780024
 51
13.1454634904034702
  0
ARC
  5
D4DB
  8
0
 10
4183.3989821452496471
 20
219.5510025091166142
 30
0.0
 40
0.3243243602586891
 50
291.6127970959894924
 51
333.5835066291854787
  0
ARC
  5
D4DC
  8
0
 10
4183.4556078636524035
 20
217.6255752364457976
 30
0.0
 40
2.7842944508077991
 50
54.603075082822869
 51
85.1002588056359173
  0
ARC
  5
D4DD
  8
0
 10
4184.3466871433802226
 20
218.8795881206766012
 30
0.0
 40
1.245928240643408
 50
9.5974152886499038
 51
54.603075082822869
  0
ARC
  5
D4DE
  8
0
 10
4184.7027843566065712
 20
218.9398009324278007
 30
0.0
 40
0.8847761840688106
 50
333.8489759290965253
 51
9.5974152886499038
  0
ARC
  5
D4DF
  8
0
 10
4184.0380181108939723
 20
219.4096189336825944
 30
0.0
 40
1.693461300449179
 50
291.3976340964513838
 51
329.489140099867825
  0
ARC
  5
D4E0
  8
0
 10
4184.7810377822070222
 20
218.8658710727378889
 30
0.0
 40
0.8271276445426963
 50
354.9428350393378082
 51
17.2817256489483988
  0
ARC
  5
D4E1
  8
0
 10
4184.5626653857252677
 20
218.9330159895357895
 30
0.0
 40
1.0516481098527759
 50
309.6579324996836817
 51
352.3467512040705856
  0
ARC
  5
D4E2
  8
0
 10
4183.7375345481214026
 20
219.8764970304881956
 30
0.0
 40
2.3048428855818051
 50
286.6230155527107968
 51
310.4810359686682091
  0
ARC
  5
D4E3
  8
0
 10
4184.7323461324585878
 20
218.4781767060775906
 30
0.0
 40
0.9513576029407818
 50
347.3438096790852114
 51
23.0094606844962293
  0
ARC
  5
D4E4
  8
0
 10
4184.4804122715850099
 20
218.5713289565370019
 30
0.0
 40
1.218102711892675
 50
310.8493354493111269
 51
345.6648173665278136
  0
ARC
  5
D4E5
  8
0
 10
4183.7225111969528371
 20
219.4471074868201015
 30
0.0
 40
2.3762917965144981
 50
286.4507582380002759
 51
310.860869221891619
  0
ARC
  5
D4E6
  8
0
 10
4183.4937126376626111
 20
224.9247381238423884
 30
0.0
 40
0.059999999999917
 50
270.0
 51
302.4677976361095944
  0
LINE
  5
D4E7
  8
0
 10
4183.4937126376626111
 20
224.8647381238424998
 30
0.0
 11
4183.0665354770617341
 21
224.8647381238426135
 31
0.0
  0
ARC
  5
D4E8
  8
0
 10
4183.0665354770617341
 20
224.9247381238427863
 30
0.0
 40
0.0600000000002581
 50
237.5322023645672118
 51
270.0
  0
LINE
  5
D4E9
  8
0
 10
4182.0601240573632822
 20
226.1641165261424931
 30
0.0
 11
4182.0601240573632822
 21
226.2141165261425044
 31
0.0
  0
ARC
  5
D4EA
  8
0
 10
4182.0951240573631367
 20
226.2141165261425897
 30
0.0
 40
0.0349999999999895
 50
89.9999999997915552
 51
179.9999999999070894
  0
ARC
  5
D4EB
  8
0
 10
4182.0951240573631367
 20
226.1641165261424931
 30
0.0
 40
0.0349999999999895
 50
180.0000000000927969
 51
270.000000000208388
  0
ARC
  5
D4EC
  8
0
 10
4182.1351240573631003
 20
226.099116526142609
 30
0.0
 40
0.0300000000000095
 50
0.0
 51
90.0
  0
LINE
  5
D4ED
  8
0
 10
4182.1651240573619361
 20
226.099116526142609
 30
0.0
 11
4182.1651240573619361
 21
226.0891165261425044
 31
0.0
  0
ARC
  5
D4EE
  8
0
 10
4174.4415285394279636
 20
222.5376508092051893
 30
0.0
 40
8.5009903225001402
 50
16.2047148205727005
 51
24.6939299682022018
  0
ARC
  5
D4EF
  8
0
 10
4182.653010994208671
 20
224.9242824287570954
 30
0.0
 40
0.0502940120785073
 50
196.4701808372053051
 51
265.9096325280584097
  0
ARC
  5
D4F0
  8
0
 10
4182.5621860338269471
 20
225.2198741597393052
 30
0.0
 40
0.0510198412745178
 50
206.3148243030790923
 51
260.6279307333447264
  0
ARC
  5
D4F1
  8
0
 10
4182.4088338015781119
 20
224.5943213880287033
 30
0.0
 40
0.5932190446721624
 50
29.3684702063893113
 51
75.8475285585819705
  0
ARC
  5
D4F2
  8
0
 10
4182.943464536519059
 20
224.8933267190292895
 30
0.0
 40
0.0194099767984046
 50
204.5880680316570022
 51
261.7722972408354281
  0
LINE
  5
D4F3
  8
0
 10
4183.1301240005786894
 20
224.8647381238424998
 30
0.0
 11
4183.1301242011631984
 21
223.8416683692425124
 31
0.0
  0
ARC
  5
D4F4
  8
0
 10
4183.1592134287111548
 20
223.8447281739798029
 30
0.0
 40
0.0292497105020156
 50
186.0046827341303981
 51
261.339614078022521
  0
ARC
  5
D4F5
  8
0
 10
4183.2238160163751672
 20
224.1333235810332951
 30
0.0
 40
0.3249239678148565
 50
257.73821305904562
 51
271.259351956846217
  0
ARC
  5
D4F6
  8
0
 10
4183.2938228669581804
 20
223.3256975749303024
 30
0.0
 40
0.590961030168011
 50
154.0165091684656886
 51
186.8531219000780936
  0
ARC
  5
D4F7
  8
0
 10
4183.2639488136337604
 20
223.3195264982996093
 30
0.0
 40
0.5671165247551727
 50
103.6490294771744942
 51
152.1334265251335012
  0
ARC
  5
D4F8
  8
0
 10
4183.2250507422286319
 20
223.1172561650579951
 30
0.0
 40
0.5360157127162793
 50
158.7840526303614865
 51
209.1489881459586968
  0
ARC
  5
D4F9
  8
0
 10
4183.2534284212460989
 20
223.1062401010117924
 30
0.0
 40
0.5664565788916885
 50
108.3873061209356052
 51
158.7840526303614865
  0
ARC
  5
D4FA
  8
0
 10
4185.0215206398761438
 20
222.1803547710185001
 30
0.0
 40
2.3632930161919599
 50
157.1016190105895873
 51
196.9105966523642053
  0
ARC
  5
D4FB
  8
0
 10
4183.2406316740407419
 20
221.225777563604197
 30
0.0
 40
0.5498794361248285
 50
119.0156715528294029
 51
189.8455899801072064
  0
ARC
  5
D4FC
  8
0
 10
4183.2223706257827871
 20
221.2226083670620937
 30
0.0
 40
0.531345421711901
 50
189.8455899801072064
 51
227.9776968749586104
  0
LINE
  5
D4FD
  8
0
 10
4182.8668269167028484
 20
221.1807055774883963
 30
0.0
 11
4182.8668269167028484
 21
219.4207173102915931
 31
0.0
  0
ARC
  5
D4FE
  8
0
 10
4183.2547952807726688
 20
221.1896995673990034
 30
0.0
 40
0.4256208605002409
 50
145.1809453676042949
 51
204.2816360988474003
  0
ARC
  5
D4FF
  8
0
 10
4183.0163513317520483
 20
219.4556378255198865
 30
0.0
 40
0.153548015550374
 50
166.8545365095964996
 51
198.5800740153219976
  0
ARC
  5
D500
  8
0
 10
4183.1613316081884477
 20
219.5510518084863065
 30
0.0
 40
0.3244050785101369
 50
206.4191337234636023
 51
248.4474955066949917
  0
ARC
  5
D501
  8
0
 10
4183.1046402510728512
 20
217.6255752364457976
 30
0.0
 40
2.7842944508077991
 50
94.8997411943640969
 51
125.3969249171771025
  0
ARC
  5
D502
  8
0
 10
4182.2135609713468511
 20
218.8795881206766012
 30
0.0
 40
1.245928240643408
 50
125.3969249171771025
 51
170.4025847113501015
  0
ARC
  5
D503
  8
0
 10
4181.857463758117774
 20
218.9398009324278007
 30
0.0
 40
0.8847761840688106
 50
170.4025847113501015
 51
206.1510240709035031
  0
ARC
  5
D504
  8
0
 10
4182.5222300038321919
 20
219.4096189336825944
 30
0.0
 40
1.693461300449179
 50
210.5108599001322034
 51
248.6023659035485025
  0
ARC
  5
D505
  8
0
 10
4181.779210332517323
 20
218.8658710727378889
 30
0.0
 40
0.8271276445426963
 50
162.7182743510514911
 51
185.0571649606621918
  0
ARC
  5
D506
  8
0
 10
4181.997582728999987
 20
218.9330159895357895
 30
0.0
 40
1.0516481098527759
 50
187.653248795929386
 51
230.3420675003164035
  0
ARC
  5
D507
  8
0
 10
4182.8227135666047616
 20
219.8764970304881956
 30
0.0
 40
2.3048428855818051
 50
229.5189640313317909
 51
253.3769844472892032
  0
ARC
  5
D508
  8
0
 10
4181.8279019822666669
 20
218.4781767060775906
 30
0.0
 40
0.9513576029407818
 50
156.9905393155036961
 51
192.6561903209147033
  0
ARC
  5
D509
  8
0
 10
4182.0798358431411543
 20
218.5713289565370019
 30
0.0
 40
1.218102711892675
 50
194.3351826334721864
 51
229.1506645506889868
  0
ARC
  5
D50A
  8
0
 10
4182.8377369177724177
 20
219.4471074868201015
 30
0.0
 40
2.3762917965144981
 50
229.1391307781084095
 51
253.5492417619996957
  0
ARC
  5
D50B
  8
0
 10
4183.2801240573626274
 20
227.3650847063831009
 30
0.0
 40
3.5569464358873342
 50
269.2079885990676189
 51
270.7920114009323811
  0
ARC
  5
D50C
  8
0
 10
4183.2801240573626274
 20
223.0579536787965083
 30
0.0
 40
0.6207808111460271
 50
70.6803396591971307
 51
109.3196603408027983
  0
ARC
  5
D50D
  8
0
 10
4183.2801240573626274
 20
222.9843746812456118
 30
0.0
 40
0.4507191725969302
 50
14.85236100498072
 51
165.1476389950192925
  0
LINE
  5
D50E
  8
0
 10
4183.5754008734156741
 20
223.8132100659584864
 30
0.0
 11
4183.5753975835632446
 21
224.874116526142501
 31
0.0
  0
LINE
  5
D50F
  8
0
 10
4182.9848472566609416
 20
223.8132100746377091
 30
0.0
 11
4182.9848505465142807
 21
224.874116526142501
 31
0.0
  0
ARC
  5
D510
  8
0
 10
4183.2801240573626274
 20
221.1709901412037027
 30
0.0
 40
0.6169974246388576
 50
60.2450311004774477
 51
119.7549688995224955
  0
ARC
  5
D511
  8
0
 10
4183.2801240573626274
 20
221.1500908596808017
 30
0.0
 40
0.4693781677367685
 50
37.0234947445964693
 51
142.9765052554035094
  0
ARC
  5
D512
  8
0
 10
4183.2801240573626274
 20
221.1548165806379984
 30
0.0
 40
0.414107192204506
 50
3.5843333348265221
 51
176.4156666651734895
  0
ARC
  5
D513
  8
0
 10
4183.2801099273938235
 20
219.8499762224384142
 30
0.0
 40
0.6460630863016644
 50
248.388741012106891
 51
291.6476649803531132
  0
ARC
  5
D514
  8
0
 10
4183.2801240573626274
 20
221.2378764134093103
 30
0.0
 40
3.672410640030765
 50
247.9995890755743915
 51
292.0004109244255801
  0
ARC
  5
D515
  8
0
 10
4183.2801240573626274
 20
221.3111958116988092
 30
0.0
 40
3.8105371726570052
 50
252.9579947467015018
 51
287.0420052532984982
  0
ARC
  5
D516
  8
0
 10
4183.2801240573626274
 20
220.837706188874705
 30
0.0
 40
3.835365413732903
 50
253.0940212284488098
 51
286.9059787715511902
  0
ARC
  5
D517
  8
0
 10
3978.9154156564609366
 20
215.5836704479916079
 30
0.0
 40
190.3814085582145879
 50
0.8698624207798598
 51
1.4636792000064831
  0
ARC
  5
D518
  8
0
 10
4161.2055695212411592
 20
218.5751136754477102
 30
0.0
 40
8.0699488683965921
 50
353.6808370814317186
 51
359.2815379097149844
  0
ARC
  5
D519
  8
0
 10
4171.971190686472255
 20
217.6890733848898094
 30
0.0
 40
2.7447045796168221
 50
180.0457723162556078
 51
192.7067652773621944
  0
ARC
  5
D51A
  8
0
 10
4169.3444302274274378
 20
217.104751031838191
 30
0.0
 40
0.0543082091050646
 50
200.93713720260439
 51
249.2187783656339946
  0
ARC
  5
D51B
  8
0
 10
4169.915940500925899
 20
220.3317238725084053
 30
0.0
 40
3.3305631259699111
 50
259.7827483535425017
 51
280.2172516464574983
  0
LINE
  5
D51C
  8
0
 10
4173.4591798513620233
 20
224.2412424439426104
 30
0.0
 11
4172.2780774892617046
 21
224.2412424439426104
 31
0.0
  0
LINE
  5
D51D
  8
0
 10
4173.4591798513620233
 20
224.2215574710425869
 30
0.0
 11
4172.2780774892617046
 21
224.2215574710425869
 31
0.0
  0
LINE
  5
D51E
  8
0
 10
4173.2918570168121732
 20
224.2215574710425869
 30
0.0
 11
4173.2918570168121732
 21
224.1428173145521043
 31
0.0
  0
LINE
  5
D51F
  8
0
 10
4172.2288648908133837
 20
224.7352926890006017
 30
0.0
 11
4172.2288648908133837
 21
225.1467543214425007
 31
0.0
  0
LINE
  5
D520
  8
0
 10
4172.2780774892617046
 20
224.2215574710425869
 30
0.0
 11
4172.2780774892617046
 21
224.6939984159425023
 31
0.0
  0
LINE
  5
D521
  8
0
 10
4172.4454003238133737
 20
224.2215574710425869
 30
0.0
 11
4172.4454003238133737
 21
224.1557282129492137
 31
0.0
  0
LINE
  5
D522
  8
0
 10
4172.2288648908133837
 20
224.7352926890006017
 30
0.0
 11
4172.2780774892617046
 21
224.6939984159425023
 31
0.0
  0
LINE
  5
D523
  8
0
 10
4173.5083924498130727
 20
224.7352926890006017
 30
0.0
 11
4173.5083924498130727
 21
225.1467543214425007
 31
0.0
  0
LINE
  5
D524
  8
0
 10
4173.4591798513620233
 20
224.2215574710425869
 30
0.0
 11
4173.4591798513620233
 21
224.6939984159425023
 31
0.0
  0
LINE
  5
D525
  8
0
 10
4173.5083924498130727
 20
224.7352926890006017
 30
0.0
 11
4173.4591798513620233
 21
224.6939984159425023
 31
0.0
  0
LINE
  5
D527
  8
0
 10
4174.0072885377412604
 20
223.6363824246301988
 30
0.0
 11
4173.7235649010990528
 21
224.1328987886790003
 31
0.0
  0
ARC
  5
D528
  8
0
 10
4173.7064735006142655
 20
224.1231322741161023
 30
0.0
 40
0.0196850394264085
 50
29.7448812981757413
 51
89.9999998605009637
  0
LINE
  5
D529
  8
0
 10
4173.7064735006633782
 20
224.1428173135425084
 30
0.0
 11
4172.4756906389629876
 21
224.1428173165394924
 31
0.0
  0
ARC
  5
D52A
  8
0
 10
4172.2825840765999601
 20
223.7317566710129029
 30
0.0
 40
0.4541596621542483
 50
64.8369729159426385
 51
82.6527689375697463
  0
LINE
  5
D52B
  8
0
 10
4172.3406630229628718
 20
224.182187392342513
 30
0.0
 11
4167.4910818284643028
 21
224.182187392342513
 31
0.0
  0
LINE
  5
D52C
  8
0
 10
4176.0261086462633102
 20
223.5998677010171036
 30
0.0
 11
4176.0261086462633102
 21
222.0086032820680089
 31
0.0
  0
LINE
  5
D52D
  8
0
 10
4174.0576047091626606
 20
223.6210635041690864
 30
0.0
 11
4174.0576047091626606
 21
221.9874074789159124
 31
0.0
  0
ARC
  5
D52E
  8
0
 10
4174.0694702330010841
 20
223.6197542477079878
 30
0.0
 40
0.0119375377874972
 50
91.552751922317114
 51
173.7033850888668098
  0
ARC
  5
D52F
  8
0
 10
4173.6024165180451746
 20
240.8495864402721054
 30
0.0
 40
17.2242237679259489
 50
271.5527519223170998
 51
277.4297604500479224
  0
ARC
  5
D530
  8
0
 10
4175.8348355853149769
 20
223.7305354619383877
 30
0.0
 40
0.0397734891028529
 50
49.1387996380335466
 51
97.4297604500479508
  0
LINE
  5
D531
  8
0
 10
4175.8608565479071331
 20
223.7606160194661982
 30
0.0
 11
4176.0126306581132667
 21
223.6280998224465861
 31
0.0
  0
ARC
  5
D532
  8
0
 10
4175.9866103991316777
 20
223.5983445252122124
 30
0.0
 40
0.0395276054297854
 50
2.2084099685297169
 51
48.8311208716553224
  0
LINE
  5
D533
  8
0
 10
4174.0103606147631581
 20
223.4873063576924892
 30
0.0
 11
4174.0576047091626606
 21
223.4873063576924892
 31
0.0
  0
ARC
  5
D534
  8
0
 10
4174.0694702330010841
 20
221.9887167353770963
 30
0.0
 40
0.0119375377874972
 50
186.2966149111331049
 51
268.4472480776829002
  0
ARC
  5
D535
  8
0
 10
4173.6024165180451746
 20
204.7588845428128934
 30
0.0
 40
17.2242237679259489
 50
82.5702395499520634
 51
88.447248077682886
  0
ARC
  5
D536
  8
0
 10
4175.8348355853149769
 20
221.8779355211466111
 30
0.0
 40
0.0397734891028529
 50
262.5702395499520776
 51
310.8612003619663824
  0
LINE
  5
D537
  8
0
 10
4175.8608565479071331
 20
221.8478549636188859
 30
0.0
 11
4176.0126306581132667
 21
221.9803711606384979
 31
0.0
  0
ARC
  5
D538
  8
0
 10
4175.9866103991316777
 20
222.0101264578727864
 30
0.0
 40
0.0395276054297854
 50
311.1688791283447131
 51
357.7915900314703208
  0
LINE
  5
D539
  8
0
 10
4174.0103606147631581
 20
222.1211646253925096
 30
0.0
 11
4174.0576047091626606
 21
222.1211646253925096
 31
0.0
  0
LINE
  5
D53A
  8
0
 10
4175.8348355853149769
 20
221.8381620320438117
 30
0.0
 11
4175.8348355853149769
 21
223.7703089510413008
 31
0.0
  0
LINE
  5
D53B
  8
0
 10
4168.1490293334118178
 20
226.249116526142501
 30
0.0
 11
4165.7772037070117221
 21
226.249116526142501
 31
0.0
  0
LINE
  5
D53C
  8
0
 10
4165.7888669342128196
 20
225.9637495159425953
 30
0.0
 11
4168.1373661062116298
 21
225.9637495159425953
 31
0.0
  0
LINE
  5
D53D
  8
0
 10
4166.1670016873586064
 20
225.1467543214425007
 30
0.0
 11
4167.7592313530649335
 21
225.1467543214425007
 31
0.0
  0
LINE
  5
D53E
  8
0
 10
4165.7772037070117221
 20
226.249116526142501
 30
0.0
 11
4165.7818039080129893
 21
225.9855711863293095
 31
0.0
  0
ARC
  5
D53F
  8
0
 10
4165.8211679904388802
 20
225.9862582889412863
 30
0.0
 40
0.0393700786794112
 50
180.9999999961464141
 51
214.8704517646073953
  0
ARC
  5
D540
  8
0
 10
4164.0119608821059956
 20
224.7255245324789996
 30
0.0
 40
2.1657784345780349
 50
12.0480195100087499
 51
34.8704517646074379
  0
ARC
  5
D541
  8
0
 10
4166.1681674267838389
 20
225.1857294783465875
 30
0.0
 40
0.0389925865274882
 50
192.048019510008686
 51
268.2868050393884118
  0
LINE
  5
D542
  8
0
 10
4168.1490293334118178
 20
226.249116526142501
 30
0.0
 11
4168.1444291324132791
 21
225.9855711863293095
 31
0.0
  0
ARC
  5
D543
  8
0
 10
4168.1050650499882977
 20
225.9862582889412863
 30
0.0
 40
0.0393700786794112
 50
325.1295482353925763
 51
359.0000000038534722
  0
ARC
  5
D544
  8
0
 10
4169.9142721583184539
 20
224.7255245324789996
 30
0.0
 40
2.1657784345780349
 50
145.1295482353924911
 51
167.9519804899912003
  0
ARC
  5
D545
  8
0
 10
4167.7580656136424295
 20
225.1857294783465875
 30
0.0
 40
0.0389925865274882
 50
271.7131949606117018
 51
347.9519804899911719
  0
ARC
  5
D546
  8
0
 10
4165.8413661088197841
 20
223.6257364948965005
 30
0.0
 40
0.0199819166109912
 50
147.8066399201125023
 51
179.8791436592383093
  0
ARC
  5
D547
  8
0
 10
2837.6915388276061094
 20
222.8114626648288095
 30
0.0
 40
1328.13009504972797
 50
359.9648702549088739
 51
0.0351297450960347
  0
ARC
  5
D548
  8
0
 10
4165.8410837514338709
 20
221.997152153564997
 30
0.0
 40
0.0196995155308919
 50
180.0159016349855108
 51
269.9486600731630119
  0
ARC
  5
D549
  8
0
 10
4166.1462980984051683
 20
61.6369662992386793
 30
0.0
 40
160.3407768737278047
 50
89.7427571751779425
 51
90.1090709188503354
  0
ARC
  5
D54A
  8
0
 10
4166.8430221180660737
 20
216.8974550643677901
 30
0.0
 40
5.0787248717093876
 50
77.0878450553442889
 51
89.7387071305427071
  0
ARC
  5
D54B
  8
0
 10
4167.7483842361089046
 20
220.3776443189669862
 30
0.0
 40
1.487922010888127
 50
2.6573621681349429
 51
81.1266195589336974
  0
LINE
  5
D54C
  8
0
 10
4166.3725650000633323
 20
224.2412424439426104
 30
0.0
 11
4167.553667362161832
 21
224.2412424439426104
 31
0.0
  0
LINE
  5
D54D
  8
0
 10
4166.3725650000633323
 20
224.2215574710425869
 30
0.0
 11
4167.553667362161832
 21
224.2215574710425869
 31
0.0
  0
LINE
  5
D54E
  8
0
 10
4166.5398878346131823
 20
224.2215574710425869
 30
0.0
 11
4166.5398878346131823
 21
224.1428173145521043
 31
0.0
  0
LINE
  5
D54F
  8
0
 10
4167.6028799606128814
 20
224.7352926890006017
 30
0.0
 11
4167.6028799606128814
 21
225.1467543214425007
 31
0.0
  0
LINE
  5
D550
  8
0
 10
4167.553667362161832
 20
224.2215574710425869
 30
0.0
 11
4167.553667362161832
 21
224.6939984159425023
 31
0.0
  0
LINE
  5
D551
  8
0
 10
4167.3863445276128914
 20
224.2215574710425869
 30
0.0
 11
4167.3863445276128914
 21
224.1557282129492137
 31
0.0
  0
LINE
  5
D552
  8
0
 10
4167.6028799606128814
 20
224.7352926890006017
 30
0.0
 11
4167.553667362161832
 21
224.6939984159425023
 31
0.0
  0
LINE
  5
D553
  8
0
 10
4166.3233524016131923
 20
224.7352926890006017
 30
0.0
 11
4166.3233524016131923
 21
225.1467543214425007
 31
0.0
  0
LINE
  5
D554
  8
0
 10
4166.3725650000633323
 20
224.2215574710425869
 30
0.0
 11
4166.3725650000633323
 21
224.6939984159425023
 31
0.0
  0
LINE
  5
D555
  8
0
 10
4166.3233524016131923
 20
224.7352926890006017
 30
0.0
 11
4166.3725650000633323
 21
224.6939984159425023
 31
0.0
  0
LINE
  5
D556
  8
0
 10
4165.8244563136850047
 20
223.6363824246301988
 30
0.0
 11
4166.1081799503272123
 21
224.1328987886790003
 31
0.0
  0
ARC
  5
D557
  8
0
 10
4166.1252713508110901
 20
224.1231322741161023
 30
0.0
 40
0.0196850394264085
 50
90.0000001394990221
 51
150.2551187018243013
  0
LINE
  5
D558
  8
0
 10
4166.1252713507628869
 20
224.1428173135425084
 30
0.0
 11
4167.3560542124632775
 21
224.1428173165394924
 31
0.0
  0
ARC
  5
D559
  8
0
 10
4167.5491607748253955
 20
223.7317566710129029
 30
0.0
 40
0.4541596621542483
 50
97.3472310624302679
 51
115.1630270840573047
  0
LINE
  5
D55A
  8
0
 10
4163.8056362051629549
 20
223.5998677010171036
 30
0.0
 11
4163.8056362051629549
 21
222.0086032820680089
 31
0.0
  0
LINE
  5
D55B
  8
0
 10
4165.7741401422617855
 20
223.6210635041690864
 30
0.0
 11
4165.7741401422617855
 21
221.9874074789159124
 31
0.0
  0
ARC
  5
D55C
  8
0
 10
4165.762274618425181
 20
223.6197542477079878
 30
0.0
 40
0.0119375377874972
 50
6.2966149111331529
 51
88.447248077682886
  0
ARC
  5
D55D
  8
0
 10
4166.2293283333810905
 20
240.8495864402721054
 30
0.0
 40
17.2242237679259489
 50
262.5702395499520776
 51
268.4472480776829002
  0
ARC
  5
D55E
  8
0
 10
4163.9969092661112882
 20
223.7305354619383877
 30
0.0
 40
0.0397734891028529
 50
82.5702395499520634
 51
130.8612003619664108
  0
LINE
  5
D55F
  8
0
 10
4163.970888303519132
 20
223.7606160194661982
 30
0.0
 11
4163.8191141933111794
 21
223.6280998224465861
 31
0.0
  0
ARC
  5
D560
  8
0
 10
4163.8451344522936779
 20
223.5983445252122124
 30
0.0
 40
0.0395276054297854
 50
131.1688791283447131
 51
177.7915900314702071
  0
LINE
  5
D561
  8
0
 10
4165.8213842366640165
 20
223.4873063576924892
 30
0.0
 11
4165.7741401422617855
 21
223.4873063576924892
 31
0.0
  0
ARC
  5
D562
  8
0
 10
4165.762274618425181
 20
221.9887167353770963
 30
0.0
 40
0.0119375377874972
 50
271.5527519223170998
 51
353.7033850888669235
  0
ARC
  5
D563
  8
0
 10
4166.2293283333810905
 20
204.7588845428128934
 30
0.0
 40
17.2242237679259489
 50
91.552751922317114
 51
97.4297604500479508
  0
ARC
  5
D564
  8
0
 10
4163.9969092661112882
 20
221.8779355211466111
 30
0.0
 40
0.0397734891028529
 50
229.1387996380335892
 51
277.4297604500479224
  0
LINE
  5
D565
  8
0
 10
4163.970888303519132
 20
221.8478549636188859
 30
0.0
 11
4163.8191141933111794
 21
221.9803711606384979
 31
0.0
  0
ARC
  5
D566
  8
0
 10
4163.8451344522936779
 20
222.0101264578727864
 30
0.0
 40
0.0395276054297854
 50
182.2084099685297076
 51
228.8311208716552869
  0
LINE
  5
D567
  8
0
 10
4165.8213842366640165
 20
222.1211646253925096
 30
0.0
 11
4165.7741401422617855
 21
222.1211646253925096
 31
0.0
  0
LINE
  5
D568
  8
0
 10
4163.9969092661112882
 20
221.8381620320438117
 30
0.0
 11
4163.9969092661112882
 21
223.7703089510413008
 31
0.0
  0
ARC
  5
D569
  8
0
 10
4169.9462381750881832
 20
281.7909304899567928
 30
0.0
 40
58.3010774101182605
 50
265.9455401847170037
 51
273.9964140154082202
  0
LINE
  5
D56A
  8
0
 10
4175.262017363384075
 20
223.7055026373465978
 30
0.0
 11
4182.4067998673899638
 21
225.5077163194571028
 31
0.0
  0
LINE
  5
D56B
  8
0
 10
4176.0261086462633102
 20
223.3276627103508929
 30
0.0
 11
4182.5619866927290786
 21
225.0526052508847101
 31
0.0
  0
ENDSEC
  0
EOF
