  0
SECTION
  2
HEADER
  9
$ACADVER
  1
AC1009
  9
$INSBASE
 10
3899.5543427559309748
 20
94.2046132051829375
 30
0.0
  9
$EXTMIN
 10
3894.8633055983159466
 20
81.2509537490921048
 30
0.0
  9
$EXTMAX
 10
3903.3657657778571775
 20
98.5809265029985227
 30
0.0
  9
$LIMMIN
 10
0.0
 20
0.0
  9
$LIMMAX
 10
11.6929133858000007
 20
8.2677165353999982
  9
$ORTHOMODE
 70
     0
  9
$REGENMODE
 70
     1
  9
$FILLMODE
 70
     1
  9
$QTEXTMODE
 70
     0
  9
$MIRRTEXT
 70
     0
  9
$DRAGMODE
 70
     2
  9
$LTSCALE
 40
0.6431102362
  9
$OSMODE
 70
  4095
  9
$ATTMODE
 70
     1
  9
$TEXTSIZE
 40
0.2
  9
$TRACEWID
 40
0.05
  9
$TEXTSTYLE
  7
STANDARD
  9
$CLAYER
  8
0
  9
$CELTYPE
  6
BYLAYER
  9
$CECOLOR
 62
   256
  9
$DIMSCALE
 40
1.0
  9
$DIMASZ
 40
0.1875
  9
$DIMEXO
 40
0.0625
  9
$DIMDLI
 40
0.4443307087
  9
$DIMRND
 40
0.0
  9
$DIMDLE
 40
0.0
  9
$DIMEXE
 40
0.125
  9
$DIMTP
 40
0.01
  9
$DIMTM
 40
0.01
  9
$DIMTXT
 40
2.0
  9
$DIMCEN
 40
0.1052362205
  9
$DIMTSZ
 40
0.0
  9
$DIMTOL
 70
     1
  9
$DIMLIM
 70
     0
  9
$DIMTIH
 70
     1
  9
$DIMTOH
 70
     1
  9
$DIMSE1
 70
     0
  9
$DIMSE2
 70
     0
  9
$DIMTAD
 70
     0
  9
$DIMZIN
 70
     0
  9
$DIMBLK
  1

  9
$DIMASO
 70
     1
  9
$DIMSHO
 70
     1
  9
$DIMPOST
  1
\X
  9
$DIMAPOST
  1

  9
$DIMALT
 70
     1
  9
$DIMALTD
 70
     2
  9
$DIMALTF
 40
25.3999999999999986
  9
$DIMLFAC
 40
1.0
  9
$DIMTOFL
 70
     0
  9
$DIMTVP
 40
0.0
  9
$DIMTIX
 70
     0
  9
$DIMSOXD
 70
     0
  9
$DIMSAH
 70
     0
  9
$DIMBLK1
  1

  9
$DIMBLK2
  1

  9
$DIMSTYLE
  2
STANDARD
  9
$DIMCLRD
 70
     0
  9
$DIMCLRE
 70
     0
  9
$DIMCLRT
 70
     0
  9
$DIMTFAC
 40
1.0
  9
$DIMGAP
 40
0.09
  9
$LUNITS
 70
     2
  9
$LUPREC
 70
     4
  9
$SKETCHINC
 40
0.1
  9
$FILLETRAD
 40
0.0
  9
$AUNITS
 70
     0
  9
$AUPREC
 70
     0
  9
$MENU
  1
.
  9
$ELEVATION
 40
0.0
  9
$PELEVATION
 40
0.0
  9
$THICKNESS
 40
0.0
  9
$LIMCHECK
 70
     0
  9
$BLIPMODE
 70
     0
  9
$CHAMFERA
 40
0.0
  9
$CHAMFERB
 40
0.0
  9
$SKPOLY
 70
     0
  9
$TDCREATE
 40
2458060.468368056230247
  9
$TDUPDATE
 40
2459059.0560995368286967
  9
$TDINDWG
 40
0.4146482639
  9
$TDUSRTIMER
 40
0.4146482639
  9
$USRTIMER
 70
     1
  9
$ANGBASE
 50
0.0
  9
$ANGDIR
 70
     0
  9
$PDMODE
 70
     0
  9
$PDSIZE
 40
0.3125
  9
$PLINEWID
 40
0.0
  9
$COORDS
 70
     1
  9
$SPLFRAME
 70
     0
  9
$SPLINETYPE
 70
     6
  9
$SPLINESEGS
 70
     8
  9
$ATTDIA
 70
     1
  9
$ATTREQ
 70
     1
  9
$HANDLING
 70
     1
  9
$HANDSEED
  5
793A
  9
$SURFTAB1
 70
     6
  9
$SURFTAB2
 70
     6
  9
$SURFTYPE
 70
     6
  9
$SURFU
 70
     6
  9
$SURFV
 70
     6
  9
$UCSNAME
  2

  9
$UCSORG
 10
0.0
 20
0.0
 30
0.0
  9
$UCSXDIR
 10
1.0
 20
0.0
 30
0.0
  9
$UCSYDIR
 10
0.0
 20
1.0
 30
0.0
  9
$PUCSNAME
  2

  9
$PUCSORG
 10
0.0
 20
0.0
 30
0.0
  9
$PUCSXDIR
 10
1.0
 20
0.0
 30
0.0
  9
$PUCSYDIR
 10
0.0
 20
1.0
 30
0.0
  9
$USERI1
 70
     0
  9
$USERI2
 70
     0
  9
$USERI3
 70
     0
  9
$USERI4
 70
     0
  9
$USERI5
 70
     0
  9
$USERR1
 40
0.0
  9
$USERR2
 40
0.0
  9
$USERR3
 40
0.0
  9
$USERR4
 40
0.0
  9
$USERR5
 40
0.0
  9
$WORLDVIEW
 70
     1
  9
$SHADEDGE
 70
     3
  9
$SHADEDIF
 70
    70
  9
$TILEMODE
 70
     1
  9
$MAXACTVP
 70
    64
  9
$PLIMCHECK
 70
     0
  9
$PEXTMIN
 10
1.0000000000000000E+20
 20
1.0000000000000000E+20
 30
1.0000000000000000E+20
  9
$PEXTMAX
 10
-1.0000000000000000E+20
 20
-1.0000000000000000E+20
 30
-1.0000000000000000E+20
  9
$PLIMMIN
 10
0.0
 20
0.0
  9
$PLIMMAX
 10
12.0
 20
9.0
  9
$UNITMODE
 70
     0
  9
$VISRETAIN
 70
     1
  9
$PLINEGEN
 70
     0
  9
$PSLTSCALE
 70
     1
  0
ENDSEC
  0
SECTION
  2
TABLES
  0
TABLE
  2
VPORT
 70
     1
  0
VPORT
  2
*ACTIVE
 70
     0
 10
0.0
 20
0.0
 11
1.0
 21
1.0
 12
114.6637519985900013
 22
-29.0735688433347512
 13
0.0
 23
0.0
 14
1.0
 24
1.0
 15
0.0
 25
0.0
 16
0.0
 26
0.0
 36
5.1040778033513332
 17
3792.35791015625
 27
120.1806564331053977
 37
0.0
 40
21.9408889524102193
 41
2.005224660397074
 42
50.0
 43
0.0
 44
0.0
 50
0.0
 51
0.0
 71
     0
 72
   100
 73
     1
 74
     1
 75
     0
 76
     0
 77
     0
 78
     0
  0
ENDTAB
  0
TABLE
  2
LTYPE
 70
     2
  0
LTYPE
  2
CONTINUOUS
 70
     0
  3
Solid line
 72
    65
 73
     0
 40
0.0
  0
LTYPE
  2
PHANTOM2
 70
     0
  3
___ _ _ ___ _ _ ___ _ _ ___ _ _
 72
    65
 73
     6
 40
1.25
 49
0.625
 49
-0.125
 49
0.125
 49
-0.125
 49
0.125
 49
-0.125
  0
ENDTAB
  0
TABLE
  2
LAYER
 70
     2
  0
LAYER
  2
0
 70
     0
 62
   255
  6
CONTINUOUS
  0
LAYER
  2
DEFPOINTS
 70
     0
 62
     7
  6
CONTINUOUS
  0
ENDTAB
  0
TABLE
  2
STYLE
 70
     1
  0
STYLE
  2
STANDARD
 70
     0
 40
0.0
 41
0.8
 50
0.0
 71
     0
 42
0.2
  3
txt
  4

  0
ENDTAB
  0
TABLE
  2
VIEW
 70
     0
  0
ENDTAB
  0
TABLE
  2
UCS
 70
     0
  0
ENDTAB
  0
TABLE
  2
APPID
 70
     9
  0
APPID
  2
ACAD
 70
     0
  0
APPID
  2
ACAD_MLEADERVER
 70
     0
  0
APPID
  2
ACAD_EXEMPT_FROM_CAD_STANDARDS
 70
     0
  0
APPID
  2
ACAD_NAV_VCDISPLAY
 70
     0
  0
APPID
  2
ACAECLAYERSTANDARD
 70
     0
  0
APPID
  2
ACCMTRANSPARENCY
 70
     0
  0
APPID
  2
ACAD_DSTYLE_DIMJAG
 70
     0
  0
APPID
  2
ACAD_DSTYLE_DIMTALN
 70
     0
  0
APPID
  2
ACDBATTR
 70
     0
  0
ENDTAB
  0
TABLE
  2
DIMSTYLE
 70
     1
  0
DIMSTYLE
  2
STANDARD
 70
     0
  3

  4

  5

  6

  7

 40
1.0
 41
0.1875
 42
0.0625
 43
0.38
 44
0.125
 45
0.0
 46
0.0
 47
0.01
 48
0.01
140
0.15625
141
0.09
142
0.0
143
25.3999999999999986
144
1.0
145
0.0
146
1.0
147
0.09
 71
     1
 72
     0
 73
     1
 74
     1
 75
     0
 76
     0
 77
     0
 78
     4
170
     0
171
     2
172
     0
173
     0
174
     0
175
     0
176
     0
177
     0
178
     0
  0
ENDTAB
  0
ENDSEC
  0
SECTION
  2
BLOCKS
  0
BLOCK
  8
0
  2
$MODEL_SPACE
 70
     0
 10
0.0
 20
0.0
 30
0.0
  3
$MODEL_SPACE
  1

  0
ENDBLK
  5
21
  8
0
  0
BLOCK
 67
     1
  8
0
  2
$PAPER_SPACE
 70
     0
 10
0.0
 20
0.0
 30
0.0
  3
$PAPER_SPACE
  1

  0
ENDBLK
  5
1D
 67
     1
  8
0
  0
BLOCK
  8
0
  2
_FILLED
 70
     0
 10
0.0
 20
0.0
 30
0.0
  3
_FILLED
  1

  0
SOLID
  5
69B4
  8
0
  6
BYBLOCK
 62
     0
 10
0.0
 20
0.0
 30
0.0
 11
-1.0
 21
0.1666666667
 31
0.0
 12
-1.0
 22
-0.1666666667
 32
0.0
 13
-1.0
 23
-0.1666666667
 33
0.0
  0
ENDBLK
  5
69B5
  8
0
  6
BYBLOCK
 62
     0
  0
BLOCK
  8
0
  2
A$CDFAF6206
 70
     0
 10
0.0
 20
0.0
 30
0.0
  3
A$CDFAF6206
  1

  0
LINE
  5
6A0E
  8
0
 10
7.4646650085734834
 20
10.9287685970688493
 30
0.0
 11
7.4646650085734896
 21
10.8905784766688498
 31
0.0
  0
ARC
  5
6A0F
  8
0
 10
7.7269027075262349
 20
10.8926811525838598
 30
0.0
 40
0.2622461286616791
 50
180.4593995232625048
 51
217.0214027758331099
  0
LINE
  5
6A10
  8
0
 10
9.767814609867095
 20
10.9287685970688493
 30
0.0
 11
9.767814609867095
 21
10.8905433757650094
 31
0.0
  0
ARC
  5
6A11
  8
0
 10
9.5068669568548287
 20
10.8922438613003703
 30
0.0
 40
0.2609531936261092
 50
322.8847083717149076
 51
359.6266329125650145
  0
LINE
  5
6A12
  8
0
 10
7.517522606271406
 20
10.7347792678688396
 30
0.0
 11
9.7149570120691777
 21
10.7347792678688396
 31
0.0
  0
LINE
  5
6A13
  8
0
 10
7.4646650085734834
 20
10.9287685970688493
 30
0.0
 11
9.7678146123202936
 21
10.9287685970688493
 31
0.0
  0
ARC
  5
6A14
  8
0
 10
4.0826771419203629
 20
8.527951346868889
 30
0.0
 40
4.0826771653999172
 50
13.3117747050523896
 51
32.7200330051415591
  0
ARC
  5
6A15
  8
0
 10
4.0826771460567306
 20
8.5279513475907933
 30
0.0
 40
4.0826771612084691
 50
359.6656501984817851
 51
13.3117747085593798
  0
ARC
  5
6A16
  8
0
 10
13.1498041284835097
 20
8.5279508235212234
 30
0.0
 40
4.0826788382043553
 50
147.2799733478981068
 51
166.6882233021349862
  0
ARC
  5
6A17
  8
0
 10
13.1498064934207992
 20
8.5279506557033251
 30
0.0
 40
4.0826811782395342
 50
166.688228652086309
 51
180.3343397625230011
  0
LINE
  5
6A18
  8
0
 10
8.1652847935202928
 20
8.504127000268852
 30
0.0
 11
9.0671948248202892
 21
8.5041270002687881
 31
0.0
  0
LINE
  5
6A19
  8
0
 10
8.1652847935202786
 20
8.5041270002667204
 30
0.0
 11
8.1652847935202928
 21
8.3607006934688481
 31
0.0
  0
ARC
  5
6A1A
  8
0
 10
5.6196779630382627
 20
8.3631022096452732
 30
0.0
 40
2.545607963272567
 50
342.0511668832173768
 51
359.945947387132378
  0
LINE
  5
6A1B
  8
0
 10
9.0671948248202892
 20
8.5041270002687881
 30
0.0
 11
9.0671948248202892
 21
8.2885990108688503
 31
0.0
  0
ARC
  5
6A1C
  8
0
 10
9.4521885297801163
 20
7.9614488056228501
 30
0.0
 40
0.5052201595850959
 50
139.6436242991769916
 51
174.6757930071850069
  0
ARC
  5
6A1D
  8
0
 10
9.9238413395551746
 20
8.1492417579399508
 30
0.0
 40
0.9848265662939324
 50
188.2263441834095943
 51
209.5593615864376034
  0
ARC
  5
6A1E
  8
0
 10
8.0788764238271256
 20
7.5665710856463297
 30
0.0
 40
0.0393715937169877
 50
162.1669117288323037
 51
227.2023190037006088
  0
ARC
  5
6A1F
  8
0
 10
8.7223682141740682
 20
8.2079667397440517
 30
0.0
 40
0.947895137885075
 50
225.0018610752970858
 51
261.4598823366255829
  0
ARC
  5
6A20
  8
0
 10
8.6645157662702701
 20
8.1695128573935332
 30
0.0
 40
0.9027466462812931
 50
264.7303071214498118
 51
281.8608311947915013
  0
ARC
  5
6A21
  8
0
 10
8.6645157662698935
 20
8.1695128573999671
 30
0.0
 40
0.9027466462876658
 50
299.1741886792128753
 51
299.1743179154552195
  0
ARC
  5
6A22
  8
0
 10
9.0843330931590316
 20
7.4150554710086141
 30
0.0
 40
0.0393703053609601
 50
251.9700352025496954
 51
252.4698971938937859
  0
ARC
  5
6A23
  8
0
 10
9.0843330931590316
 20
7.4150554710086141
 30
0.0
 40
0.0393703053609601
 50
297.2453716727138726
 51
6.8376113572703074
  0
LINE
  5
6A24
  8
0
 10
9.0671948248202892
 20
7.663402160468852
 30
0.0
 11
9.1234233799329516
 21
7.419742732911689
 31
0.0
  0
ARC
  5
6A25
  8
0
 10
8.8843741880892395
 20
9.8961379890094676
 30
0.0
 40
2.5255097382132701
 50
263.792800240752797
 51
274.9514951129821156
  0
ARC
  5
6A26
  8
0
 10
8.8258167405968848
 20
9.2763025889666508
 30
0.0
 40
1.9029970832759311
 50
246.0108363320686067
 51
263.5276935074397215
  0
ARC
  5
6A27
  8
0
 10
8.607491361665744
 20
8.3225444804829642
 30
0.0
 40
1.064510137163637
 50
283.1717405874071005
 51
297.7022170607311864
  0
LINE
  5
6A28
  8
0
 10
9.0671948248202892
 20
8.2885990108688503
 30
0.0
 11
26.2014378595979593
 21
8.2885990108689942
 31
0.0
  0
LINE
  5
6A29
  8
0
 10
26.2014378595979913
 20
7.6634021604689053
 30
0.0
 11
9.0671948248202892
 21
7.6634021604688618
 31
0.0
  0
LINE
  5
6A2A
  8
0
 10
27.8039676758446994
 20
10.9287685970690802
 30
0.0
 11
27.8039676758446888
 21
10.8905784766690807
 31
0.0
  0
ARC
  5
6A2B
  8
0
 10
27.5417299768919399
 20
10.8926811525840801
 30
0.0
 40
0.2622461286616791
 50
322.9785972241680838
 51
359.5406004767386889
  0
LINE
  5
6A2C
  8
0
 10
25.5008180745510913
 20
10.9287685970690305
 30
0.0
 11
25.5008180745510913
 21
10.8905433757651799
 31
0.0
  0
ARC
  5
6A2D
  8
0
 10
25.7617657275633505
 20
10.8922438613005497
 30
0.0
 40
0.2609531936261092
 50
180.3733670874362929
 51
217.1152916282862861
  0
LINE
  5
6A2E
  8
0
 10
27.7511100781467803
 20
10.7347792678690706
 30
0.0
 11
25.5536756723490015
 21
10.7347792678690208
 31
0.0
  0
LINE
  5
6A2F
  8
0
 10
27.8039676758446888
 20
10.9287685970686006
 30
0.0
 11
25.5008180745510806
 21
10.9287685970686006
 31
0.0
  0
ARC
  5
6A30
  8
0
 10
31.1859555424978616
 20
8.5279513468691981
 30
0.0
 40
4.0826771653999172
 50
147.2799669948597057
 51
166.6882252949490066
  0
ARC
  5
6A31
  8
0
 10
31.185955538361501
 20
8.5279513475911024
 30
0.0
 40
4.0826771612084691
 50
166.6882252914419098
 51
180.3343498015194086
  0
ARC
  5
6A32
  8
0
 10
22.1188285559344706
 20
8.5279508235212251
 30
0.0
 40
4.0826788382046102
 50
13.3117766978667795
 51
32.7200266521023977
  0
ARC
  5
6A33
  8
0
 10
22.1188261909974315
 20
8.5279506557034264
 30
0.0
 40
4.0826811782395342
 50
359.665660237478221
 51
13.31177134791497
  0
LINE
  5
6A34
  8
0
 10
27.1033478908979397
 20
8.5041270002690652
 30
0.0
 11
26.2014378595979416
 21
8.5041270002689835
 31
0.0
  0
LINE
  5
6A35
  8
0
 10
27.1033478908979504
 20
8.5041270002669354
 30
0.0
 11
27.1033478908979397
 21
8.3607006934690649
 31
0.0
  0
ARC
  5
6A36
  8
0
 10
29.6489547213799689
 20
8.3631022096455467
 30
0.0
 40
2.545607963272567
 50
180.0540526128687873
 51
197.9488331167837032
  0
LINE
  5
6A37
  8
0
 10
26.2014378595979416
 20
8.5041270002689835
 30
0.0
 11
26.2014378595979487
 21
8.2885990108690457
 31
0.0
  0
ARC
  5
6A38
  8
0
 10
25.8164441546381305
 20
7.9614488056230366
 30
0.0
 40
0.5052201595850959
 50
5.324206992816312
 51
40.3563757008241879
  0
ARC
  5
6A39
  8
0
 10
25.3447913448601803
 20
8.149241757940846
 30
0.0
 40
0.9848265662968968
 50
330.4406384136033807
 51
351.7736558165743759
  0
ARC
  5
6A3A
  8
0
 10
27.1897562605911212
 20
7.5665710856465473
 30
0.0
 40
0.0393715937169877
 50
312.7976809963004143
 51
17.8330882711689185
  0
ARC
  5
6A3B
  8
0
 10
26.5462644702441715
 20
8.2079667397442542
 30
0.0
 40
0.947895137885075
 50
278.5401176633754972
 51
314.9981389247041079
  0
ARC
  5
6A3C
  8
0
 10
26.6041169181479695
 20
8.1695128573937392
 30
0.0
 40
0.9027466462812931
 50
258.139168805210204
 51
275.2696928785518935
  0
ARC
  5
6A3D
  8
0
 10
26.6041169181483497
 20
8.1695128574001732
 30
0.0
 40
0.9027466462876658
 50
240.8256820845460027
 51
240.8258113207880058
  0
ARC
  5
6A3E
  8
0
 10
26.1842995912592293
 20
7.4150554710088086
 30
0.0
 40
0.0393703053609601
 50
287.5301028061073794
 51
288.0299647974517825
  0
ARC
  5
6A3F
  8
0
 10
26.1842995912592293
 20
7.4150554710088086
 30
0.0
 40
0.0393703053609601
 50
173.1623886427310026
 51
242.7546283272870085
  0
LINE
  5
6A40
  8
0
 10
26.2014378595981192
 20
7.6634021604690448
 30
0.0
 11
26.1452093044853093
 21
7.4197427329118826
 31
0.0
  0
ARC
  5
6A41
  8
0
 10
26.384258496328961
 20
9.8961379890096666
 30
0.0
 40
2.5255097382132701
 50
265.0485048870193054
 51
276.2071997592482262
  0
ARC
  5
6A42
  8
0
 10
26.4428159438213299
 20
9.2763025889668516
 30
0.0
 40
1.9029970832759311
 50
276.4723064925619838
 51
293.9891636679327007
  0
ARC
  5
6A43
  8
0
 10
26.6611413227524885
 20
8.3225444804831703
 30
0.0
 40
1.064510137163637
 50
242.2977829392704052
 51
256.8282594125943774
  0
LINE
  5
6A44
  8
0
 62
     4
 10
17.9031473532159602
 20
10.9287685970686006
 30
0.0
 11
24.6329820359843588
 21
20.0952817181593808
 31
0.0
  0
LINE
  5
6A45
  8
0
 62
     4
 10
17.9031473532159602
 20
-0.0000000300842942
 30
0.0
 11
22.3963351323106608
 21
4.993614497796286
 31
0.0
  0
ENDBLK
  5
6A49
  8
0
  0
ENDSEC
  0
SECTION
  2
ENTITIES
  0
ATTDEF
  5
3930
  8
DEFPOINTS
 10
3899.5544522282548314
 20
94.206184530107933
 30
0.0
 40
0.001
  1
K-23373T-4
  3

  2
MODELNUMBER
 70
     0
1001
ACDBATTR
1070
     0
1070
     1
  0
ATTDEF
  5
3931
  8
DEFPOINTS
 10
3899.5544522282548314
 20
94.2045178634412679
 30
0.0
 40
0.001
  1
MEMOIRS
  3

  2
TRADENAME
 70
     0
1001
ACDBATTR
1070
     0
1070
     1
  0
ATTDEF
  5
3932
  8
DEFPOINTS
 10
3899.5544522282548314
 20
94.2028511967746027
 30
0.0
 40
0.001
  1
BATHROOM SINK FAUCET
  3

  2
PRODUCT
 70
     0
1001
ACDBATTR
1070
     0
1070
     1
  0
ARC
  5
7845
  8
0
 10
3899.8087391461099287
 20
95.431152316660274
 30
0.0
 40
0.0277616222049313
 50
0.416553127848728
 51
89.583447080054583
  0
LINE
  5
7846
  8
0
 10
3899.8365000346320812
 20
95.4313541480829315
 30
0.0
 11
3899.8365000346320812
 21
94.952866112854494
 31
0.0
  0
ARC
  5
7847
  8
0
 10
3899.8089406730418887
 20
94.9528661500908271
 30
0.0
 40
0.0275593615896424
 50
274.1056835040459987
 51
359.9999225857615102
  0
ARC
  5
7848
  8
0
 10
3899.8220449511918559
 20
94.7785961610609604
 30
0.0
 40
0.1472028114912492
 50
94.3367105684327072
 51
104.2824755069981961
  0
ARC
  5
7849
  8
0
 10
3899.8016289242941639
 20
94.8546030936394686
 30
0.0
 40
0.0685162730717453
 50
103.4178720624419014
 51
138.7246199879753874
  0
ARC
  5
784A
  8
0
 10
3899.8355770922757983
 20
94.8397762068549781
 30
0.0
 40
0.1044189158906669
 50
144.9106001133656036
 51
183.5314174830517118
  0
ARC
  5
784B
  8
0
 10
3899.7040085381008794
 20
94.8315195704743843
 30
0.0
 40
0.0274087286822202
 50
269.5589411439405012
 51
3.8175597595253028
  0
LINE
  5
784C
  8
0
 10
3899.7037975497319167
 20
94.8041116538829272
 30
0.0
 11
3899.4048880040318181
 21
94.8041116467829141
 31
0.0
  0
LINE
  5
784D
  8
0
 10
3899.3538308000320285
 20
95.0131015731843718
 30
0.0
 11
3899.7548542964318585
 21
95.0131013767828563
 31
0.0
  0
ARC
  5
784E
  8
0
 10
3899.7452606392412235
 20
95.0452855373568752
 30
0.0
 40
0.0335836038883491
 50
286.5985975572911002
 51
339.8393859703032831
  0
LINE
  5
784F
  8
0
 10
3899.7767865812311356
 20
95.0337108480829329
 30
0.0
 11
3899.7767865832811367
 21
95.4105494150056046
 31
0.0
  0
ARC
  5
7850
  8
0
 10
3899.7513583922118414
 20
95.4054640618693952
 30
0.0
 40
0.0259317126292043
 50
11.3093147597307304
 51
82.2513288852225486
  0
LINE
  5
7851
  8
0
 10
3899.7548547118321949
 20
95.4311589926698645
 30
0.0
 11
3899.3538312154319101
 21
95.431159023082941
 31
0.0
  0
ARC
  5
7852
  8
0
 10
3899.2999462821239831
 20
95.4311523118824567
 30
0.0
 40
0.0277616271045622
 50
90.4165874577844448
 51
179.583443342255805
  0
LINE
  5
7853
  8
0
 10
3899.2721853887142061
 20
95.431354145051003
 30
0.0
 11
3899.2721853938560344
 21
94.9528661098225655
 31
0.0
  0
ARC
  5
7854
  8
0
 10
3899.2997447554448627
 20
94.952866147355067
 30
0.0
 40
0.0275593615896424
 50
180.0000780299075132
 51
265.8943171116267195
  0
ARC
  5
7855
  8
0
 10
3899.2866404791679997
 20
94.7785961581843566
 30
0.0
 40
0.1472028114912492
 50
75.7175251086672887
 51
85.6632900472403946
  0
ARC
  5
7856
  8
0
 10
3899.307056505249875
 20
94.8546030909822662
 30
0.0
 40
0.0685162730717453
 50
41.275380627696741
 51
76.5821285532144884
  0
ARC
  5
7857
  8
0
 10
3899.2731083374269474
 20
94.8397762038329688
 30
0.0
 40
0.1044189158906669
 50
356.4685831326171979
 51
35.0894005023112001
  0
ARC
  5
7858
  8
0
 10
3899.4046877758028131
 20
94.8315298237502873
 30
0.0
 40
0.0274189080664727
 50
176.2053366574656081
 51
270.4184096026053794
  0
ARC
  5
7859
  8
0
 10
3899.3634244016548109
 20
95.0452852797076844
 30
0.0
 40
0.0335831528847237
 50
200.1604326142991113
 51
253.401272003849698
  0
LINE
  5
785A
  8
0
 10
3899.3318988463870483
 20
95.0337108456926529
 30
0.0
 11
3899.3318988402888863
 21
95.4105494126153246
 31
0.0
  0
ARC
  5
785B
  8
0
 10
3899.3573269432117741
 20
95.4054641087320334
 30
0.0
 40
0.0259316165368549
 50
97.7473802914623064
 51
168.6907537585186958
  0
LINE
  5
785C
  8
0
 10
3899.2997444340321636
 20
95.4589132051829239
 30
0.0
 11
3899.8089409774320302
 21
95.4589132051829239
 31
0.0
  0
LINE
  5
785D
  8
0
 10
3899.4854451181308832
 20
94.8041116486963347
 30
0.0
 11
3899.4854440810781853
 21
94.7648492627606345
 31
0.0
  0
LINE
  5
785E
  8
0
 10
3899.6232403937319759
 20
94.8041116519693077
 30
0.0
 11
3899.6232414321780197
 21
94.7648492617457237
 31
0.0
  0
ARC
  5
785F
  8
0
 10
3899.5543427596649053
 20
95.1772941748472761
 30
0.0
 40
0.4181600571759376
 50
260.5163423164216283
 51
279.4836568395825225
  0
ARC
  5
7860
  8
0
 10
3899.5007244594848999
 20
94.7245466534289164
 30
0.0
 40
0.0747488141977567
 50
101.7949132726392065
 51
122.4034411711617025
  0
ARC
  5
7861
  8
0
 10
3899.4637164362179647
 20
94.7806719766678754
 30
0.0
 40
0.0076209326372352
 50
113.5766337900470972
 51
209.436792992374393
  0
ARC
  5
7862
  8
0
 10
3899.4901200575800431
 20
94.8151784920617047
 30
0.0
 40
0.0505459798430258
 50
229.1806884797057933
 51
264.6920144352699253
  0
ARC
  5
7863
  8
0
 10
3899.6079606633488766
 20
94.7245463371526171
 30
0.0
 40
0.0747488141977567
 50
57.5962208590622566
 51
78.2047820995859979
  0
ARC
  5
7864
  8
0
 10
3899.6449690176800686
 20
94.7806714420918865
 30
0.0
 40
0.0076209326372352
 50
330.5628690378460988
 51
66.423028240173366
  0
ARC
  5
7865
  8
0
 10
3899.6185677892858621
 20
94.815174601279665
 30
0.0
 40
0.0505418909132727
 50
275.3057593844093844
 51
310.8196976596753984
  0
LINE
  5
7866
  8
0
 10
3899.2977716050509116
 20
94.9253775117259551
 30
0.0
 11
3899.8109138237318803
 21
94.9253775144829461
 31
0.0
  0
LINE
  5
7867
  8
0
 10
3899.3404269714901602
 20
95.0208118989950208
 30
0.0
 11
3899.2795718014631348
 21
94.9340892908854528
 31
0.0
  0
LINE
  5
7868
  8
0
 10
3899.7682583116461501
 20
95.0208117653929918
 30
0.0
 11
3899.8291136272259791
 21
94.9340892938379994
 31
0.0
  0
LINE
  5
7869
  8
0
 10
3899.7691163623530883
 20
95.4243613689891532
 30
0.0
 11
3899.8283695773920954
 21
95.4507827480137365
 31
0.0
  0
LINE
  5
786A
  8
0
 10
3899.2803158420651926
 20
95.450782741388565
 30
0.0
 11
3899.3395692404460533
 21
95.4243615352419141
 31
0.0
  0
ARC
  5
786B
  8
0
 10
3898.4992246457318288
 20
95.0256107606829374
 30
0.0
 40
0.0196850393999988
 50
90.000000291035505
 51
180.0
  0
ARC
  5
786C
  8
0
 10
3898.4992246457318288
 20
92.9153745402829259
 30
0.0
 40
0.0196850393999935
 50
180.0000002910468879
 51
270.0000000000259774
  0
LINE
  5
786D
  8
0
 10
3898.4795396063309454
 20
95.0256107606829374
 30
0.0
 11
3898.4795396063309454
 21
92.9153745401829383
 31
0.0
  0
LINE
  5
786E
  8
0
 10
3898.4994155642320948
 20
95.0450798549829301
 30
0.0
 11
3899.2721853928628661
 21
95.0452958000829256
 31
0.0
  0
ARC
  5
786F
  8
0
 10
3898.6094608443318066
 20
94.9153746665242011
 30
0.0
 40
0.0393756963906612
 50
90.9786635840869877
 51
179.0302748842995015
  0
LINE
  5
7870
  8
0
 10
3898.6087883046320712
 20
94.9547446189829287
 30
0.0
 11
3899.2721853938360255
 21
94.9547446189829429
 31
0.0
  0
LINE
  5
7871
  8
0
 10
3898.5700907874320364
 20
94.9160410642785735
 30
0.0
 11
3898.5700907874320364
 21
93.0249442536393758
 31
0.0
  0
ARC
  5
7872
  8
0
 10
3898.6094648902308109
 20
93.0256205929779298
 30
0.0
 40
0.0393799112005834
 50
180.9840879214507083
 51
269.994145284208912
  0
LINE
  5
7873
  8
0
 10
3898.6094608662310748
 20
92.9862406819829346
 30
0.0
 11
3898.8715169024321767
 21
92.9862406819829346
 31
0.0
  0
LINE
  5
7874
  8
0
 10
3898.4992246457318288
 20
92.8956895008829235
 30
0.0
 11
3898.8749185467308962
 21
92.8956895008829235
 31
0.0
  0
ARC
  5
7875
  8
0
 10
3898.9046784385791398
 20
94.6201240701000472
 30
0.0
 40
0.039312068573679
 50
86.2445079526683571
 51
180.0366124505480059
  0
LINE
  5
7876
  8
0
 10
3898.8653663780319221
 20
94.6200989493829354
 30
0.0
 11
3898.8649217343318014
 21
93.5973765141829404
 31
0.0
  0
ARC
  5
7877
  8
0
 10
3915.3999333675142225
 20
93.472919260727366
 30
0.0
 40
16.5354800147261294
 50
179.5687489763479903
 51
180.5284815539370129
  0
ARC
  5
7878
  8
0
 10
3904.1791751513301278
 20
93.3016722165652936
 30
0.0
 40
5.3140514141982758
 50
179.7980518515672941
 51
180.6394445845189978
  0
ARC
  5
7879
  8
0
 10
3910.9808091616318961
 20
93.4001146700821749
 30
0.0
 40
12.1163814211592005
 50
180.7459787716749133
 51
182.2152122725098877
  0
ARC
  5
787A
  8
0
 10
3906.2679538399579542
 20
93.2079540960461088
 30
0.0
 40
7.3996270192682854
 50
182.1389397821895102
 51
182.4186027104836967
  0
ARC
  5
787B
  8
0
 10
3688.5129037463329951
 20
86.4695864807019206
 30
0.0
 40
210.4601436636147014
 50
0.5455413780557485
 51
1.749717593749478
  0
ARC
  5
787C
  8
0
 10
8097.9634536139319607
 20
161.4854513052692937
 30
0.0
 40
4199.6346626935746826
 50
180.996155753050914
 51
181.0023277988491088
  0
ARC
  5
787D
  8
0
 10
3495.0915995746518092
 20
82.1000220205291669
 30
0.0
 40
403.9231982689202027
 50
0.6524224976418689
 51
0.8399278402006682
  0
ARC
  5
787E
  8
0
 10
3893.6123559579741595
 20
88.5399828219473193
 30
0.0
 40
5.3583094088571714
 50
352.2839239634095065
 51
357.6536566065607872
  0
ARC
  5
787F
  8
0
 10
3901.575889692887813
 20
87.4152987754110882
 30
0.0
 40
2.6845058294930548
 50
171.3173979554956929
 51
195.4674826418853115
  0
ARC
  5
7880
  8
0
 10
3899.0257095768638465
 20
86.7103036065363995
 30
0.0
 40
0.03867750477867
 50
196.4297914449898883
 51
261.4573443343546728
  0
ARC
  5
7881
  8
0
 10
3899.5554192397707993
 20
89.9451671767094041
 30
0.0
 40
3.3166208800252059
 50
260.7091651779372228
 51
269.9814033547672238
  0
ARC
  5
7882
  8
0
 10
3898.9696006839571965
 20
94.6139460466473139
 30
0.0
 40
0.0276430324908287
 50
90.4830939527889058
 51
180.6999245352209016
  0
LINE
  5
7883
  8
0
 10
3898.9420214412421046
 20
94.6135909994651314
 30
0.0
 11
3898.9650089261849644
 21
93.2600221107675935
 31
0.0
  0
LINE
  5
7884
  8
0
 10
3898.9650089261849644
 20
93.2600221107675935
 30
0.0
 11
3898.9828499535319679
 21
92.2227582612829337
 31
0.0
  0
ARC
  5
7885
  8
0
 10
4183.1822640923246581
 20
97.237784479884624
 30
0.0
 40
284.2436586536388745
 50
181.0109451432674064
 51
181.072485003025804
  0
ARC
  5
7886
  8
0
 10
5654.8822659053621464
 20
125.5066538001044023
 30
0.0
 40
1756.2151057100859362
 50
181.0958985076310057
 51
181.135020055503503
  0
ARC
  5
7887
  8
0
 10
3899.0315142022877808
 20
90.7191034414500592
 30
0.0
 40
0.0197764005577438
 50
181.4756553467003926
 51
225.4108563886348975
  0
LINE
  5
7888
  8
0
 10
3899.0176308106310898
 20
90.7050194982829368
 30
0.0
 11
3899.0849329925308666
 21
90.6439895404829343
 31
0.0
  0
ARC
  5
7889
  8
0
 10
3899.098699422313075
 20
90.6580324305505485
 30
0.0
 40
0.0196651303164634
 50
225.5695747300109986
 51
270.010792218960205
  0
LINE
  5
788A
  8
0
 10
3898.9052529446321387
 20
93.282657277782917
 30
0.0
 11
3898.9650089261849644
 21
93.2600221107662435
 31
0.0
  0
ARC
  5
788B
  8
0
 10
3898.9287354335988312
 20
93.3490333065109184
 30
0.0
 40
0.0704074177755112
 50
205.4329912029610909
 51
250.517256308125809
  0
ARC
  5
788C
  8
0
 10
3900.6094719241468738
 20
95.0256375931008961
 30
0.0
 40
0.0196739996827075
 50
359.9218570293501216
 51
90.0141750778605569
  0
ARC
  5
788D
  8
0
 10
3900.6095257926440354
 20
92.9153254962329385
 30
0.0
 40
0.0196202209914238
 50
269.9224307169039889
 51
0.190198336670533
  0
LINE
  5
788E
  8
0
 10
3900.6291459055310042
 20
95.0256107606829374
 30
0.0
 11
3900.6291459055310042
 21
92.9153906271479144
 31
0.0
  0
LINE
  5
788F
  8
0
 10
3900.6092761413960943
 20
95.045095644224034
 30
0.0
 11
3899.8365063096198355
 21
95.0453000232051153
 31
0.0
  0
ARC
  5
7890
  8
0
 10
3900.4992388911728085
 20
94.9154031595290348
 30
0.0
 40
0.0393612442049474
 50
0.9500464082060744
 51
89.0306989336008598
  0
LINE
  5
7891
  8
0
 10
3900.4999047530650387
 20
94.9547587712420267
 30
0.0
 11
3899.836507663933844
 21
94.9547488421152508
 31
0.0
  0
LINE
  5
7892
  8
0
 10
3900.5385947244321869
 20
94.9160557956469404
 30
0.0
 11
3900.5385947244321869
 21
93.0249589852195555
 31
0.0
  0
ARC
  5
7893
  8
0
 10
3900.4992829982420517
 20
93.0255713133836366
 30
0.0
 40
0.0393164947809805
 50
269.9688954787940816
 51
359.1076203983193977
  0
LINE
  5
7894
  8
0
 10
3900.4992616542490396
 20
92.9862548243962266
 30
0.0
 11
3900.2372056180779509
 21
92.9862509021788242
 31
0.0
  0
LINE
  5
7895
  8
0
 10
3900.6094992300240847
 20
92.895705293222278
 30
0.0
 11
3900.233805329066854
 21
92.8956996701762563
 31
0.0
  0
ARC
  5
7896
  8
0
 10
3900.2039997942752052
 20
94.6201037247680148
 30
0.0
 40
0.0393318944816159
 50
0.0080654285536172
 51
93.742972107453042
  0
LINE
  5
7897
  8
0
 10
3900.2433316883671068
 20
94.6201092614513044
 30
0.0
 11
3900.2437916392500483
 21
93.5973868330208774
 31
0.0
  0
ARC
  5
7898
  8
0
 10
3883.7087818706831968
 20
93.4726820985010818
 30
0.0
 40
16.5354800147261294
 50
359.4723759973966821
 51
0.4321085749863388
  0
ARC
  5
7899
  8
0
 10
3894.9295426486801261
 20
93.3016029965043856
 30
0.0
 40
5.3140514141982758
 50
359.3614129668147825
 51
0.2028056997670192
  0
ARC
  5
789A
  8
0
 10
3888.1279071657431814
 20
93.3999436493127035
 30
0.0
 40
12.1163814211592005
 50
357.7856452788249157
 51
359.2548787796595207
  0
ARC
  5
789B
  8
0
 10
3892.8407653629737979
 20
93.2078536130481439
 30
0.0
 40
7.3996270192682854
 50
357.5822548408507942
 51
357.8619177691442133
  0
ARC
  5
789C
  8
0
 10
4110.5959162859926437
 20
86.4727451588249778
 30
0.0
 40
210.4601436636147014
 50
178.2511399575847122
 51
179.4553161732787885
  0
ARC
  5
789D
  8
0
 10
-298.8557558572429116
 20
161.4226133128545939
 30
0.0
 40
4199.6346626935746826
 50
358.9985297524851262
 51
359.0047017982830084
  0
ARC
  5
789E
  8
0
 10
4304.0172858356927463
 20
82.1060756540383636
 30
0.0
 40
403.9231982689202027
 50
179.1609297111338037
 51
179.3484350536926115
  0
ARC
  5
789F
  8
0
 10
3905.496433109507052
 20
88.5400717569989411
 30
0.0
 40
5.3583094088571714
 50
182.347200944773391
 51
187.7169335879239895
  0
ARC
  5
78A0
  8
0
 10
3897.5329162087377881
 20
87.4152685196284267
 30
0.0
 40
2.6845058294930548
 50
344.5333749094497762
 51
8.6834595958353162
  0
ARC
  5
78A1
  8
0
 10
3900.0831068762058749
 20
86.7103115196189265
 30
0.0
 40
0.03867750477867
 50
278.543513216973281
 51
343.5710661063465068
  0
ARC
  5
78A2
  8
0
 10
3899.5533487968491499
 20
89.9451671612151387
 30
0.0
 40
3.3166208800252059
 50
270.0194541965777262
 51
279.2916923733869794
  0
ARC
  5
78A3
  8
0
 10
3900.1391751021960772
 20
94.6139859341699179
 30
0.0
 40
0.0275658091600966
 50
359.2342537418742268
 51
89.9674415373808642
  0
LINE
  5
78A4
  8
0
 10
3900.1666767225701733
 20
94.613600164230661
 30
0.0
 11
3900.1437094966231598
 21
93.26003093162889
 31
0.0
  0
LINE
  5
78A5
  8
0
 10
3900.1437094966231598
 20
93.26003093162889
 30
0.0
 11
3900.1258839941037877
 21
92.2227668152320632
 31
0.0
  0
ARC
  5
78A6
  8
0
 10
3615.9263948267730484
 20
97.2335393938442252
 30
0.0
 40
284.2436586536388745
 50
358.9283725483085163
 51
358.9899124080666866
  0
ARC
  5
78A7
  8
0
 10
2144.2259700757431347
 20
125.4803816382078026
 30
0.0
 40
1756.2151057100859362
 50
358.8658374958304194
 51
358.904959043703002
  0
ARC
  5
78A8
  8
0
 10
3900.0772422506961448
 20
90.7191112672052213
 30
0.0
 40
0.0197764005577438
 50
314.5900011627078925
 51
358.5252022046335014
  0
LINE
  5
78A9
  8
0
 10
3900.0911258531468775
 20
90.7050275318336929
 30
0.0
 11
3900.0238245846949212
 21
90.6439965667224072
 31
0.0
  0
ARC
  5
78AA
  8
0
 10
3900.0100319959929038
 20
90.6580787224273337
 30
0.0
 40
0.0197114842775772
 50
269.8557931868136279
 51
314.404824306215005
  0
LINE
  5
78AB
  8
0
 10
3900.2034651393860258
 20
93.2826669930150985
 30
0.0
 11
3900.1437094966231598
 21
93.2600309316275258
 31
0.0
  0
ARC
  5
78AC
  8
0
 10
3900.1799816569650829
 20
93.3490426702710465
 30
0.0
 40
0.0704074177755112
 50
289.4836012431878203
 51
334.567866348374821
  0
LINE
  5
78AD
  8
0
 10
3899.0987031264330653
 20
90.638367300582928
 30
0.0
 11
3900.0099823845321225
 21
90.638367300582928
 31
0.0
  0
LINE
  5
78AE
  8
0
 10
3900.0976140391221634
 20
90.7490204551177868
 30
0.0
 11
3899.0111418244910055
 21
90.7490194837829307
 31
0.0
  0
LINE
  5
78AF
  8
0
 10
3898.9072533310318249
 20
94.6593517218829277
 30
0.0
 11
3900.2014321794308671
 21
94.6593517218829277
 31
0.0
  0
LINE
  5
78B0
  8
0
 10
3898.9693676122760735
 20
94.641588096551061
 30
0.0
 11
3900.1391907665320105
 21
94.6415517388793575
 31
0.0
  0
LINE
  5
78B1
  8
0
 10
3898.5816220166070707
 20
94.9432133899075552
 30
0.0
 11
3898.8768820236427928
 21
94.6479233156324256
 31
0.0
  0
LINE
  5
78B2
  8
0
 10
3898.8768976071069119
 20
94.6479377993074564
 30
0.0
 11
3898.9498533588239297
 21
94.6332897897028289
 31
0.0
  0
LINE
  5
78B3
  8
0
 10
3900.1588023899489599
 20
94.6333416416001825
 30
0.0
 11
3900.2317879041070228
 21
94.6479377999568356
 31
0.0
  0
LINE
  5
78B4
  8
0
 10
3900.2317879041070228
 20
94.6479377999568356
 30
0.0
 11
3900.5270721390998006
 21
94.9432351165749395
 31
0.0
  0
LINE
  5
78B5
  8
0
 10
3898.58185866829308
 20
92.9975372542079413
 30
0.0
 11
3898.8651813849219252
 21
93.2769197758559727
 31
0.0
  0
LINE
  5
78B6
  8
0
 10
3900.5270634953558329
 20
92.9977719110583223
 30
0.0
 11
3900.2435556366981473
 21
93.2813941883774618
 31
0.0
  0
ENDSEC
  0
EOF
