  0
SECTION
  2
HEADER
  9
$ACADVER
  1
AC1009
  9
$INSBASE
 10
3904.0031867135189714
 20
70.6706804568155746
 30
0.0
  9
$EXTMIN
 10
3896.6078119356448042
 20
70.6678848056718323
 30
-0.0015258207003583
  9
$EXTMAX
 10
3905.2572590541658428
 20
83.5471141305595495
 30
0.0000000349246037
  9
$LIMMIN
 10
0.0
 20
0.0
  9
$LIMMAX
 10
11.6929133858000007
 20
8.2677165353999982
  9
$ORTHOMODE
 70
     0
  9
$REGENMODE
 70
     1
  9
$FILLMODE
 70
     1
  9
$QTEXTMODE
 70
     0
  9
$MIRRTEXT
 70
     0
  9
$DRAGMODE
 70
     2
  9
$LTSCALE
 40
0.6431102362
  9
$OSMODE
 70
     7
  9
$ATTMODE
 70
     1
  9
$TEXTSIZE
 40
0.2
  9
$TRACEWID
 40
0.05
  9
$TEXTSTYLE
  7
STANDARD
  9
$CLAYER
  8
0
  9
$CELTYPE
  6
BYLAYER
  9
$CECOLOR
 62
   256
  9
$DIMSCALE
 40
1.0
  9
$DIMASZ
 40
0.1875
  9
$DIMEXO
 40
0.0625
  9
$DIMDLI
 40
0.4443307087
  9
$DIMRND
 40
0.0
  9
$DIMDLE
 40
0.0
  9
$DIMEXE
 40
0.125
  9
$DIMTP
 40
0.01
  9
$DIMTM
 40
0.01
  9
$DIMTXT
 40
2.0
  9
$DIMCEN
 40
0.1052362205
  9
$DIMTSZ
 40
0.0
  9
$DIMTOL
 70
     1
  9
$DIMLIM
 70
     0
  9
$DIMTIH
 70
     1
  9
$DIMTOH
 70
     1
  9
$DIMSE1
 70
     0
  9
$DIMSE2
 70
     0
  9
$DIMTAD
 70
     0
  9
$DIMZIN
 70
     0
  9
$DIMBLK
  1

  9
$DIMASO
 70
     1
  9
$DIMSHO
 70
     1
  9
$DIMPOST
  1
\X
  9
$DIMAPOST
  1

  9
$DIMALT
 70
     1
  9
$DIMALTD
 70
     2
  9
$DIMALTF
 40
25.3999999999999986
  9
$DIMLFAC
 40
1.0
  9
$DIMTOFL
 70
     0
  9
$DIMTVP
 40
0.0
  9
$DIMTIX
 70
     0
  9
$DIMSOXD
 70
     0
  9
$DIMSAH
 70
     0
  9
$DIMBLK1
  1

  9
$DIMBLK2
  1

  9
$DIMSTYLE
  2
STANDARD
  9
$DIMCLRD
 70
     0
  9
$DIMCLRE
 70
     0
  9
$DIMCLRT
 70
     0
  9
$DIMTFAC
 40
1.0
  9
$DIMGAP
 40
0.09
  9
$LUNITS
 70
     2
  9
$LUPREC
 70
     4
  9
$SKETCHINC
 40
0.1
  9
$FILLETRAD
 40
0.0
  9
$AUNITS
 70
     0
  9
$AUPREC
 70
     0
  9
$MENU
  1
.
  9
$ELEVATION
 40
0.0
  9
$PELEVATION
 40
0.0
  9
$THICKNESS
 40
0.0
  9
$LIMCHECK
 70
     0
  9
$BLIPMODE
 70
     0
  9
$CHAMFERA
 40
0.0
  9
$CHAMFERB
 40
0.0
  9
$SKPOLY
 70
     0
  9
$TDCREATE
 40
2458060.468368056230247
  9
$TDUPDATE
 40
2459457.5671064821071923
  9
$TDINDWG
 40
0.4219283565
  9
$TDUSRTIMER
 40
0.4219283565
  9
$USRTIMER
 70
     1
  9
$ANGBASE
 50
0.0
  9
$ANGDIR
 70
     0
  9
$PDMODE
 70
     0
  9
$PDSIZE
 40
0.3125
  9
$PLINEWID
 40
0.0
  9
$COORDS
 70
     1
  9
$SPLFRAME
 70
     0
  9
$SPLINETYPE
 70
     6
  9
$SPLINESEGS
 70
     8
  9
$ATTDIA
 70
     1
  9
$ATTREQ
 70
     1
  9
$HANDLING
 70
     1
  9
$HANDSEED
  5
7EFF
  9
$SURFTAB1
 70
     6
  9
$SURFTAB2
 70
     6
  9
$SURFTYPE
 70
     6
  9
$SURFU
 70
     6
  9
$SURFV
 70
     6
  9
$UCSNAME
  2

  9
$UCSORG
 10
0.0
 20
0.0
 30
0.0
  9
$UCSXDIR
 10
1.0
 20
0.0
 30
0.0
  9
$UCSYDIR
 10
0.0
 20
1.0
 30
0.0
  9
$PUCSNAME
  2

  9
$PUCSORG
 10
0.0
 20
0.0
 30
0.0
  9
$PUCSXDIR
 10
1.0
 20
0.0
 30
0.0
  9
$PUCSYDIR
 10
0.0
 20
1.0
 30
0.0
  9
$USERI1
 70
     0
  9
$USERI2
 70
     0
  9
$USERI3
 70
     0
  9
$USERI4
 70
     0
  9
$USERI5
 70
     0
  9
$USERR1
 40
0.0
  9
$USERR2
 40
0.0
  9
$USERR3
 40
0.0
  9
$USERR4
 40
0.0
  9
$USERR5
 40
0.0
  9
$WORLDVIEW
 70
     1
  9
$SHADEDGE
 70
     3
  9
$SHADEDIF
 70
    70
  9
$TILEMODE
 70
     1
  9
$MAXACTVP
 70
    64
  9
$PLIMCHECK
 70
     0
  9
$PEXTMIN
 10
1.0000000000000000E+20
 20
1.0000000000000000E+20
 30
1.0000000000000000E+20
  9
$PEXTMAX
 10
-1.0000000000000000E+20
 20
-1.0000000000000000E+20
 30
-1.0000000000000000E+20
  9
$PLIMMIN
 10
0.0
 20
0.0
  9
$PLIMMAX
 10
12.0
 20
9.0
  9
$UNITMODE
 70
     0
  9
$VISRETAIN
 70
     1
  9
$PLINEGEN
 70
     0
  9
$PSLTSCALE
 70
     1
  0
ENDSEC
  0
SECTION
  2
TABLES
  0
TABLE
  2
VPORT
 70
     1
  0
VPORT
  2
*ACTIVE
 70
     0
 10
0.0
 20
0.0
 11
1.0
 21
1.0
 12
108.5746253386550961
 22
-43.0731569649897708
 13
0.0
 23
0.0
 14
1.0
 24
1.0
 15
0.0
 25
0.0
 16
0.0
 26
0.0
 36
5.1040778033513332
 17
3792.35791015625
 27
120.1806564331053977
 37
0.0
 40
12.9852983027593396
 41
2.50921052631579
 42
50.0
 43
0.0
 44
0.0
 50
0.0
 51
0.0
 71
     0
 72
   100
 73
     1
 74
     1
 75
     0
 76
     0
 77
     0
 78
     0
  0
ENDTAB
  0
TABLE
  2
LTYPE
 70
     2
  0
LTYPE
  2
CONTINUOUS
 70
     0
  3
Solid line
 72
    65
 73
     0
 40
0.0
  0
LTYPE
  2
PHANTOM2
 70
     0
  3
___ _ _ ___ _ _ ___ _ _ ___ _ _
 72
    65
 73
     6
 40
1.25
 49
0.625
 49
-0.125
 49
0.125
 49
-0.125
 49
0.125
 49
-0.125
  0
ENDTAB
  0
TABLE
  2
LAYER
 70
     2
  0
LAYER
  2
0
 70
     0
 62
   255
  6
CONTINUOUS
  0
LAYER
  2
DEFPOINTS
 70
     0
 62
     7
  6
CONTINUOUS
  0
ENDTAB
  0
TABLE
  2
STYLE
 70
     1
  0
STYLE
  2
STANDARD
 70
     0
 40
0.0
 41
0.8
 50
0.0
 71
     0
 42
0.2
  3
txt
  4

  0
ENDTAB
  0
TABLE
  2
VIEW
 70
     0
  0
ENDTAB
  0
TABLE
  2
UCS
 70
     0
  0
ENDTAB
  0
TABLE
  2
APPID
 70
     9
  0
APPID
  2
ACAD
 70
     0
  0
APPID
  2
ACAD_MLEADERVER
 70
     0
  0
APPID
  2
ACAD_EXEMPT_FROM_CAD_STANDARDS
 70
     0
  0
APPID
  2
ACAD_NAV_VCDISPLAY
 70
     0
  0
APPID
  2
ACAECLAYERSTANDARD
 70
     0
  0
APPID
  2
ACCMTRANSPARENCY
 70
     0
  0
APPID
  2
ACAD_DSTYLE_DIMJAG
 70
     0
  0
APPID
  2
ACAD_DSTYLE_DIMTALN
 70
     0
  0
APPID
  2
ACDBATTR
 70
     0
  0
ENDTAB
  0
TABLE
  2
DIMSTYLE
 70
     1
  0
DIMSTYLE
  2
STANDARD
 70
     0
  3

  4

  5

  6

  7

 40
1.0
 41
0.1875
 42
0.0625
 43
0.38
 44
0.125
 45
0.0
 46
0.0
 47
0.01
 48
0.01
140
0.15625
141
0.09
142
0.0
143
25.3999999999999986
144
1.0
145
0.0
146
1.0
147
0.09
 71
     1
 72
     0
 73
     1
 74
     1
 75
     0
 76
     0
 77
     0
 78
     4
170
     0
171
     2
172
     0
173
     0
174
     0
175
     0
176
     0
177
     0
178
     0
  0
ENDTAB
  0
ENDSEC
  0
SECTION
  2
BLOCKS
  0
BLOCK
  8
0
  2
$MODEL_SPACE
 70
     0
 10
0.0
 20
0.0
 30
0.0
  3
$MODEL_SPACE
  1

  0
ENDBLK
  5
21
  8
0
  0
BLOCK
 67
     1
  8
0
  2
$PAPER_SPACE
 70
     0
 10
0.0
 20
0.0
 30
0.0
  3
$PAPER_SPACE
  1

  0
ENDBLK
  5
1D
 67
     1
  8
0
  0
ENDSEC
  0
SECTION
  2
ENTITIES
  0
ATTDEF
  5
3930
  8
DEFPOINTS
 10
3904.0031872357621978
 20
70.6740223695131391
 30
0.0
 40
0.001
  1
K-23373T-B4
  3

  2
MODELNUMBER
 70
     0
1001
ACDBATTR
1070
     0
1070
     1
  0
ATTDEF
  5
3931
  8
DEFPOINTS
 10
3904.0031872357621978
 20
70.6723557028464739
 30
0.0
 40
0.001
  1
MEMOIRS
  3

  2
TRADENAME
 70
     0
1001
ACDBATTR
1070
     0
1070
     1
  0
ATTDEF
  5
3932
  8
DEFPOINTS
 10
3904.0031872357621978
 20
70.6706890361798088
 30
0.0
 40
0.001
  1
BATHROOM SINK FAUCET
  3

  2
PRODUCT
 70
     0
1001
ACDBATTR
1070
     0
1070
     1
  0
ARC
  5
7DEE
  8
0
 10
3898.4246799667948835
 20
79.9906551033028137
 30
0.0
 40
1.9258566299098649
 50
135.3458269004358954
 51
156.1831175047753106
  0
ARC
  5
7DEF
  8
0
 10
3898.0051432320838103
 20
80.3702922798329666
 30
0.0
 40
1.360821377271239
 50
108.7201468287228039
 51
134.3015140574950124
  0
ARC
  5
7DF0
  8
0
 10
3898.1506717862789628
 20
79.8989332893848143
 30
0.0
 40
1.8539998987218771
 50
91.5047591614936664
 51
108.3044529265723952
  0
ARC
  5
7DF1
  8
0
 10
3898.4291682675839184
 20
79.8164987848675764
 30
0.0
 40
0.9434803638814718
 50
88.6131640869528923
 51
99.63859700840149
  0
ARC
  5
7DF2
  8
0
 10
3898.368840544007071
 20
80.1410880115547144
 30
0.0
 40
0.6133938091158314
 50
99.1594855713545655
 51
130.7673532863393007
  0
ARC
  5
7DF3
  8
0
 10
3898.6315035257189265
 20
79.8938391001696857
 30
0.0
 40
0.9728903902404891
 50
132.9752712050809862
 51
156.7312624819350901
  0
ARC
  5
7DF4
  8
0
 10
3896.6806821772920557
 20
80.7600545870197664
 30
0.0
 40
0.0196850349201764
 50
155.0936829556617909
 51
245.5116214473449929
  0
LINE
  5
7DF5
  8
0
 10
3896.6725225597588178
 20
80.7421403122222614
 30
0.0
 11
3897.7115241764190614
 21
80.2686396435155984
 31
0.0
  0
ARC
  5
7DF6
  8
0
 10
3897.7197076441389072
 20
80.2869586389662686
 30
0.0
 40
0.0200637668011179
 50
245.9287133985924925
 51
334.0338309725268005
  0
LINE
  5
7DF7
  8
0
 10
3896.7643207665269074
 20
80.7003051067314914
 30
0.0
 11
3896.7457771214189961
 21
80.6596147913155903
 31
0.0
  0
LINE
  5
7DF8
  8
0
 10
3896.7457771214189961
 20
80.6596147913155903
 30
0.0
 11
3896.7808106303200475
 21
80.6436491015155781
 31
0.0
  0
LINE
  5
7DF9
  8
0
 10
3896.7808106303200475
 20
80.6436491015155781
 30
0.0
 11
3896.7169478710197836
 21
80.5035150658156056
 31
0.0
  0
LINE
  5
7DFA
  8
0
 10
3896.7169478710197836
 20
80.5035150658156056
 30
0.0
 11
3897.4459271596051622
 21
80.1713000641827875
 31
0.0
  0
LINE
  5
7DFB
  8
0
 10
3897.5049743315189517
 20
80.1443907176156074
 30
0.0
 11
3897.5688370909201694
 21
80.2845247533155941
 31
0.0
  0
LINE
  5
7DFC
  8
0
 10
3897.5688370909201694
 20
80.2845247533155941
 30
0.0
 11
3897.6038705998189471
 21
80.2685590635155961
 31
0.0
  0
LINE
  5
7DFD
  8
0
 10
3897.6038705998189471
 20
80.2685590635155961
 30
0.0
 11
3897.6224142563310124
 21
80.309249403956386
 31
0.0
  0
LINE
  5
7DFE
  8
0
 10
3896.7759950429349374
 20
80.4766057192512392
 30
0.0
 11
3896.7661566906190274
 21
80.4550174254156047
 31
0.0
  0
LINE
  5
7DFF
  8
0
 10
3896.7661566906190274
 20
80.4550174254156047
 30
0.0
 11
3897.4360888073188107
 21
80.1497117704155926
 31
0.0
  0
LINE
  5
7E00
  8
0
 10
3897.4360888073188107
 20
80.1497117704155926
 30
0.0
 11
3897.4459271596051622
 21
80.1713000641827875
 31
0.0
  0
LINE
  5
7E01
  8
0
 10
3897.4459271596028884
 20
80.1713000641799454
 30
0.0
 11
3897.5049743315162232
 21
80.1443907176083599
 31
0.0
  0
LINE
  5
7E02
  8
0
 10
3896.7822780517180945
 20
80.4476704978881543
 30
0.0
 11
3896.7797032372191097
 21
80.3969251115155998
 31
0.0
  0
LINE
  5
7E03
  8
0
 10
3896.7797032372191097
 20
80.3969251115155998
 30
0.0
 11
3897.3833586472201205
 21
80.1218234918156043
 31
0.0
  0
LINE
  5
7E04
  8
0
 10
3897.3833586472201205
 20
80.1218234918156043
 30
0.0
 11
3897.419967446238843
 21
80.1570586979346444
 31
0.0
  0
ARC
  5
7E05
  8
0
 10
3903.4637404621312271
 20
84.948044761518986
 30
0.0
 40
3.293991488526296
 50
267.5931944749108879
 51
271.6622295870391781
  0
ARC
  5
7E06
  8
0
 10
3903.4604277232660934
 20
84.9201156103405168
 30
0.0
 40
3.2661727839940911
 50
271.7345295885303926
 51
278.7975226443921883
  0
ARC
  5
7E07
  8
0
 10
3903.3803509658828261
 20
85.3817210860492253
 30
0.0
 40
3.7346044107241418
 50
278.9284698056882803
 51
288.165010309235015
  0
ARC
  5
7E08
  8
0
 10
3903.1807455704829408
 20
86.0317895380372022
 30
0.0
 40
4.414522229087817
 50
287.9962277845901895
 51
289.6918879357298806
  0
ARC
  5
7E09
  8
0
 10
3904.6486817929999233
 20
81.9549652800993869
 30
0.0
 40
0.0819062256818282
 50
283.8377939162226085
 51
297.7067762030089852
  0
ARC
  5
7E0A
  8
0
 10
3904.6802338301081363
 20
81.8922945775202038
 30
0.0
 40
0.0118129616995485
 50
303.5581042188470065
 51
0.8305154002846551
  0
LINE
  5
7E0B
  8
0
 10
3904.6920455508097803
 20
81.8924658030998245
 30
0.0
 11
3904.6891560803569519
 21
82.0993945080070091
 31
0.0
  0
LINE
  5
7E0C
  8
0
 10
3904.6852126101221074
 20
82.3818051441518548
 30
0.0
 11
3904.6742448135328232
 21
83.1672611580156058
 31
0.0
  0
LINE
  5
7E0D
  8
0
 10
3903.29725429311884
 20
82.6287537169155826
 30
0.0
 11
3903.3140141121648412
 21
81.6685843282821935
 31
0.0
  0
ARC
  5
7E0E
  8
0
 10
3903.3258238433490988
 20
81.6687629526170582
 30
0.0
 40
0.0118110819697294
 50
180.8665430234244127
 51
267.9993223194402958
  0
ARC
  5
7E0F
  8
0
 10
3902.9128673702361993
 20
82.6673323356390597
 30
0.0
 40
0.3863180248267476
 50
354.2687570195474223
 51
92.7312464435996446
  0
LINE
  5
7E10
  8
0
 10
3902.8944588560211741
 20
83.0532115173921568
 30
0.0
 11
3902.2287439439191985
 21
83.0997573859155949
 31
0.0
  0
ARC
  5
7E11
  8
0
 10
3901.3614602766988355
 20
70.5570025618822001
 30
0.0
 40
12.5727037480106194
 50
86.0445113010755165
 51
92.7752652573002621
  0
ARC
  5
7E12
  8
0
 10
3900.7538510862000294
 20
83.1429356162304174
 30
0.0
 40
0.0279987678542909
 50
229.2171283243287974
 51
267.6598475567395212
  0
LINE
  5
7E13
  8
0
 10
3900.7355624513470502
 20
83.1217352191452079
 30
0.0
 11
3900.6758830969201881
 21
83.1904658578155818
 31
0.0
  0
ARC
  5
7E14
  8
0
 10
3900.6907488447500327
 20
83.2033732753740054
 30
0.0
 40
0.0196873534688987
 50
176.0000820188670048
 51
220.9666586262617045
  0
LINE
  5
7E15
  8
0
 10
3900.6711094467191288
 20
83.2047465676155866
 30
0.0
 11
3900.6895001846201012
 21
83.467750396415596
 31
0.0
  0
ARC
  5
7E16
  8
0
 10
3900.7091305663111598
 20
83.4663790674162556
 30
0.0
 40
0.0196782221908195
 50
130.9619135208299099
 51
176.0039531087167859
  0
LINE
  5
7E17
  8
0
 10
3900.6962303660188809
 20
83.4812389887155746
 30
0.0
 11
3900.765130145844978
 21
83.541064368930563
 31
0.0
  0
ARC
  5
7E18
  8
0
 10
3900.7790612599919768
 20
83.5234581004850156
 30
0.0
 40
0.0224512055353895
 50
92.6219968811412429
 51
128.353115544557312
  0
ARC
  5
7E19
  8
0
 10
3900.7778430227690478
 20
83.5231683845903063
 30
0.0
 40
0.0227182211962607
 50
76.9403983706084631
 51
89.5178524707128247
  0
ARC
  5
7E1A
  8
0
 10
3903.1359516007191814
 20
95.9220443738161634
 30
0.0
 40
12.5984251969005907
 50
259.2358070989623116
 51
265.4118613792617793
  0
ARC
  5
7E1B
  8
0
 10
3920.6179085977069008
 20
328.7469283628585117
 30
0.0
 40
246.0785569143820908
 50
265.690874938636
 51
266.2790144486061195
  0
ARC
  5
7E1C
  8
0
 10
3904.6422555849940181
 20
83.0546640906454456
 30
0.0
 40
0.1325841361620648
 50
83.158686397203013
 51
87.5385095491418355
  0
ARC
  5
7E1D
  8
0
 10
3904.6545625534117789
 20
83.1669303758245064
 30
0.0
 40
0.0196850395086119
 50
0.9628284255314619
 51
79.7984514014710555
  0
ARC
  5
7E1E
  8
0
 10
3904.6803559876129839
 20
82.3710432754994031
 30
0.0
 40
0.0118069724779224
 50
359.993726498764488
 51
65.7112670502529852
  0
LINE
  5
7E1F
  8
0
 10
3904.6921629600187771
 20
82.3710419827155675
 30
0.0
 11
3904.6921629600187771
 21
82.1072625540155769
 31
0.0
  0
ARC
  5
7E20
  8
0
 10
3904.6803780099371579
 20
82.1072577485114152
 30
0.0
 40
0.0117849510616598
 50
318.1465782512020155
 51
0.023363280244448
  0
LINE
  5
7E21
  8
0
 10
3900.7829765346200475
 20
83.5452990111155884
 30
0.0
 11
3900.7527078402190455
 21
83.1149601986287507
 31
0.0
  0
LINE
  5
7E22
  8
0
 10
3904.6852126101221074
 20
82.3818051441518548
 30
0.0
 11
3904.6891560803569519
 21
82.0993945080070091
 31
0.0
  0
ARC
  5
7E23
  8
0
 10
3886.0504248355291566
 20
-250.5927691439252101
 30
0.0
 40
332.570596766268693
 50
87.6907520417847337
 51
87.8900906371402044
  0
ARC
  5
7E24
  8
0
 10
3924.3440406028489633
 20
706.4537924782523532
 30
0.0
 40
625.2417908845783359
 50
267.718227412204385
 51
268.0806298839127066
  0
ARC
  5
7E25
  8
0
 10
3944.8939689637718402
 20
1650.4271150297820441
 30
0.0
 40
1569.4128769251299218
 50
268.4850722329094879
 51
268.5307604027058233
  0
ARC
  5
7E26
  8
0
 10
3904.6523174698331786
 20
81.4903890130978255
 30
0.0
 40
0.0398460908693583
 50
0.2780753957020154
 51
87.842505264946297
  0
ARC
  5
7E27
  8
0
 10
26531.6572971008208697
 20
1296631.0270446189679205
 30
0.0
 40
1296747.8003552129957825
 50
268.9999188815170896
 51
269.0000790450350792
  0
ARC
  5
7E28
  8
0
 10
3902.0623060056891518
 20
79.0440236307151736
 30
0.0
 40
1.6524755078502591
 50
74.5843758253705857
 51
89.5128894685116592
  0
ARC
  5
7E29
  8
0
 10
3902.2408140125930913
 20
79.6286466882869632
 30
0.0
 40
1.041568238089462
 50
29.86132533704831
 51
75.5020717861330013
  0
ARC
  5
7E2A
  8
0
 10
3901.8712137654920298
 20
79.4668684650293358
 30
0.0
 40
1.443310046778969
 50
358.8058240088229809
 51
28.1252690031560988
  0
LINE
  5
7E2B
  8
0
 10
3903.3142103355298786
 20
79.4367887377545685
 30
0.0
 11
3903.3142103355189647
 21
75.4441917264908142
 31
0.0
  0
LINE
  5
7E2C
  8
0
 10
3902.9283835639189419
 20
70.6706804568155746
 30
0.0
 11
3905.0779898631190008
 21
70.6706804568155746
 31
0.0
  0
LINE
  5
7E2D
  8
0
 10
3902.9283835639189419
 20
70.6706804568155746
 30
0.0
 11
3902.9283835639189419
 21
70.7218615590155935
 31
0.0
  0
ARC
  5
7E2E
  8
0
 10
3903.1452470806430028
 20
70.721861559154334
 30
0.0
 40
0.2168635167240303
 50
156.4634220993056886
 51
180.0000000366553934
  0
ARC
  5
7E2F
  8
0
 10
3902.9644728028201826
 20
70.8006017166155885
 30
0.0
 40
0.0196850394
 50
90.0
 51
156.4634221359899868
  0
LINE
  5
7E30
  8
0
 10
3902.9644728028201826
 20
70.8202867560155909
 30
0.0
 11
3905.0419005844191815
 21
70.8202867560155909
 31
0.0
  0
LINE
  5
7E31
  8
0
 10
3903.0189347450191235
 20
70.8202867560155909
 30
0.0
 11
3903.0189347450191235
 21
70.8793418741155961
 31
0.0
  0
ARC
  5
7E32
  8
0
 10
3873.4387875239021923
 20
75.0846973592195752
 30
0.0
 40
29.8775856517733516
 50
351.9085869400403226
 51
0.6894133710561271
  0
LINE
  5
7E33
  8
0
 10
3905.0779898631190008
 20
70.6706804568155746
 30
0.0
 11
3905.0779898631190008
 21
70.7218615590155935
 31
0.0
  0
ARC
  5
7E34
  8
0
 10
3904.861780493436072
 20
70.721929814807666
 30
0.0
 40
0.2162093804570586
 50
359.9819121220814964
 51
23.882040357070629
  0
ARC
  5
7E35
  8
0
 10
3905.0419005715189087
 20
70.8006017166155743
 30
0.0
 40
0.0196850394000118
 50
26.7543648232220299
 51
89.9999624529016131
  0
LINE
  5
7E36
  8
0
 10
3904.9874386820188192
 20
70.8202867560155909
 30
0.0
 11
3904.9874386820188192
 21
70.8793418741155676
 31
0.0
  0
ARC
  5
7E37
  8
0
 10
3934.5675858846389019
 20
75.0846973573686398
 30
0.0
 40
29.8775856332001588
 50
179.3105866249663052
 51
188.0914130614384021
  0
LINE
  5
7E38
  8
0
 10
3904.6921630915198875
 20
75.4441917266155571
 30
0.0
 11
3904.6921630915198875
 21
81.4905823986156008
 31
0.0
  0
ARC
  5
7E39
  8
0
 10
3903.9838043573149662
 20
81.5670460233273644
 30
0.0
 40
0.6207947745734665
 50
356.7171583809408162
 51
25.3911001426815091
  0
ARC
  5
7E3A
  8
0
 10
3904.0216594251191964
 20
81.5719383710416537
 30
0.0
 40
0.6189490267712348
 50
172.332524139487191
 51
180.8465653805018007
  0
ARC
  5
7E3B
  8
0
 10
3898.1991391864307843
 20
79.1195368830813237
 30
0.0
 40
2.634548904689535
 50
87.9251205052379561
 51
92.113357053636193
  0
ENDSEC
  0
EOF
