  0
SECTION
  2
HEADER
  9
$ACADVER
  1
AC1009
  9
$INSBASE
 10
3488.3652951260810369
 20
201.0723784196887891
 30
0.0
  9
$EXTMIN
 10
3478.0399140668810105
 20
192.4423784196887937
 30
0.0
  9
$EXTMAX
 10
3498.6906761852810632
 20
201.0723784196887891
 30
0.0
  9
$LIMMIN
 10
0.0
 20
0.0
  9
$LIMMAX
 10
11.6929133858000007
 20
8.2677165353999982
  9
$ORTHOMODE
 70
     0
  9
$REGENMODE
 70
     1
  9
$FILLMODE
 70
     1
  9
$QTEXTMODE
 70
     0
  9
$MIRRTEXT
 70
     0
  9
$DRAGMODE
 70
     2
  9
$LTSCALE
 40
0.6431102362
  9
$OSMODE
 70
  3839
  9
$ATTMODE
 70
     1
  9
$TEXTSIZE
 40
0.2
  9
$TRACEWID
 40
0.05
  9
$TEXTSTYLE
  7
STANDARD
  9
$CLAYER
  8
0
  9
$CELTYPE
  6
BYLAYER
  9
$CECOLOR
 62
   256
  9
$DIMSCALE
 40
1.0
  9
$DIMASZ
 40
0.1875
  9
$DIMEXO
 40
0.0625
  9
$DIMDLI
 40
0.4443307087
  9
$DIMRND
 40
0.0
  9
$DIMDLE
 40
0.0
  9
$DIMEXE
 40
0.125
  9
$DIMTP
 40
0.01
  9
$DIMTM
 40
0.01
  9
$DIMTXT
 40
2.0
  9
$DIMCEN
 40
0.1052362205
  9
$DIMTSZ
 40
0.0
  9
$DIMTOL
 70
     1
  9
$DIMLIM
 70
     0
  9
$DIMTIH
 70
     1
  9
$DIMTOH
 70
     1
  9
$DIMSE1
 70
     0
  9
$DIMSE2
 70
     0
  9
$DIMTAD
 70
     0
  9
$DIMZIN
 70
     0
  9
$DIMBLK
  1

  9
$DIMASO
 70
     1
  9
$DIMSHO
 70
     1
  9
$DIMPOST
  1
\X
  9
$DIMAPOST
  1

  9
$DIMALT
 70
     1
  9
$DIMALTD
 70
     2
  9
$DIMALTF
 40
25.3999999999999986
  9
$DIMLFAC
 40
1.0
  9
$DIMTOFL
 70
     0
  9
$DIMTVP
 40
0.0
  9
$DIMTIX
 70
     0
  9
$DIMSOXD
 70
     0
  9
$DIMSAH
 70
     0
  9
$DIMBLK1
  1

  9
$DIMBLK2
  1

  9
$DIMSTYLE
  2
STANDARD
  9
$DIMCLRD
 70
     0
  9
$DIMCLRE
 70
     0
  9
$DIMCLRT
 70
     0
  9
$DIMTFAC
 40
1.0
  9
$DIMGAP
 40
0.09
  9
$LUNITS
 70
     2
  9
$LUPREC
 70
     4
  9
$SKETCHINC
 40
0.1
  9
$FILLETRAD
 40
0.0
  9
$AUNITS
 70
     0
  9
$AUPREC
 70
     0
  9
$MENU
  1
.
  9
$ELEVATION
 40
0.0
  9
$PELEVATION
 40
0.0
  9
$THICKNESS
 40
0.0
  9
$LIMCHECK
 70
     0
  9
$BLIPMODE
 70
     0
  9
$CHAMFERA
 40
0.0
  9
$CHAMFERB
 40
0.0
  9
$SKPOLY
 70
     0
  9
$TDCREATE
 40
2458060.468368056230247
  9
$TDUPDATE
 40
2459016.6886574071832001
  9
$TDINDWG
 40
0.4969978009
  9
$TDUSRTIMER
 40
0.4969978009
  9
$USRTIMER
 70
     1
  9
$ANGBASE
 50
0.0
  9
$ANGDIR
 70
     0
  9
$PDMODE
 70
     0
  9
$PDSIZE
 40
0.3125
  9
$PLINEWID
 40
0.0
  9
$COORDS
 70
     1
  9
$SPLFRAME
 70
     0
  9
$SPLINETYPE
 70
     6
  9
$SPLINESEGS
 70
     8
  9
$ATTDIA
 70
     1
  9
$ATTREQ
 70
     1
  9
$HANDLING
 70
     1
  9
$HANDSEED
  5
8AE1
  9
$SURFTAB1
 70
     6
  9
$SURFTAB2
 70
     6
  9
$SURFTYPE
 70
     6
  9
$SURFU
 70
     6
  9
$SURFV
 70
     6
  9
$UCSNAME
  2

  9
$UCSORG
 10
0.0
 20
0.0
 30
0.0
  9
$UCSXDIR
 10
1.0
 20
0.0
 30
0.0
  9
$UCSYDIR
 10
0.0
 20
1.0
 30
0.0
  9
$PUCSNAME
  2

  9
$PUCSORG
 10
0.0
 20
0.0
 30
0.0
  9
$PUCSXDIR
 10
1.0
 20
0.0
 30
0.0
  9
$PUCSYDIR
 10
0.0
 20
1.0
 30
0.0
  9
$USERI1
 70
     0
  9
$USERI2
 70
     0
  9
$USERI3
 70
     0
  9
$USERI4
 70
     0
  9
$USERI5
 70
     0
  9
$USERR1
 40
0.0
  9
$USERR2
 40
0.0
  9
$USERR3
 40
0.0
  9
$USERR4
 40
0.0
  9
$USERR5
 40
0.0
  9
$WORLDVIEW
 70
     1
  9
$SHADEDGE
 70
     3
  9
$SHADEDIF
 70
    70
  9
$TILEMODE
 70
     1
  9
$MAXACTVP
 70
    64
  9
$PLIMCHECK
 70
     0
  9
$PEXTMIN
 10
1.0000000000000000E+20
 20
1.0000000000000000E+20
 30
1.0000000000000000E+20
  9
$PEXTMAX
 10
-1.0000000000000000E+20
 20
-1.0000000000000000E+20
 30
-1.0000000000000000E+20
  9
$PLIMMIN
 10
0.0
 20
0.0
  9
$PLIMMAX
 10
12.0
 20
9.0
  9
$UNITMODE
 70
     0
  9
$VISRETAIN
 70
     1
  9
$PLINEGEN
 70
     0
  9
$PSLTSCALE
 70
     1
  0
ENDSEC
  0
SECTION
  2
TABLES
  0
TABLE
  2
VPORT
 70
     1
  0
VPORT
  2
*ACTIVE
 70
     0
 10
0.0
 20
0.0
 11
1.0
 21
1.0
 12
185.0040047837815109
 22
2.1473990462181738
 13
0.0
 23
0.0
 14
1.0
 24
1.0
 15
0.0
 25
0.0
 16
0.0
 26
0.0
 36
96.5995694866707311
 17
3303.693115234375
 27
195.2615115758877096
 37
0.0
 40
16.1174148878456087
 41
2.3528591352859132
 42
50.0
 43
0.0
 44
0.0
 50
0.0
 51
0.0
 71
     0
 72
   100
 73
     1
 74
     1
 75
     0
 76
     0
 77
     0
 78
     0
  0
ENDTAB
  0
TABLE
  2
LTYPE
 70
     2
  0
LTYPE
  2
CONTINUOUS
 70
     0
  3
Solid line
 72
    65
 73
     0
 40
0.0
  0
LTYPE
  2
PHANTOM2
 70
     0
  3
___ _ _ ___ _ _ ___ _ _ ___ _ _
 72
    65
 73
     6
 40
1.25
 49
0.625
 49
-0.125
 49
0.125
 49
-0.125
 49
0.125
 49
-0.125
  0
ENDTAB
  0
TABLE
  2
LAYER
 70
     2
  0
LAYER
  2
0
 70
     0
 62
   255
  6
CONTINUOUS
  0
LAYER
  2
DEFPOINTS
 70
     0
 62
     7
  6
CONTINUOUS
  0
ENDTAB
  0
TABLE
  2
STYLE
 70
     1
  0
STYLE
  2
STANDARD
 70
     0
 40
0.0
 41
0.8
 50
0.0
 71
     0
 42
0.2
  3
txt
  4

  0
ENDTAB
  0
TABLE
  2
VIEW
 70
     0
  0
ENDTAB
  0
TABLE
  2
UCS
 70
     0
  0
ENDTAB
  0
TABLE
  2
APPID
 70
     9
  0
APPID
  2
ACAD
 70
     0
  0
APPID
  2
ACAD_MLEADERVER
 70
     0
  0
APPID
  2
ACAD_EXEMPT_FROM_CAD_STANDARDS
 70
     0
  0
APPID
  2
ACAD_NAV_VCDISPLAY
 70
     0
  0
APPID
  2
ACAECLAYERSTANDARD
 70
     0
  0
APPID
  2
ACCMTRANSPARENCY
 70
     0
  0
APPID
  2
ACAD_DSTYLE_DIMJAG
 70
     0
  0
APPID
  2
ACAD_DSTYLE_DIMTALN
 70
     0
  0
APPID
  2
ACDBATTR
 70
     0
  0
ENDTAB
  0
TABLE
  2
DIMSTYLE
 70
     1
  0
DIMSTYLE
  2
STANDARD
 70
     0
  3

  4

  5

  6

  7

 40
1.0
 41
0.1875
 42
0.0625
 43
0.38
 44
0.125
 45
0.0
 46
0.0
 47
0.01
 48
0.01
140
0.15625
141
0.09
142
0.0
143
25.3999999999999986
144
1.0
145
0.0
146
1.0
147
0.09
 71
     1
 72
     0
 73
     1
 74
     1
 75
     0
 76
     0
 77
     0
 78
     4
170
     0
171
     2
172
     0
173
     0
174
     0
175
     0
176
     0
177
     0
178
     0
  0
ENDTAB
  0
ENDSEC
  0
SECTION
  2
BLOCKS
  0
BLOCK
  8
0
  2
$MODEL_SPACE
 70
     0
 10
0.0
 20
0.0
 30
0.0
  3
$MODEL_SPACE
  1

  0
ENDBLK
  5
21
  8
0
  0
BLOCK
 67
     1
  8
0
  2
$PAPER_SPACE
 70
     0
 10
0.0
 20
0.0
 30
0.0
  3
$PAPER_SPACE
  1

  0
ENDBLK
  5
1D
 67
     1
  8
0
  0
BLOCK
  8
0
  2
_FILLED
 70
     0
 10
0.0
 20
0.0
 30
0.0
  3
_FILLED
  1

  0
SOLID
  5
6F59
  8
0
  6
BYBLOCK
 62
     0
 10
0.0
 20
0.0
 30
0.0
 11
-1.0
 21
0.1666666667
 31
0.0
 12
-1.0
 22
-0.1666666667
 32
0.0
 13
-1.0
 23
-0.1666666667
 33
0.0
  0
ENDBLK
  5
6F5A
  8
0
  6
BYBLOCK
 62
     0
  0
ENDSEC
  0
SECTION
  2
ENTITIES
  0
ATTDEF
  5
3930
  8
DEFPOINTS
 10
3488.3659803825671588
 20
201.0707527315150003
 30
0.0
 40
0.001
  1
K-2339T
  3

  2
MODELNUMBER
 70
     0
1001
ACDBATTR
1070
     0
1070
     1
  0
ATTDEF
  5
3931
  8
DEFPOINTS
 10
3488.3659803825671588
 20
201.0690860648483067
 30
0.0
 40
0.001
  1
MEMOIRS
  3

  2
TRADENAME
 70
     0
1001
ACDBATTR
1070
     0
1070
     1
  0
ATTDEF
  5
3932
  8
DEFPOINTS
 10
3488.3659803825671588
 20
201.0674193981816984
 30
0.0
 40
0.001
  1
BATHROOM SINK
  3

  2
PRODUCT
 70
     0
1001
ACDBATTR
1070
     0
1070
     1
  0
ARC
  5
899B
  8
0
 10
3487.139418178780943
 20
192.5723784196887891
 30
0.0
 40
0.1299999999999999
 50
185.0000000189374134
 51
270.0
  0
LINE
  5
899C
  8
0
 10
3487.0099128680330978
 20
192.5610481730888068
 30
0.0
 11
3486.9107627631228752
 21
193.6943390537136906
 31
0.0
  0
ARC
  5
899D
  8
0
 10
3486.6617098761357738
 20
193.6725497494010142
 30
0.0
 40
0.2500042285618996
 50
5.0000000189373921
 51
79.9695470045869001
  0
ARC
  5
899E
  8
0
 10
3487.6380204036149735
 20
204.7865573765498084
 30
0.0
 40
10.9077800832398406
 50
251.4904480511212057
 51
265.0944228093194965
  0
ARC
  5
899F
  8
0
 10
3486.0387677127009738
 20
199.9305311106753038
 30
0.0
 40
5.7953035715100754
 50
212.357392616151003
 51
251.2424628388210976
  0
ARC
  5
89A0
  8
0
 10
3487.5744870834619178
 20
201.1256247681901925
 30
0.0
 40
7.7344542949006261
 50
198.629669521178613
 51
213.7473311096094903
  0
ARC
  5
89A1
  8
0
 10
3479.7225579308960732
 20
198.465053596918608
 30
0.0
 40
0.5561266868439684
 50
19.95536473144778
 51
47.3343505132356484
  0
ARC
  5
89A2
  8
0
 10
3480.3731526751539604
 20
199.2922905328404966
 30
0.0
 40
0.4998936637554888
 50
182.8278104273732083
 51
248.4656199411982982
  0
ARC
  5
89A3
  8
0
 10
3479.0744430477079732
 20
199.3532906961862068
 30
0.0
 40
0.8040011389345026
 50
353.8838192417732103
 51
53.7280094644658988
  0
ARC
  5
89A4
  8
0
 10
3480.2917892115638097
 20
201.2389478252945025
 30
0.0
 40
1.4427041316904361
 50
211.9322790931495035
 51
239.0631685404896984
  0
ARC
  5
89A5
  8
0
 10
3478.8695502553109691
 20
200.3217369886411916
 30
0.0
 40
0.2508096051735805
 50
37.9208844584846929
 51
87.9016911722744538
  0
ARC
  5
89A6
  8
0
 10
3480.2885193737329246
 20
199.0971971374958116
 30
0.0
 40
0.2874408923247163
 50
249.8839642759249955
 51
287.1379783267877883
  0
ARC
  5
89A7
  8
0
 10
3480.911297454625128
 20
195.5249441518685103
 30
0.0
 40
3.3411866121942131
 50
90.4189831507103037
 51
99.2674767039821262
  0
ARC
  5
89A8
  8
0
 10
3486.2462829156288535
 20
198.5924745007012859
 30
0.0
 40
0.2736995742968165
 50
20.7612714810506489
 51
88.2161291700187462
  0
ARC
  5
89A9
  8
0
 10
3486.2462829156288535
 20
198.5924745007012859
 30
0.0
 40
0.2736995742968165
 50
91.7838708299812822
 51
91.7888771288111087
  0
ARC
  5
89AA
  8
0
 10
3488.3612733079207828
 20
176.5202181469294942
 30
0.0
 40
16.3165776151424815
 50
89.9858773565004952
 51
92.4414762157597352
  0
ARC
  5
89AB
  8
0
 10
3487.6420521609820753
 20
193.3884807128501109
 30
0.0
 40
0.567010897110554
 50
242.7067237703678018
 51
272.4413524882946831
  0
ARC
  5
89AC
  8
0
 10
3487.5681206148829006
 20
193.245199713261286
 30
0.0
 40
0.4057802599727798
 50
200.9072778417705933
 51
242.7067237703678018
  0
ARC
  5
89AD
  8
0
 10
3474.3374234599118608
 20
192.7970095020396002
 30
0.0
 40
12.8552142713275597
 50
1.352313818064909
 51
8.7575691608301458
  0
ARC
  5
89AE
  8
0
 10
3493.7667822367770896
 20
195.6263581814083068
 30
0.0
 40
7.0460598303902424
 50
195.6326513553132997
 51
201.0076811647383863
  0
ARC
  5
89AF
  8
0
 10
3486.7277468220031551
 20
193.6562034497536899
 30
0.0
 40
0.2634911364965482
 50
15.7365108021325
 51
94.8970998127007164
  0
ARC
  5
89B0
  8
0
 10
2541.1791963089708588
 20
66.8324917462049655
 30
0.0
 40
954.4746561282114499
 50
7.7021417305996831
 51
8.0410088411086509
  0
ARC
  5
89B1
  8
0
 10
3486.0212589250900237
 20
200.3228965712316949
 30
0.0
 40
0.2494800554390727
 50
5.3509193170392813
 51
89.9636833059595347
  0
ARC
  5
89B2
  8
0
 10
3478.1782950515807897
 20
200.702378419730195
 30
0.0
 40
0.1300000000413668
 50
182.0000032054913106
 51
270.0
  0
LINE
  5
89B3
  8
0
 10
3478.048374244281149
 20
200.6978414778888862
 30
0.0
 11
3478.0399140668810105
 21
200.9423784196889073
 31
0.0
  0
ARC
  5
89B4
  8
0
 10
3478.1699140668811197
 20
200.9423784196889073
 30
0.0
 40
0.1300000000000008
 50
90.0
 51
180.0
  0
LINE
  5
89B5
  8
0
 10
3478.1699140668811197
 20
201.0723784196887891
 30
0.0
 11
3498.5606761852809541
 21
201.0723784196887891
 31
0.0
  0
LINE
  5
89B6
  8
0
 10
3478.1782950515807897
 20
200.5723784196887891
 30
0.0
 11
3498.5522952005808293
 21
200.5723784196887891
 31
0.0
  0
LINE
  5
89B7
  8
0
 10
3487.139418178780943
 20
192.4423784196887937
 30
0.0
 11
3489.5911720733811308
 21
192.4423784196887937
 31
0.0
  0
ARC
  5
89B8
  8
0
 10
3489.5911720733811308
 20
192.5723784196887891
 30
0.0
 40
0.1299999999999999
 50
270.0
 51
354.999999981062615
  0
LINE
  5
89B9
  8
0
 10
3489.720677384128976
 20
192.5610481730888068
 30
0.0
 11
3489.8198274890378343
 21
193.6943390537136906
 31
0.0
  0
ARC
  5
89BA
  8
0
 10
3490.0688803760249357
 20
193.6725497494010142
 30
0.0
 40
0.2500042285618996
 50
100.0304529954130999
 51
174.9999999810625866
  0
ARC
  5
89BB
  8
0
 10
3489.0925698485461908
 20
204.7865573765498084
 30
0.0
 40
10.9077800832398406
 50
274.9055771906805035
 51
288.5095519488788227
  0
ARC
  5
89BC
  8
0
 10
3490.6918225394601905
 20
199.9305311106753038
 30
0.0
 40
5.7953035715100754
 50
288.757537161179016
 51
327.642607383848997
  0
ARC
  5
89BD
  8
0
 10
3489.1561031687001559
 20
201.1256247681901925
 30
0.0
 40
7.7344542949006261
 50
326.2526688903905097
 51
341.3703304788214155
  0
ARC
  5
89BE
  8
0
 10
3497.0080323212660005
 20
198.465053596918608
 30
0.0
 40
0.5561266868439684
 50
132.6656494867642948
 51
160.0446352685522129
  0
ARC
  5
89BF
  8
0
 10
3496.3574375770081133
 20
199.2922905328404966
 30
0.0
 40
0.4998936637554888
 50
291.5343800588016734
 51
357.172189572626678
  0
ARC
  5
89C0
  8
0
 10
3497.6561472044531911
 20
199.3532906961862068
 30
0.0
 40
0.8040011389345026
 50
126.2719905355341012
 51
186.1161807582267045
  0
ARC
  5
89C1
  8
0
 10
3496.4388010405991736
 20
201.2389478252945025
 30
0.0
 40
1.4427041316904361
 50
300.9368314595103016
 51
328.0677209068505249
  0
ARC
  5
89C2
  8
0
 10
3497.8610399968511047
 20
200.3217369886411916
 30
0.0
 40
0.2508096051735737
 50
92.0983088277255462
 51
142.0791155415153071
  0
ARC
  5
89C3
  8
0
 10
3496.4420708784277849
 20
199.0971971374958116
 30
0.0
 40
0.2874408923247163
 50
252.8620216732122117
 51
290.1160357240750045
  0
ARC
  5
89C4
  8
0
 10
3495.8192927975369457
 20
195.5249441518685103
 30
0.0
 40
3.3411866121942131
 50
80.732523296017888
 51
89.5810168492896963
  0
ARC
  5
89C5
  8
0
 10
3490.4843073365332202
 20
198.5924745007012859
 30
0.0
 40
0.2736995742968165
 50
88.2111228711889055
 51
88.2161291700187462
  0
ARC
  5
89C6
  8
0
 10
3490.4843073365332202
 20
198.5924745007012859
 30
0.0
 40
0.2736995742968165
 50
91.7838708299812822
 51
159.2387285189493014
  0
ARC
  5
89C7
  8
0
 10
3488.3693169442071849
 20
176.5202181453362016
 30
0.0
 40
16.3165776167358807
 50
87.558523784370621
 51
90.0141226433952824
  0
ARC
  5
89C8
  8
0
 10
3489.088538091179089
 20
193.3884807128501109
 30
0.0
 40
0.567010897110554
 50
267.5586475117053169
 51
297.2932762296322267
  0
ARC
  5
89C9
  8
0
 10
3489.1624696372791732
 20
193.245199713261286
 30
0.0
 40
0.4057802599727798
 50
297.2932762296322267
 51
339.0927221582293782
  0
ARC
  5
89CA
  8
0
 10
3502.3931667922511224
 20
192.7970095020396002
 30
0.0
 40
12.8552142713275597
 50
171.2424308391697991
 51
178.6476861819350859
  0
ARC
  5
89CB
  8
0
 10
3482.9638080153840747
 20
195.6263581814083068
 30
0.0
 40
7.0460598303902424
 50
338.9923188352615853
 51
344.3673486446866718
  0
ARC
  5
89CC
  8
0
 10
3490.0028434301580091
 20
193.6562034497536899
 30
0.0
 40
0.2634911364965482
 50
85.1029001872992694
 51
164.2634891978675
  0
ARC
  5
89CD
  8
0
 10
4435.5513939431903054
 20
66.8324917462049655
 30
0.0
 40
954.4746561282114499
 50
171.9589911588913083
 51
172.297858269400308
  0
ARC
  5
89CE
  8
0
 10
3490.7093313270711405
 20
200.3228965712316949
 30
0.0
 40
0.2494800554390727
 50
90.0363166940404653
 51
174.6490806829606868
  0
ARC
  5
89CF
  8
0
 10
3498.5522952005808293
 20
200.702378419730195
 30
0.0
 40
0.1300000000413668
 50
270.0
 51
357.9999967945086041
  0
LINE
  5
89D0
  8
0
 10
3498.6822160078809247
 20
200.6978414778888862
 30
0.0
 11
3498.6906761852810632
 21
200.9423784196889073
 31
0.0
  0
ARC
  5
89D1
  8
0
 10
3498.5606761852809541
 20
200.9423784196889073
 30
0.0
 40
0.1300000000000008
 50
0.0
 51
90.0
  0
LINE
  5
89D3
  8
0
 10
3480.8868647925810365
 20
198.8660414300888135
 30
0.0
 11
3486.2548030163161457
 21
198.8660414300888135
 31
0.0
  0
LINE
  5
89D4
  8
0
 10
3490.4757872358450186
 20
198.8660414300888135
 30
0.0
 11
3495.8437254595810373
 21
198.8660414300888135
 31
0.0
  0
ENDSEC
  0
EOF
