  0
SECTION
  2
HEADER
  9
$ACADVER
  1
AC1009
  9
$INSBASE
 10
3671.5230846839917831
 20
-24.5848009907565412
 30
0.0
  9
$EXTMIN
 10
3666.1057288124188744
 20
-24.585129809977591
 30
-0.0000000000112498
  9
$EXTMAX
 10
3673.3921993348631077
 20
-18.4740682708691892
 30
0.0000000000002956
  9
$LIMMIN
 10
0.0
 20
0.0
  9
$LIMMAX
 10
11.6929133858000007
 20
8.2677165353999982
  9
$ORTHOMODE
 70
     1
  9
$REGENMODE
 70
     1
  9
$FILLMODE
 70
     1
  9
$QTEXTMODE
 70
     0
  9
$MIRRTEXT
 70
     0
  9
$DRAGMODE
 70
     2
  9
$LTSCALE
 40
0.6431102362
  9
$OSMODE
 70
  4095
  9
$ATTMODE
 70
     1
  9
$TEXTSIZE
 40
0.2
  9
$TRACEWID
 40
0.05
  9
$TEXTSTYLE
  7
STANDARD
  9
$CLAYER
  8
0
  9
$CELTYPE
  6
BYLAYER
  9
$CECOLOR
 62
   256
  9
$DIMSCALE
 40
1.0
  9
$DIMASZ
 40
0.1875
  9
$DIMEXO
 40
0.0625
  9
$DIMDLI
 40
0.4443307087
  9
$DIMRND
 40
0.0
  9
$DIMDLE
 40
0.0
  9
$DIMEXE
 40
0.125
  9
$DIMTP
 40
0.01
  9
$DIMTM
 40
0.01
  9
$DIMTXT
 40
2.0
  9
$DIMCEN
 40
0.1052362205
  9
$DIMTSZ
 40
0.0
  9
$DIMTOL
 70
     1
  9
$DIMLIM
 70
     0
  9
$DIMTIH
 70
     1
  9
$DIMTOH
 70
     1
  9
$DIMSE1
 70
     0
  9
$DIMSE2
 70
     0
  9
$DIMTAD
 70
     0
  9
$DIMZIN
 70
     0
  9
$DIMBLK
  1

  9
$DIMASO
 70
     1
  9
$DIMSHO
 70
     1
  9
$DIMPOST
  1
\X
  9
$DIMAPOST
  1

  9
$DIMALT
 70
     1
  9
$DIMALTD
 70
     2
  9
$DIMALTF
 40
25.3999999999999986
  9
$DIMLFAC
 40
1.0
  9
$DIMTOFL
 70
     0
  9
$DIMTVP
 40
0.0
  9
$DIMTIX
 70
     0
  9
$DIMSOXD
 70
     0
  9
$DIMSAH
 70
     0
  9
$DIMBLK1
  1

  9
$DIMBLK2
  1

  9
$DIMSTYLE
  2
STANDARD
  9
$DIMCLRD
 70
     0
  9
$DIMCLRE
 70
     0
  9
$DIMCLRT
 70
     0
  9
$DIMTFAC
 40
1.0
  9
$DIMGAP
 40
0.09
  9
$LUNITS
 70
     2
  9
$LUPREC
 70
     4
  9
$SKETCHINC
 40
0.1
  9
$FILLETRAD
 40
0.0
  9
$AUNITS
 70
     0
  9
$AUPREC
 70
     0
  9
$MENU
  1
.
  9
$ELEVATION
 40
0.0
  9
$PELEVATION
 40
0.0
  9
$THICKNESS
 40
0.0
  9
$LIMCHECK
 70
     0
  9
$BLIPMODE
 70
     0
  9
$CHAMFERA
 40
0.0
  9
$CHAMFERB
 40
0.0
  9
$SKPOLY
 70
     0
  9
$TDCREATE
 40
2458060.468368056230247
  9
$TDUPDATE
 40
2459856.3686574068851769
  9
$TDINDWG
 40
0.4858172454
  9
$TDUSRTIMER
 40
0.4858172454
  9
$USRTIMER
 70
     1
  9
$ANGBASE
 50
0.0
  9
$ANGDIR
 70
     0
  9
$PDMODE
 70
     0
  9
$PDSIZE
 40
0.3125
  9
$PLINEWID
 40
0.0
  9
$COORDS
 70
     1
  9
$SPLFRAME
 70
     0
  9
$SPLINETYPE
 70
     6
  9
$SPLINESEGS
 70
     8
  9
$ATTDIA
 70
     1
  9
$ATTREQ
 70
     1
  9
$HANDLING
 70
     1
  9
$HANDSEED
  5
107DA
  9
$SURFTAB1
 70
     6
  9
$SURFTAB2
 70
     6
  9
$SURFTYPE
 70
     6
  9
$SURFU
 70
     6
  9
$SURFV
 70
     6
  9
$UCSNAME
  2

  9
$UCSORG
 10
0.0
 20
0.0
 30
0.0
  9
$UCSXDIR
 10
1.0
 20
0.0
 30
0.0
  9
$UCSYDIR
 10
0.0
 20
1.0
 30
0.0
  9
$PUCSNAME
  2

  9
$PUCSORG
 10
0.0
 20
0.0
 30
0.0
  9
$PUCSXDIR
 10
1.0
 20
0.0
 30
0.0
  9
$PUCSYDIR
 10
0.0
 20
1.0
 30
0.0
  9
$USERI1
 70
     0
  9
$USERI2
 70
     0
  9
$USERI3
 70
     0
  9
$USERI4
 70
     0
  9
$USERI5
 70
     0
  9
$USERR1
 40
0.0
  9
$USERR2
 40
0.0
  9
$USERR3
 40
0.0
  9
$USERR4
 40
0.0
  9
$USERR5
 40
0.0
  9
$WORLDVIEW
 70
     1
  9
$SHADEDGE
 70
     3
  9
$SHADEDIF
 70
    70
  9
$TILEMODE
 70
     1
  9
$MAXACTVP
 70
    64
  9
$PLIMCHECK
 70
     0
  9
$PEXTMIN
 10
1.0000000000000000E+20
 20
1.0000000000000000E+20
 30
1.0000000000000000E+20
  9
$PEXTMAX
 10
-1.0000000000000000E+20
 20
-1.0000000000000000E+20
 30
-1.0000000000000000E+20
  9
$PLIMMIN
 10
0.0
 20
0.0
  9
$PLIMMAX
 10
12.0
 20
9.0
  9
$UNITMODE
 70
     0
  9
$VISRETAIN
 70
     1
  9
$PLINEGEN
 70
     0
  9
$PSLTSCALE
 70
     1
  0
ENDSEC
  0
SECTION
  2
TABLES
  0
TABLE
  2
VPORT
 70
     1
  0
VPORT
  2
*ACTIVE
 70
     0
 10
0.0
 20
0.0
 11
1.0
 21
1.0
 12
-159.57879471542131
 22
-112.4226425584897981
 13
0.0
 23
0.0
 14
1.0
 24
1.0
 15
0.0
 25
0.0
 16
0.0
 26
0.0
 36
327.1425206445442768
 17
3829.3277587890629547
 27
90.8930435180664063
 37
0.0
 40
6.1548161563335091
 41
2.2831541218637992
 42
50.0
 43
0.0
 44
0.0
 50
0.0
 51
0.0
 71
     0
 72
   100
 73
     1
 74
     1
 75
     0
 76
     0
 77
     0
 78
     1
  0
ENDTAB
  0
TABLE
  2
LTYPE
 70
     2
  0
LTYPE
  2
CONTINUOUS
 70
     0
  3
Solid line
 72
    65
 73
     0
 40
0.0
  0
LTYPE
  2
PHANTOM2
 70
     0
  3
___ _ _ ___ _ _ ___ _ _ ___ _ _
 72
    65
 73
     6
 40
1.25
 49
0.625
 49
-0.125
 49
0.125
 49
-0.125
 49
0.125
 49
-0.125
  0
ENDTAB
  0
TABLE
  2
LAYER
 70
     2
  0
LAYER
  2
0
 70
     0
 62
   255
  6
CONTINUOUS
  0
LAYER
  2
DEFPOINTS
 70
     0
 62
     7
  6
CONTINUOUS
  0
ENDTAB
  0
TABLE
  2
STYLE
 70
     1
  0
STYLE
  2
STANDARD
 70
     0
 40
0.0
 41
0.8
 50
0.0
 71
     0
 42
0.2
  3
txt
  4

  0
ENDTAB
  0
TABLE
  2
VIEW
 70
     0
  0
ENDTAB
  0
TABLE
  2
UCS
 70
     0
  0
ENDTAB
  0
TABLE
  2
APPID
 70
    10
  0
APPID
  2
ACAD
 70
     0
  0
APPID
  2
ACAD_MLEADERVER
 70
     0
  0
APPID
  2
ACAD_EXEMPT_FROM_CAD_STANDARDS
 70
     0
  0
APPID
  2
ACAD_NAV_VCDISPLAY
 70
     0
  0
APPID
  2
ACAECLAYERSTANDARD
 70
     0
  0
APPID
  2
ACCMTRANSPARENCY
 70
     0
  0
APPID
  2
ACAD_DSTYLE_DIMJAG
 70
     0
  0
APPID
  2
ACAD_DSTYLE_DIMTALN
 70
     0
  0
APPID
  2
ACDBATTR
 70
     0
  0
APPID
  2
ACAD_DSTYLE_DIMRADIAL_EXTENSION
 70
     0
  0
ENDTAB
  0
TABLE
  2
DIMSTYLE
 70
     1
  0
DIMSTYLE
  2
STANDARD
 70
     0
  3

  4

  5

  6

  7

 40
1.0
 41
0.1875
 42
0.0625
 43
0.38
 44
0.125
 45
0.0
 46
0.0
 47
0.01
 48
0.01
140
0.15625
141
0.09
142
0.0
143
25.3999999999999986
144
1.0
145
0.0
146
1.0
147
0.09
 71
     1
 72
     0
 73
     1
 74
     1
 75
     0
 76
     0
 77
     0
 78
     4
170
     0
171
     2
172
     0
173
     0
174
     0
175
     0
176
     0
177
     0
178
     0
  0
ENDTAB
  0
ENDSEC
  0
SECTION
  2
BLOCKS
  0
BLOCK
  8
0
  2
$MODEL_SPACE
 70
     0
 10
0.0
 20
0.0
 30
0.0
  3
$MODEL_SPACE
  1

  0
ENDBLK
  5
21
  8
0
  0
BLOCK
 67
     1
  8
0
  2
$PAPER_SPACE
 70
     0
 10
0.0
 20
0.0
 30
0.0
  3
$PAPER_SPACE
  1

  0
ENDBLK
  5
1D
 67
     1
  8
0
  0
ENDSEC
  0
SECTION
  2
ENTITIES
  0
LINE
  5
FFFE
  8
0
 10
3666.3656043689920807
 20
-20.3407065025565288
 30
0.0
 11
3666.3656043689920807
 21
-19.8525175261565501
 31
0.0
  0
LINE
  5
FFFF
  8
0
 10
3670.5585191181908158
 20
-24.5848009907565412
 30
0.0
 11
3672.4876502497918409
 21
-24.5848009907565412
 31
0.0
  0
LINE
  5
10000
  8
0
 10
3667.7360157635921496
 20
-18.6193882224565215
 30
0.0
 11
3667.7465315945919428
 21
-18.5101771421565289
 31
0.0
  0
LINE
  5
10001
  8
0
 10
3671.5269071296920629
 20
-19.7327211755565308
 30
0.0
 11
3672.2630147313921043
 21
-19.4049849557565217
 31
0.0
  0
LINE
  5
10002
  8
0
 10
3672.5246193323919215
 20
-22.7730882480565384
 30
0.0
 11
3672.864959177792116
 21
-22.9281900513565411
 31
0.0
  0
LINE
  5
10003
  8
0
 10
3666.5784537278918833
 20
-20.3813867577565411
 30
0.0
 11
3667.6132362862617811
 21
-20.6625309651797515
 31
0.0
  0
LINE
  5
10004
  8
0
 10
3673.1825329783919187
 20
-22.2076034872565202
 30
0.0
 11
3672.8601395780910934
 21
-22.0606803501565416
 31
0.0
  0
LINE
  5
10005
  8
0
 10
3670.5388327154919352
 20
-24.5651159513565283
 30
0.0
 11
3670.5388327154919352
 21
-20.4509427230565386
 31
0.0
  0
LINE
  5
10006
  8
0
 10
3670.546160469662027
 20
-18.850226888183311
 30
0.0
 11
3670.53907934459221
 21
-19.7046515502565391
 31
0.0
  0
LINE
  5
10007
  8
0
 10
3666.3971004319919302
 20
-20.3722025655565204
 30
0.0
 11
3670.9631187317918375
 21
-20.3722025655565204
 31
0.0
  0
LINE
  5
10008
  8
0
 10
3670.9271041259207777
 20
-19.7344230379565388
 30
0.0
 11
3670.9269685702920469
 21
-19.7819949488565285
 31
0.0
  0
LINE
  5
10009
  8
0
 10
3671.2030257292922215
 20
-20.4509427230565386
 30
0.0
 11
3671.2030257292922215
 21
-24.5651159513565283
 31
0.0
  0
LINE
  5
1000A
  8
0
 10
3671.2135342462911467
 20
-19.7046507743565193
 30
0.0
 11
3671.2134411166298378
 21
-18.8209084507600011
 31
0.0
  0
LINE
  5
1000B
  8
0
 10
3666.3971004319919302
 20
-19.82102146315653
 30
0.0
 11
3672.4758392493918109
 21
-19.82102146315653
 31
0.0
  0
LINE
  5
1000C
  8
0
 10
3670.5686095580917936
 20
-19.7344230379565388
 30
0.0
 11
3671.5189004962921899
 21
-19.7344230379565388
 31
0.0
  0
LINE
  5
1000D
  8
0
 10
3672.3430809996921198
 20
-19.3879663450565403
 30
0.0
 11
3672.4774909367920372
 21
-19.3879663450565403
 31
0.0
  0
LINE
  5
1000E
  8
0
 10
3671.8431436385922098
 20
-24.5651159513565283
 30
0.0
 11
3671.8431436385922098
 21
-19.8525175261565501
 31
0.0
  0
LINE
  5
1000F
  8
0
 10
3671.8379715555920484
 20
-18.5136235259565289
 30
0.0
 11
3671.8377260917591229
 21
-19.594335657685761
 31
0.0
  0
LINE
  5
10010
  8
0
 10
3672.2733591045330286
 20
-19.4013305293870104
 30
0.0
 11
3672.2766811125920867
 21
-19.7819949488565285
 31
0.0
  0
LINE
  5
10011
  8
0
 10
3667.7654073836920361
 20
-18.6517458726565515
 30
0.0
 11
3670.7689636494919796
 21
-18.6517458726565515
 31
0.0
  0
LINE
  5
10012
  8
0
 10
3672.5070293664921337
 20
-19.3581346424565304
 30
0.0
 11
3672.4983295944921338
 21
-18.5135448886565399
 31
0.0
  0
LINE
  5
10013
  8
0
 10
3672.5073366524920857
 20
-24.5651159513565283
 30
0.0
 11
3672.5073366524920857
 21
-19.8525175261565501
 31
0.0
  0
LINE
  5
10014
  8
0
 10
3672.4589582107919341
 20
-18.474580518356511
 30
0.0
 11
3667.7857204212909892
 21
-18.474580518356511
 31
0.0
  0
LINE
  5
10015
  8
0
 10
3672.5099952763921465
 20
-22.7339744336565417
 30
0.0
 11
3672.8079540038920641
 21
-22.08016367795652
 31
0.0
  0
LINE
  5
10016
  8
0
 10
3672.5073366524920857
 20
-23.0483562158710384
 30
0.0
 11
3672.6141824495921355
 21
-22.8139045120565385
 31
0.0
  0
LINE
  5
10017
  8
0
 10
3672.5073366524920857
 20
-23.4755764743611799
 30
0.0
 11
3672.7753960604918575
 21
-22.887373787356541
 31
0.0
  0
LINE
  5
10018
  8
0
 10
3672.9040729920920967
 20
-22.9135659954565192
 30
0.0
 11
3673.2020317195920143
 21
-22.2597552397565295
 31
0.0
  0
ARC
  5
10019
  8
0
 10
3667.6237235142871214
 20
-20.6239301286171788
 30
0.0
 40
0.0400000816870628
 50
254.8005351532160887
 51
318.2946142504122236
  0
ARC
  5
1001A
  8
0
 10
3666.3987507902020297
 20
-20.3390561443466886
 30
0.0
 40
0.0331874813934613
 50
182.8503993673598984
 51
267.1496006326294719
  0
ARC
  5
1001B
  8
0
 10
3667.7857204212909892
 20
-18.5139505970565317
 30
0.0
 40
0.0393700787
 50
90.0
 51
174.4999999999969873
  0
ARC
  5
1001C
  8
0
 10
3666.4006764462319552
 20
-19.8560935403965111
 30
0.0
 40
0.0352539143893353
 50
95.8218647651510764
 51
174.1781352348558016
  0
ARC
  5
1001D
  8
0
 10
3667.7671845533491251
 20
-18.6206040462961795
 30
0.0
 40
0.0311924939857107
 50
177.7661540182662065
 51
266.7338459817329976
  0
ARC
  5
1001E
  8
0
 10
3670.4519555326269256
 20
-20.459079748420681
 30
0.0
 40
0.0872574127749981
 50
5.3507841865836507
 51
84.6492158134253287
  0
ARC
  5
1001F
  8
0
 10
3673.1599640535609979
 20
-22.2457626790325484
 30
0.0
 40
0.0443337374531149
 50
341.6018261775021756
 51
59.3981738225027627
  0
ARC
  5
10020
  8
0
 10
3672.8457815747501627
 20
-22.1018533194718287
 30
0.0
 40
0.0436046518412233
 50
70.7751095775618921
 51
150.1708244437371036
  0
ARC
  5
10021
  8
0
 10
3672.5388924181761467
 20
-22.7454609974878785
 30
0.0
 40
0.0310963977482551
 50
158.3222647558949063
 51
242.677735244115695
  0
ARC
  5
10022
  8
0
 10
3672.8772040569911042
 20
-22.9013211161565202
 30
0.0
 40
0.0295275591
 50
245.5000000000096065
 51
335.4999999999947136
  0
ARC
  5
10023
  8
0
 10
3672.4864285573498819
 20
-24.5638928109582011
 30
0.0
 40
0.0209438419327262
 50
273.3440654155862717
 51
356.6519666659376071
  0
ARC
  5
10024
  8
0
 10
3670.5605214863508081
 20
-24.56311208117571
 30
0.0
 40
0.0217811449893644
 50
185.2786888940800054
 51
264.7252790243713889
  0
ARC
  5
10025
  8
0
 10
3672.3592707219449949
 20
-19.660983393536231
 30
0.0
 40
0.2734966469030577
 50
93.3936260517148753
 51
110.6063739482927986
  0
ARC
  5
10026
  8
0
 10
3670.3376069187961548
 20
-18.860209522595671
 30
0.0
 40
0.2087923288077063
 50
2.740430926287952
 51
86.7846871140020255
  0
ARC
  5
10027
  8
0
 10
3672.4564330339972003
 20
-18.5165055820895184
 30
0.0
 40
0.0420010414972939
 50
4.0421864001520129
 51
86.5531979291962301
  0
ARC
  5
10028
  8
0
 10
3672.316049692291017
 20
-19.7816513844565307
 30
0.0
 40
0.0393700787
 50
180.4999999999994031
 51
270.0
  0
ARC
  5
10029
  8
0
 10
3670.8840595293909246
 20
-19.7780798912031486
 30
0.0
 40
0.04308727733392
 50
274.713281299908374
 51
354.7867187001102138
  0
ARC
  5
1002A
  8
0
 10
3672.4730262919320012
 20
-19.8553319434304996
 30
0.0
 40
0.0344255978350001
 50
4.6893710518975213
 51
85.3130667270946503
  0
ARC
  5
1002B
  8
0
 10
3672.4738237364040288
 20
-19.3547953253299596
 30
0.0
 40
0.0333731165518424
 50
276.3086785526185167
 51
354.2573691246932981
  0
ARC
  5
1002C
  8
0
 10
3670.5720324571161655
 20
-19.7014966876356397
 30
0.0
 40
0.0331037880488563
 50
185.4687114138241952
 51
264.0650652971975205
  0
ARC
  5
1002D
  8
0
 10
3671.5170103966220267
 20
-19.7058457627532704
 30
0.0
 40
0.0286397125474937
 50
273.7840289103706937
 51
290.2159711061225948
  0
ARC
  5
1002E
  8
0
 10
3670.9375539344978279
 20
-20.8549405342584002
 30
0.0
 40
0.483414423954314
 50
56.6906054373368704
 51
86.9685666723329973
  0
ARC
  5
1002F
  8
0
 10
3670.6956852857588274
 20
-19.5128032143754915
 30
0.0
 40
0.8641698122009833
 50
53.1919082183092868
 51
85.1356911598407606
  0
ARC
  5
10030
  8
0
 10
3671.7570286907130139
 20
-18.5183863484615294
 30
0.0
 40
0.0810828702806258
 50
3.3675029196574902
 51
32.7013662994494325
  0
ARC
  5
10031
  8
0
 10
3671.2913812877532109
 20
-19.6966988123304887
 30
0.0
 40
0.0782521281781596
 50
185.832450760609504
 51
208.8217058766938976
  0
ARC
  5
10032
  8
0
 10
3671.7722293136798726
 20
-19.8581641798700907
 30
0.0
 40
0.0711387810959025
 50
4.5526521049614042
 51
31.4743156397402402
  0
ARC
  5
10033
  8
0
 10
3668.5892675127670373
 20
-21.4458258548480813
 30
0.0
 40
1.227996275652778
 50
125.4066200344308015
 51
139.6370676212684998
  0
ARC
  5
10034
  8
0
 10
3668.1690662860019074
 20
-20.9886702251910613
 30
0.0
 40
0.6168361706864138
 50
91.9806128682722886
 51
118.1771461346998962
  0
ARC
  5
10035
  8
0
 10
3666.4984102100679593
 20
-20.7170904233181083
 30
0.0
 40
0.3451143517981686
 50
76.5890787833352391
 51
87.9240912436238773
  0
ARC
  5
10036
  8
0
 10
3671.2656957742528903
 20
-24.5556201996569001
 30
0.0
 40
0.0633853596921419
 50
188.6159076840957027
 51
207.4110598940364127
  0
ARC
  5
10037
  8
0
 10
3671.8059977699749652
 20
-24.5639201486794612
 30
0.0
 40
0.0371651113182556
 50
325.8168658259486961
 51
358.1561665959450238
  0
LINE
  5
10498
  8
0
 10
3666.7415145913269043
 20
-20.4256894152001784
 30
0.0
 11
3666.7322244239489919
 21
-20.4598829117913787
 31
0.0
  0
ARC
  5
10499
  8
0
 10
3666.7702171992909825
 20
-20.4702053203565413
 30
0.0
 40
0.0393700786999998
 50
164.800000048601504
 51
254.8000000000085095
  0
LINE
  5
1049A
  8
0
 10
3666.7598947906940339
 20
-20.5081980956907088
 30
0.0
 11
3667.3981734169901756
 21
-20.6816145603118393
 31
0.0
  0
ARC
  5
1049B
  8
0
 10
3667.4084958255780293
 20
-20.6436217850100583
 30
0.0
 40
0.0393700786664273
 50
254.8000000000085095
 51
344.8000000249840014
  0
LINE
  5
1049C
  8
0
 10
3667.4464886008850044
 20
-20.6539441935820705
 30
0.0
 11
3667.4557787686408119
 21
-20.619750695654389
 31
0.0
  0
LINE
  5
1049D
  8
0
 10
3667.3724903007851026
 20
-20.6746366120786291
 30
0.0
 11
3667.3576904944920898
 21
-20.72511363526948
 31
0.0
  0
ARC
  5
1049E
  8
0
 10
3667.3520673174198237
 20
-20.7234764020200508
 30
0.0
 40
0.0058566759416895
 50
254.3587274975251944
 51
343.7666560508449152
  0
LINE
  5
1049F
  8
0
 10
3667.3504629424919585
 20
-20.7291093142694791
 30
0.0
 11
3666.7767782663918297
 21
-20.5739812013565313
 31
0.0
  0
ARC
  5
104A0
  8
0
 10
3666.7783723567308698
 20
-20.5681139742208217
 30
0.0
 40
0.0060799241994331
 50
167.3337085725524958
 51
254.7999999324823932
  0
LINE
  5
104A1
  8
0
 10
3666.7724403952920511
 20
-20.5667808156565393
 30
0.0
 11
3666.7855776430628794
 21
-20.5151759722068689
 31
0.0
  0
LINE
  5
104A2
  8
0
 10
3666.8049175067908436
 20
-20.5203909817565311
 30
0.0
 11
3666.7919392326912202
 21
-20.5720989871565401
 31
0.0
  0
ARC
  5
104A3
  8
0
 10
3666.7979214787101228
 20
-20.5736004805510611
 30
0.0
 40
0.0061677994318044
 50
165.9102975015574941
 51
238.205939860045504
  0
LINE
  5
104A4
  8
0
 10
3666.8599562976360176
 20
-20.5353842054296898
 30
0.0
 11
3666.8474627525920368
 21
-20.587242747756541
 31
0.0
  0
ARC
  5
104A5
  8
0
 10
3666.8533321441268527
 20
-20.5886567772344193
 30
0.0
 40
0.0060373202962541
 50
166.4546603575984136
 51
242.9856371131668027
  0
LINE
  5
104A6
  8
0
 10
3666.9390296468909582
 20
-20.5567247765565391
 30
0.0
 11
3666.9201828259920148
 21
-20.6073783655565386
 31
0.0
  0
ARC
  5
104A7
  8
0
 10
3666.9145850235599937
 20
-20.6052955757294782
 30
0.0
 40
0.0059727217860277
 50
262.9395968333478208
 51
339.5911367415088193
  0
LINE
  5
104A8
  8
0
 10
3666.9423415666001347
 20
-20.557767787601879
 30
0.0
 11
3666.9305594582920094
 21
-20.6099544911565395
 31
0.0
  0
ARC
  5
104A9
  8
0
 10
3666.936431188683855
 20
-20.6112801423037588
 30
0.0
 40
0.0060195156588025
 50
167.2777190230636108
 51
241.7974696609265948
  0
LINE
  5
104AA
  8
0
 10
3667.021366539419887
 20
-20.5792383974760504
 30
0.0
 11
3667.0034317187560191
 21
-20.6296223005095705
 31
0.0
  0
ARC
  5
104AB
  8
0
 10
3666.9974499509271482
 20
-20.6274930106607002
 30
0.0
 40
0.0063494426231522
 50
266.4808159789953947
 51
340.4061364832160734
  0
LINE
  5
104AC
  8
0
 10
3667.0395454830918425
 20
-20.5840564485565309
 30
0.0
 11
3667.0286395160951542
 21
-20.6364138740433489
 31
0.0
  0
ARC
  5
104AD
  8
0
 10
3667.0348423347818425
 20
-20.6377059111377292
 30
0.0
 40
0.0063359545079407
 50
168.2336303627560881
 51
241.5076179413397028
  0
LINE
  5
104AE
  8
0
 10
3667.1185465901921816
 20
-20.6056416329565302
 30
0.0
 11
3667.1014176509920617
 21
-20.6564301114565296
 31
0.0
  0
ARC
  5
104AF
  8
0
 10
3667.0957683270180496
 20
-20.6545248185684898
 30
0.0
 40
0.0059619629618466
 50
262.3830332469966038
 51
341.3627898170656749
  0
LINE
  5
104B0
  8
0
 10
3667.1191059542011317
 20
-20.6057936087808287
 30
0.0
 11
3667.1083057596420076
 21
-20.6586459971565297
 31
0.0
  0
ARC
  5
104B1
  8
0
 10
3667.1140623935220901
 20
-20.6598223444859812
 30
0.0
 40
0.0058755958572836
 50
168.4508173765609058
 51
236.9936990555100067
  0
LINE
  5
104B2
  8
0
 10
3667.1367016682479516
 20
-20.6105742584795486
 30
0.0
 11
3667.1266489190920765
 21
-20.6631418359565302
 31
0.0
  0
ARC
  5
104B3
  8
0
 10
3667.1330633942270651
 20
-20.6643685067030596
 30
0.0
 40
0.0065307130073773
 50
169.1737656795098133
 51
236.1797034033345142
  0
LINE
  5
104B4
  8
0
 10
3667.2157266409999465
 20
-20.6320448683283608
 30
0.0
 11
3667.1994874638430701
 21
-20.6829725869966587
 31
0.0
  0
ARC
  5
104B5
  8
0
 10
3667.1936347920518529
 20
-20.6811063621481388
 30
0.0
 40
0.0061430092198436
 50
270.3650316134783793
 51
342.3142254359312915
  0
LINE
  5
104B6
  8
0
 10
3667.2190869372498128
 20
-20.6329578406623888
 30
0.0
 11
3667.2097815139059094
 21
-20.6857638485211091
 31
0.0
  0
ARC
  5
104B7
  8
0
 10
3667.2167725646168037
 20
-20.6869958046777001
 30
0.0
 40
0.0070987679222693
 50
170.0059988724840139
 51
227.3718231842262867
  0
LINE
  5
104B8
  8
0
 10
3667.298111910084117
 20
-20.6544284505825715
 30
0.0
 11
3667.2826356823920833
 21
-20.7054761406565397
 31
0.0
  0
ARC
  5
104B9
  8
0
 10
3667.2768762878358757
 20
-20.7037300537840601
 30
0.0
 40
0.0060182593007614
 50
265.6583702725831131
 51
343.1341683743497128
  0
LINE
  5
104BA
  8
0
 10
3667.3531599869129423
 20
-20.6693846819837503
 30
0.0
 11
3667.3385804207900946
 21
-20.7198842093893383
 31
0.0
  0
ARC
  5
104BB
  8
0
 10
3667.3329224213971429
 20
-20.7182742513861697
 30
0.0
 40
0.0058825948272662
 50
260.1383878193872761
 51
344.1165380740166029
  0
ATTDEF
  5
104BF
  8
DEFPOINTS
 10
3671.5120049815218408
 20
-24.5812954803027708
 30
0.0
 40
0.001
  1
K-23472-4N
  3

  2
MODELNUMBER
 70
     0
1001
ACDBATTR
1070
     0
1070
     1
  0
ATTDEF
  5
104C0
  8
DEFPOINTS
 10
3671.5120049815218408
 20
-24.5829621469694395
 30
0.0
 40
0.001
  1
PARALLEL
  3

  2
TRADENAME
 70
     0
1001
ACDBATTR
1070
     0
1070
     1
  0
ATTDEF
  5
104C1
  8
DEFPOINTS
 10
3671.5120049815218408
 20
-24.5846288136361011
 30
0.0
 40
0.001
  1
BATHROOM SINK FAUCET
  3

  2
PRODUCT
 70
     0
1001
ACDBATTR
1070
     0
1070
     1
  0
ENDSEC
  0
EOF
