  0
SECTION
  2
HEADER
  9
$ACADVER
  1
AC1009
  9
$INSBASE
 10
2331.7398981268261196
 20
134.2319445898565107
 30
0.0
  9
$EXTMIN
 10
2325.6764381761031473
 20
134.2256129218152125
 30
-0.0015258207003583
  9
$EXTMAX
 10
2332.7953446182018524
 20
144.5001183984618933
 30
0.0000000349246037
  9
$LIMMIN
 10
0.0
 20
0.0
  9
$LIMMAX
 10
11.6929133858000007
 20
8.2677165353999982
  9
$ORTHOMODE
 70
     0
  9
$REGENMODE
 70
     1
  9
$FILLMODE
 70
     1
  9
$QTEXTMODE
 70
     0
  9
$MIRRTEXT
 70
     0
  9
$DRAGMODE
 70
     2
  9
$LTSCALE
 40
0.6431102362
  9
$OSMODE
 70
  4095
  9
$ATTMODE
 70
     1
  9
$TEXTSIZE
 40
0.2
  9
$TRACEWID
 40
0.05
  9
$TEXTSTYLE
  7
STANDARD
  9
$CLAYER
  8
0
  9
$CELTYPE
  6
BYLAYER
  9
$CECOLOR
 62
   256
  9
$DIMSCALE
 40
1.0
  9
$DIMASZ
 40
0.1875
  9
$DIMEXO
 40
0.0625
  9
$DIMDLI
 40
0.4443307087
  9
$DIMRND
 40
0.0
  9
$DIMDLE
 40
0.0
  9
$DIMEXE
 40
0.125
  9
$DIMTP
 40
0.01
  9
$DIMTM
 40
0.01
  9
$DIMTXT
 40
2.0
  9
$DIMCEN
 40
0.1052362205
  9
$DIMTSZ
 40
0.0
  9
$DIMTOL
 70
     1
  9
$DIMLIM
 70
     0
  9
$DIMTIH
 70
     1
  9
$DIMTOH
 70
     1
  9
$DIMSE1
 70
     0
  9
$DIMSE2
 70
     0
  9
$DIMTAD
 70
     0
  9
$DIMZIN
 70
     0
  9
$DIMBLK
  1

  9
$DIMASO
 70
     1
  9
$DIMSHO
 70
     1
  9
$DIMPOST
  1
\X
  9
$DIMAPOST
  1

  9
$DIMALT
 70
     1
  9
$DIMALTD
 70
     2
  9
$DIMALTF
 40
25.3999999999999986
  9
$DIMLFAC
 40
1.0
  9
$DIMTOFL
 70
     0
  9
$DIMTVP
 40
0.0
  9
$DIMTIX
 70
     0
  9
$DIMSOXD
 70
     0
  9
$DIMSAH
 70
     0
  9
$DIMBLK1
  1

  9
$DIMBLK2
  1

  9
$DIMSTYLE
  2
STANDARD
  9
$DIMCLRD
 70
     0
  9
$DIMCLRE
 70
     0
  9
$DIMCLRT
 70
     0
  9
$DIMTFAC
 40
1.0
  9
$DIMGAP
 40
0.09
  9
$LUNITS
 70
     2
  9
$LUPREC
 70
     4
  9
$SKETCHINC
 40
0.1
  9
$FILLETRAD
 40
0.0
  9
$AUNITS
 70
     0
  9
$AUPREC
 70
     0
  9
$MENU
  1
.
  9
$ELEVATION
 40
0.0
  9
$PELEVATION
 40
0.0
  9
$THICKNESS
 40
0.0
  9
$LIMCHECK
 70
     0
  9
$BLIPMODE
 70
     0
  9
$CHAMFERA
 40
0.0
  9
$CHAMFERB
 40
0.0
  9
$SKPOLY
 70
     0
  9
$TDCREATE
 40
2458060.468368056230247
  9
$TDUPDATE
 40
2460488.4697916670702398
  9
$TDINDWG
 40
0.3310024306
  9
$TDUSRTIMER
 40
0.3310024306
  9
$USRTIMER
 70
     1
  9
$ANGBASE
 50
0.0
  9
$ANGDIR
 70
     0
  9
$PDMODE
 70
     0
  9
$PDSIZE
 40
0.3125
  9
$PLINEWID
 40
0.0
  9
$COORDS
 70
     1
  9
$SPLFRAME
 70
     0
  9
$SPLINETYPE
 70
     6
  9
$SPLINESEGS
 70
     8
  9
$ATTDIA
 70
     1
  9
$ATTREQ
 70
     1
  9
$HANDLING
 70
     1
  9
$HANDSEED
  5
76F1
  9
$SURFTAB1
 70
     6
  9
$SURFTAB2
 70
     6
  9
$SURFTYPE
 70
     6
  9
$SURFU
 70
     6
  9
$SURFV
 70
     6
  9
$UCSNAME
  2

  9
$UCSORG
 10
0.0
 20
0.0
 30
0.0
  9
$UCSXDIR
 10
1.0
 20
0.0
 30
0.0
  9
$UCSYDIR
 10
0.0
 20
1.0
 30
0.0
  9
$PUCSNAME
  2

  9
$PUCSORG
 10
0.0
 20
0.0
 30
0.0
  9
$PUCSXDIR
 10
1.0
 20
0.0
 30
0.0
  9
$PUCSYDIR
 10
0.0
 20
1.0
 30
0.0
  9
$USERI1
 70
     0
  9
$USERI2
 70
     0
  9
$USERI3
 70
     0
  9
$USERI4
 70
     0
  9
$USERI5
 70
     0
  9
$USERR1
 40
0.0
  9
$USERR2
 40
0.0
  9
$USERR3
 40
0.0
  9
$USERR4
 40
0.0
  9
$USERR5
 40
0.0
  9
$WORLDVIEW
 70
     1
  9
$SHADEDGE
 70
     3
  9
$SHADEDIF
 70
    70
  9
$TILEMODE
 70
     1
  9
$MAXACTVP
 70
    64
  9
$PLIMCHECK
 70
     0
  9
$PEXTMIN
 10
1.0000000000000000E+20
 20
1.0000000000000000E+20
 30
1.0000000000000000E+20
  9
$PEXTMAX
 10
-1.0000000000000000E+20
 20
-1.0000000000000000E+20
 30
-1.0000000000000000E+20
  9
$PLIMMIN
 10
0.0
 20
0.0
  9
$PLIMMAX
 10
12.0
 20
9.0
  9
$UNITMODE
 70
     0
  9
$VISRETAIN
 70
     1
  9
$PLINEGEN
 70
     0
  9
$PSLTSCALE
 70
     1
  0
ENDSEC
  0
SECTION
  2
TABLES
  0
TABLE
  2
VPORT
 70
     1
  0
VPORT
  2
*ACTIVE
 70
     0
 10
0.0
 20
0.0
 11
1.0
 21
1.0
 12
22.8505154205895487
 22
0.5034653017290225
 13
0.0
 23
0.0
 14
1.0
 24
1.0
 15
0.0
 25
0.0
 16
0.0
 26
0.0
 36
34.3558167199709885
 17
2306.3853759765620453
 27
138.8594003584094878
 37
0.0
 40
10.3445589230783295
 41
2.1604095563139931
 42
50.0
 43
0.0
 44
0.0
 50
0.0
 51
0.0
 71
     0
 72
   100
 73
     1
 74
     1
 75
     0
 76
     0
 77
     0
 78
     0
  0
ENDTAB
  0
TABLE
  2
LTYPE
 70
     2
  0
LTYPE
  2
CONTINUOUS
 70
     0
  3
Solid line
 72
    65
 73
     0
 40
0.0
  0
LTYPE
  2
PHANTOM2
 70
     0
  3
___ _ _ ___ _ _ ___ _ _ ___ _ _
 72
    65
 73
     6
 40
1.25
 49
0.625
 49
-0.125
 49
0.125
 49
-0.125
 49
0.125
 49
-0.125
  0
ENDTAB
  0
TABLE
  2
LAYER
 70
     2
  0
LAYER
  2
0
 70
     0
 62
   255
  6
CONTINUOUS
  0
LAYER
  2
DEFPOINTS
 70
     0
 62
     7
  6
CONTINUOUS
  0
ENDTAB
  0
TABLE
  2
STYLE
 70
     1
  0
STYLE
  2
STANDARD
 70
     0
 40
0.0
 41
0.8
 50
0.0
 71
     0
 42
0.2
  3
txt
  4

  0
ENDTAB
  0
TABLE
  2
VIEW
 70
     0
  0
ENDTAB
  0
TABLE
  2
UCS
 70
     0
  0
ENDTAB
  0
TABLE
  2
APPID
 70
     9
  0
APPID
  2
ACAD
 70
     0
  0
APPID
  2
ACAD_MLEADERVER
 70
     0
  0
APPID
  2
ACAD_EXEMPT_FROM_CAD_STANDARDS
 70
     0
  0
APPID
  2
ACAD_NAV_VCDISPLAY
 70
     0
  0
APPID
  2
ACAECLAYERSTANDARD
 70
     0
  0
APPID
  2
ACCMTRANSPARENCY
 70
     0
  0
APPID
  2
ACAD_DSTYLE_DIMJAG
 70
     0
  0
APPID
  2
ACAD_DSTYLE_DIMTALN
 70
     0
  0
APPID
  2
ACDBATTR
 70
     0
  0
ENDTAB
  0
TABLE
  2
DIMSTYLE
 70
     1
  0
DIMSTYLE
  2
STANDARD
 70
     0
  3

  4

  5

  6

  7

 40
1.0
 41
0.1875
 42
0.0625
 43
0.38
 44
0.125
 45
0.0
 46
0.0
 47
0.01
 48
0.01
140
0.15625
141
0.09
142
0.0
143
25.3999999999999986
144
1.0
145
0.0
146
1.0
147
0.09
 71
     1
 72
     0
 73
     1
 74
     1
 75
     0
 76
     0
 77
     0
 78
     4
170
     0
171
     2
172
     0
173
     0
174
     0
175
     0
176
     0
177
     0
178
     0
  0
ENDTAB
  0
ENDSEC
  0
SECTION
  2
BLOCKS
  0
BLOCK
  8
0
  2
$MODEL_SPACE
 70
     0
 10
0.0
 20
0.0
 30
0.0
  3
$MODEL_SPACE
  1

  0
ENDBLK
  5
21
  8
0
  0
BLOCK
 67
     1
  8
0
  2
$PAPER_SPACE
 70
     0
 10
0.0
 20
0.0
 30
0.0
  3
$PAPER_SPACE
  1

  0
ENDBLK
  5
1D
 67
     1
  8
0
  0
ENDSEC
  0
SECTION
  2
ENTITIES
  0
ATTDEF
  5
3930
  8
DEFPOINTS
 10
2331.7363145680828893
 20
134.2361743976408945
 30
0.0
 40
0.001
  1
K-23475IN-4ND
  3

  2
MODELNUMBER
 70
     0
1001
ACDBATTR
1070
     0
1070
     1
  0
ATTDEF
  5
3931
  8
DEFPOINTS
 10
2331.7363145680828893
 20
134.234507730974201
 30
0.0
 40
0.001
  1
PARALLEL
  3

  2
TRADENAME
 70
     0
1001
ACDBATTR
1070
     0
1070
     1
  0
ATTDEF
  5
3932
  8
DEFPOINTS
 10
2331.7363145680828893
 20
134.2328410643075074
 30
0.0
 40
0.001
  1
BATHROOM SINK FAUCET
  3

  2
PRODUCT
 70
     0
1001
ACDBATTR
1070
     0
1070
     1
  0
LINE
  5
756D
  8
0
 10
2325.716276079626823
 20
142.6295823859564962
 30
0.0
 11
2325.716276079626823
 21
143.1177713623565069
 31
0.0
  0
LINE
  5
756E
  8
0
 10
2330.7753325610260617
 20
134.2319445898565107
 30
0.0
 11
2332.7044636926270869
 21
134.2319445898565107
 31
0.0
  0
LINE
  5
756F
  8
0
 10
2327.9528292064269408
 20
144.3509006660565035
 30
0.0
 11
2327.9633450374271888
 21
144.460111746356489
 31
0.0
  0
LINE
  5
7570
  8
0
 10
2331.7437205725268541
 20
143.2375677129564906
 30
0.0
 11
2332.4798281742268955
 21
143.5653039327565068
 31
0.0
  0
LINE
  5
7571
  8
0
 10
2326.1321482246939922
 20
142.3538259151789021
 30
0.0
 11
2326.6754449125937754
 21
142.2062154720788953
 31
0.0
  0
LINE
  5
7572
  8
0
 10
2326.0914668933678513
 20
142.4668723992921002
 30
0.0
 11
2326.7677382911401764
 21
142.2831331953416907
 31
0.0
  0
LINE
  5
7573
  8
0
 10
2325.9291254385270804
 20
142.5889021307565088
 30
0.0
 11
2326.9639079968969781
 21
142.3077579233332983
 31
0.0
  0
LINE
  5
7574
  8
0
 10
2330.7556461583271812
 20
134.2516296292563993
 30
0.0
 11
2330.7556461583271812
 21
142.5193461654565112
 31
0.0
  0
LINE
  5
7575
  8
0
 10
2330.7629739124981825
 20
144.1200620003297104
 30
0.0
 11
2330.7558927874270012
 21
143.2656373382565107
 31
0.0
  0
LINE
  5
7576
  8
0
 10
2325.7477721426262178
 20
142.5980863229565045
 30
0.0
 11
2331.1799321746270834
 21
142.5980863229565045
 31
0.0
  0
LINE
  5
7577
  8
0
 10
2331.1439175687560237
 20
143.2358658505565074
 30
0.0
 11
2331.1437820131268381
 21
143.1882939396564893
 31
0.0
  0
LINE
  5
7578
  8
0
 10
2331.4198391721270127
 20
142.5193461654565112
 30
0.0
 11
2331.4198391721270127
 21
134.2516296299164082
 31
0.0
  0
LINE
  5
7579
  8
0
 10
2331.4303476891259379
 20
143.2656381141565021
 30
0.0
 11
2331.4302545594650837
 21
144.1493804377531092
 31
0.0
  0
LINE
  5
757A
  8
0
 10
2325.7477721426262178
 20
143.1492674253564985
 30
0.0
 11
2332.6926526922270568
 21
143.1492674253564985
 31
0.0
  0
LINE
  5
757B
  8
0
 10
2330.7854230009270395
 20
143.2358658505565074
 30
0.0
 11
2331.7357139391269811
 21
143.2358658505565074
 31
0.0
  0
LINE
  5
757C
  8
0
 10
2332.5598944425260015
 20
143.5823225434565131
 30
0.0
 11
2332.6943043796268284
 21
143.5823225434565131
 31
0.0
  0
LINE
  5
757D
  8
0
 10
2332.059957081427001
 20
134.2516296292565983
 30
0.0
 11
2332.059957081427001
 21
143.1177713623565069
 31
0.0
  0
LINE
  5
757E
  8
0
 10
2332.0547849984259301
 20
144.4566653625564925
 30
0.0
 11
2332.0545395345930046
 21
143.3759532308272924
 31
0.0
  0
LINE
  5
757F
  8
0
 10
2332.4901673192271119
 20
143.5695574448565139
 30
0.0
 11
2332.4934945554268779
 21
143.1882939396564893
 31
0.0
  0
LINE
  5
7580
  8
0
 10
2327.9822208265268273
 20
144.3185430158565055
 30
0.0
 11
2330.9857770923272255
 21
144.3185430158565055
 31
0.0
  0
LINE
  5
7581
  8
0
 10
2332.7238428093260154
 20
143.612154246056491
 30
0.0
 11
2332.715143037326925
 21
144.4567439998565135
 31
0.0
  0
LINE
  5
7582
  8
0
 10
2332.7241500953268769
 20
134.2516296292565983
 30
0.0
 11
2332.7241500953268769
 21
143.1177713623565069
 31
0.0
  0
LINE
  5
7583
  8
0
 10
2332.6757716536271801
 20
144.4957083702564944
 30
0.0
 11
2328.0025338641271446
 21
144.4957083702564944
 31
0.0
  0
ARC
  5
7584
  8
0
 10
2326.271124156894075
 20
142.4278916957788965
 30
0.0
 40
0.157480315
 50
168.2539074488663005
 51
208.0549215784888872
  0
ARC
  5
7585
  8
0
 10
2326.5930560570941452
 20
142.3404247343788995
 30
0.0
 40
0.157480315
 50
301.5450784215080944
 51
341.3460925602158227
  0
ARC
  5
7586
  8
0
 10
2326.9743952249209542
 20
142.3463587598959066
 30
0.0
 40
0.0400000816870628
 50
254.8005351532160887
 51
318.2946142504122236
  0
ARC
  5
7587
  8
0
 10
2325.7494225008372268
 20
142.6312327441663967
 30
0.0
 40
0.0331874813934613
 50
182.8503993673602963
 51
267.1496006326294719
  0
ARC
  5
7588
  8
0
 10
2328.0025338641271446
 20
144.4563382914564897
 30
0.0
 40
0.0393700787
 50
90.0
 51
174.4999999999965894
  0
ARC
  5
7589
  8
0
 10
2325.7513481568671523
 20
143.1141953481165956
 30
0.0
 40
0.0352539143893353
 50
95.8218647651510054
 51
174.1781352348563985
  0
ARC
  5
758A
  8
0
 10
2327.9839979961839163
 20
144.3496848422169023
 30
0.0
 40
0.0311924939857107
 50
177.7661540182660076
 51
266.7338459817329976
  0
ARC
  5
758B
  8
0
 10
2330.668768975463081
 20
142.5112091400924044
 30
0.0
 40
0.0872574127749981
 50
5.3507841865840566
 51
84.6492158134253714
  0
ARC
  5
758C
  8
0
 10
2332.7032420001851278
 20
134.2528527696549077
 30
0.0
 40
0.0209438419327262
 50
273.3440654155862717
 51
356.6519666659373797
  0
ARC
  5
758D
  8
0
 10
2330.7773349291860541
 20
134.2536334994373135
 30
0.0
 40
0.0217811449893644
 50
185.2786888940796075
 51
264.7252790243715026
  0
ARC
  5
758E
  8
0
 10
2332.5760841647811503
 20
143.3093054949767975
 30
0.0
 40
0.2734966469030577
 50
93.3936260517148185
 51
110.6063739482926991
  0
ARC
  5
758F
  8
0
 10
2330.554420361630946
 20
144.110079365917386
 30
0.0
 40
0.2087923288077063
 50
2.740430926287341
 51
86.7846871140020539
  0
ARC
  5
7590
  8
0
 10
2332.6732464766369048
 20
144.4537833063338041
 30
0.0
 40
0.0420010416983761
 50
4.0421865034054747
 51
86.5531976789010287
  0
ARC
  5
7591
  8
0
 10
2332.5328631351271724
 20
143.1886375040564872
 30
0.0
 40
0.0393700787
 50
180.4999999999994884
 51
270.0
  0
ARC
  5
7592
  8
0
 10
2331.1008729722261705
 20
143.1922089973099048
 30
0.0
 40
0.04308727733392
 50
274.713281299908374
 51
354.7867187001099865
  0
ARC
  5
7593
  8
0
 10
2332.6898397347667924
 20
143.1149569450826107
 30
0.0
 40
0.0344255978350001
 50
4.6893710518969121
 51
85.3130667270946645
  0
ARC
  5
7594
  8
0
 10
2332.69063717923882
 20
143.6154935631830938
 30
0.0
 40
0.0333731165518424
 50
276.3086785526185167
 51
354.257369124693696
  0
ARC
  5
7595
  8
0
 10
2330.7888458999509567
 20
143.2687922008774137
 30
0.0
 40
0.0331037880488563
 50
185.4687114138247921
 51
264.0650652971975774
  0
ARC
  5
7596
  8
0
 10
2331.733823839456818
 20
143.2644431257598114
 30
0.0
 40
0.0286397125474937
 50
273.7840289103706937
 51
290.2159711061225948
  0
ARC
  5
7597
  8
0
 10
2331.1543673773330738
 20
142.1153483542545928
 30
0.0
 40
0.483414423954314
 50
56.6906054373367425
 51
86.9685666723329831
  0
ARC
  5
7598
  8
0
 10
2330.9124987285940733
 20
143.4574856741375868
 30
0.0
 40
0.8641698122009833
 50
53.1919082183094076
 51
85.1356911598408317
  0
ARC
  5
7599
  8
0
 10
2331.9738421335478051
 20
144.451902540051492
 30
0.0
 40
0.0810828702806258
 50
3.3675029196574902
 51
32.7013662994492478
  0
ARC
  5
759A
  8
0
 10
2331.5081947305880021
 20
143.273590076182586
 30
0.0
 40
0.0782521281781596
 50
185.8324507606089071
 51
208.8217058766934997
  0
ARC
  5
759B
  8
0
 10
2331.9890427565151185
 20
143.1121247086429946
 30
0.0
 40
0.0711387810959025
 50
4.552652104961199
 51
31.4743156397400696
  0
ARC
  5
759C
  8
0
 10
2327.9399392234017796
 20
141.5244630336648868
 30
0.0
 40
1.227996275652778
 50
125.4066200344311
 51
139.6370676212679882
  0
ARC
  5
759D
  8
0
 10
2327.5197379966371045
 20
141.9816186633219104
 30
0.0
 40
0.6168361706864138
 50
91.9806128682722886
 51
118.1771461346998962
  0
ARC
  5
759E
  8
0
 10
2325.8490819207031564
 20
142.2531984651949131
 30
0.0
 40
0.3451143517981686
 50
76.5890787833351823
 51
87.9240912436238915
  0
ARC
  5
759F
  8
0
 10
2331.4825092170881362
 20
134.2611253809560878
 30
0.0
 40
0.0633853596921419
 50
188.6159076840957027
 51
207.4110598940366117
  0
ARC
  5
75A0
  8
0
 10
2332.0228112128102111
 20
134.2528254319335872
 30
0.0
 40
0.0371651113182556
 50
325.8168658259484118
 51
358.1561665959451943
  0
ARC
  5
75A2
  8
0
 10
2326.7213427673759725
 20
142.4593108590565009
 30
0.0
 40
0.6299212597999717
 50
172.3397241057016913
 51
179.3122080883048
  0
ARC
  5
75A3
  8
0
 10
2326.2206355091689147
 20
142.5953500102598923
 30
0.0
 40
0.6299212598082543
 50
330.2877618266732043
 51
337.260289905185914
  0
ENDSEC
  0
EOF
