  0
SECTION
  2
HEADER
  9
$ACADVER
  1
AC1009
  9
$INSBASE
 10
2356.3443200584310944
 20
128.1654831520181119
 30
0.0
  9
$EXTMIN
 10
2350.3206980112308884
 20
128.1591936106329968
 30
0.0
  9
$EXTMAX
 10
2358.0937281554529363
 20
138.4292469651180113
 30
0.0
  9
$LIMMIN
 10
0.0
 20
0.0
  9
$LIMMAX
 10
11.6929133858000007
 20
8.2677165353999982
  9
$ORTHOMODE
 70
     0
  9
$REGENMODE
 70
     1
  9
$FILLMODE
 70
     1
  9
$QTEXTMODE
 70
     0
  9
$MIRRTEXT
 70
     0
  9
$DRAGMODE
 70
     2
  9
$LTSCALE
 40
0.6431102362
  9
$OSMODE
 70
  4095
  9
$ATTMODE
 70
     1
  9
$TEXTSIZE
 40
0.2
  9
$TRACEWID
 40
0.05
  9
$TEXTSTYLE
  7
STANDARD
  9
$CLAYER
  8
0
  9
$CELTYPE
  6
BYLAYER
  9
$CECOLOR
 62
   256
  9
$DIMSCALE
 40
1.0
  9
$DIMASZ
 40
0.1875
  9
$DIMEXO
 40
0.0625
  9
$DIMDLI
 40
0.4443307087
  9
$DIMRND
 40
0.0
  9
$DIMDLE
 40
0.0
  9
$DIMEXE
 40
0.125
  9
$DIMTP
 40
0.01
  9
$DIMTM
 40
0.01
  9
$DIMTXT
 40
2.0
  9
$DIMCEN
 40
0.1052362205
  9
$DIMTSZ
 40
0.0
  9
$DIMTOL
 70
     1
  9
$DIMLIM
 70
     0
  9
$DIMTIH
 70
     1
  9
$DIMTOH
 70
     1
  9
$DIMSE1
 70
     0
  9
$DIMSE2
 70
     0
  9
$DIMTAD
 70
     0
  9
$DIMZIN
 70
     0
  9
$DIMBLK
  1

  9
$DIMASO
 70
     1
  9
$DIMSHO
 70
     1
  9
$DIMPOST
  1
\X
  9
$DIMAPOST
  1

  9
$DIMALT
 70
     1
  9
$DIMALTD
 70
     2
  9
$DIMALTF
 40
25.3999999999999986
  9
$DIMLFAC
 40
1.0
  9
$DIMTOFL
 70
     0
  9
$DIMTVP
 40
0.0
  9
$DIMTIX
 70
     0
  9
$DIMSOXD
 70
     0
  9
$DIMSAH
 70
     0
  9
$DIMBLK1
  1

  9
$DIMBLK2
  1

  9
$DIMSTYLE
  2
STANDARD
  9
$DIMCLRD
 70
     0
  9
$DIMCLRE
 70
     0
  9
$DIMCLRT
 70
     0
  9
$DIMTFAC
 40
1.0
  9
$DIMGAP
 40
0.09
  9
$LUNITS
 70
     2
  9
$LUPREC
 70
     4
  9
$SKETCHINC
 40
0.1
  9
$FILLETRAD
 40
0.0
  9
$AUNITS
 70
     0
  9
$AUPREC
 70
     0
  9
$MENU
  1
.
  9
$ELEVATION
 40
0.0
  9
$PELEVATION
 40
0.0
  9
$THICKNESS
 40
0.0
  9
$LIMCHECK
 70
     0
  9
$BLIPMODE
 70
     0
  9
$CHAMFERA
 40
0.0
  9
$CHAMFERB
 40
0.0
  9
$SKPOLY
 70
     0
  9
$TDCREATE
 40
2458060.468368056230247
  9
$TDUPDATE
 40
2458988.8236226858571172
  9
$TDINDWG
 40
0.3236065972
  9
$TDUSRTIMER
 40
0.3236065972
  9
$USRTIMER
 70
     1
  9
$ANGBASE
 50
0.0
  9
$ANGDIR
 70
     0
  9
$PDMODE
 70
     0
  9
$PDSIZE
 40
0.3125
  9
$PLINEWID
 40
0.0
  9
$COORDS
 70
     1
  9
$SPLFRAME
 70
     0
  9
$SPLINETYPE
 70
     6
  9
$SPLINESEGS
 70
     8
  9
$ATTDIA
 70
     1
  9
$ATTREQ
 70
     1
  9
$HANDLING
 70
     1
  9
$HANDSEED
  5
7324
  9
$SURFTAB1
 70
     6
  9
$SURFTAB2
 70
     6
  9
$SURFTYPE
 70
     6
  9
$SURFU
 70
     6
  9
$SURFV
 70
     6
  9
$UCSNAME
  2

  9
$UCSORG
 10
0.0
 20
0.0
 30
0.0
  9
$UCSXDIR
 10
1.0
 20
0.0
 30
0.0
  9
$UCSYDIR
 10
0.0
 20
1.0
 30
0.0
  9
$PUCSNAME
  2

  9
$PUCSORG
 10
0.0
 20
0.0
 30
0.0
  9
$PUCSXDIR
 10
1.0
 20
0.0
 30
0.0
  9
$PUCSYDIR
 10
0.0
 20
1.0
 30
0.0
  9
$USERI1
 70
     0
  9
$USERI2
 70
     0
  9
$USERI3
 70
     0
  9
$USERI4
 70
     0
  9
$USERI5
 70
     0
  9
$USERR1
 40
0.0
  9
$USERR2
 40
0.0
  9
$USERR3
 40
0.0
  9
$USERR4
 40
0.0
  9
$USERR5
 40
0.0
  9
$WORLDVIEW
 70
     1
  9
$SHADEDGE
 70
     3
  9
$SHADEDIF
 70
    70
  9
$TILEMODE
 70
     1
  9
$MAXACTVP
 70
    64
  9
$PLIMCHECK
 70
     0
  9
$PEXTMIN
 10
1.0000000000000000E+20
 20
1.0000000000000000E+20
 30
1.0000000000000000E+20
  9
$PEXTMAX
 10
-1.0000000000000000E+20
 20
-1.0000000000000000E+20
 30
-1.0000000000000000E+20
  9
$PLIMMIN
 10
0.0
 20
0.0
  9
$PLIMMAX
 10
12.0
 20
9.0
  9
$UNITMODE
 70
     0
  9
$VISRETAIN
 70
     1
  9
$PLINEGEN
 70
     0
  9
$PSLTSCALE
 70
     1
  0
ENDSEC
  0
SECTION
  2
TABLES
  0
TABLE
  2
VPORT
 70
     1
  0
VPORT
  2
*ACTIVE
 70
     0
 10
0.0
 20
0.0
 11
1.0
 21
1.0
 12
0.0
 22
0.0
 13
0.0
 23
0.0
 14
1.0
 24
1.0
 15
0.0
 25
0.0
 16
0.0
 26
0.0
 36
48.8501449220966322
 17
2354.207275390625
 27
133.2942193028750921
 37
0.0
 40
12.8799338118334994
 41
2.9955849889624719
 42
50.0
 43
0.0
 44
0.0
 50
0.0
 51
0.0
 71
     0
 72
   100
 73
     1
 74
     1
 75
     0
 76
     0
 77
     0
 78
     0
  0
ENDTAB
  0
TABLE
  2
LTYPE
 70
     2
  0
LTYPE
  2
CONTINUOUS
 70
     0
  3
Solid line
 72
    65
 73
     0
 40
0.0
  0
LTYPE
  2
PHANTOM2
 70
     0
  3
___ _ _ ___ _ _ ___ _ _ ___ _ _
 72
    65
 73
     6
 40
1.25
 49
0.625
 49
-0.125
 49
0.125
 49
-0.125
 49
0.125
 49
-0.125
  0
ENDTAB
  0
TABLE
  2
LAYER
 70
     2
  0
LAYER
  2
0
 70
     0
 62
   255
  6
CONTINUOUS
  0
LAYER
  2
DEFPOINTS
 70
     0
 62
     7
  6
CONTINUOUS
  0
ENDTAB
  0
TABLE
  2
STYLE
 70
     1
  0
STYLE
  2
STANDARD
 70
     0
 40
0.0
 41
0.8
 50
0.0
 71
     0
 42
0.2
  3
txt
  4

  0
ENDTAB
  0
TABLE
  2
VIEW
 70
     0
  0
ENDTAB
  0
TABLE
  2
UCS
 70
     0
  0
ENDTAB
  0
TABLE
  2
APPID
 70
     9
  0
APPID
  2
ACAD
 70
     0
  0
APPID
  2
ACAD_MLEADERVER
 70
     0
  0
APPID
  2
ACAD_EXEMPT_FROM_CAD_STANDARDS
 70
     0
  0
APPID
  2
ACAD_NAV_VCDISPLAY
 70
     0
  0
APPID
  2
ACAECLAYERSTANDARD
 70
     0
  0
APPID
  2
ACCMTRANSPARENCY
 70
     0
  0
APPID
  2
ACAD_DSTYLE_DIMJAG
 70
     0
  0
APPID
  2
ACAD_DSTYLE_DIMTALN
 70
     0
  0
APPID
  2
ACDBATTR
 70
     0
  0
ENDTAB
  0
TABLE
  2
DIMSTYLE
 70
     1
  0
DIMSTYLE
  2
STANDARD
 70
     0
  3

  4

  5

  6

  7

 40
1.0
 41
0.1875
 42
0.0625
 43
0.38
 44
0.125
 45
0.0
 46
0.0
 47
0.01
 48
0.01
140
0.15625
141
0.09
142
0.0
143
25.3999999999999986
144
1.0
145
0.0
146
1.0
147
0.09
 71
     1
 72
     0
 73
     1
 74
     1
 75
     0
 76
     0
 77
     0
 78
     4
170
     0
171
     2
172
     0
173
     0
174
     0
175
     0
176
     0
177
     0
178
     0
  0
ENDTAB
  0
ENDSEC
  0
SECTION
  2
BLOCKS
  0
BLOCK
  8
0
  2
$MODEL_SPACE
 70
     0
 10
0.0
 20
0.0
 30
0.0
  3
$MODEL_SPACE
  1

  0
ENDBLK
  5
21
  8
0
  0
BLOCK
 67
     1
  8
0
  2
$PAPER_SPACE
 70
     0
 10
0.0
 20
0.0
 30
0.0
  3
$PAPER_SPACE
  1

  0
ENDBLK
  5
1D
 67
     1
  8
0
  0
BLOCK
  8
0
  2
_FILLED
 70
     0
 10
0.0
 20
0.0
 30
0.0
  3
_FILLED
  1

  0
SOLID
  5
7108
  8
0
  6
BYBLOCK
 62
     0
 10
0.0
 20
0.0
 30
0.0
 11
-1.0
 21
0.1666666667
 31
0.0
 12
-1.0
 22
-0.1666666667
 32
0.0
 13
-1.0
 23
-0.1666666667
 33
0.0
  0
ENDBLK
  5
7109
  8
0
  6
BYBLOCK
 62
     0
  0
ENDSEC
  0
SECTION
  2
ENTITIES
  0
ATTDEF
  5
3930
  8
DEFPOINTS
 10
2356.3412324835221625
 20
128.1625269439662986
 30
0.0
 40
0.001
  1
K-23475IN-4
  3

  2
MODELNUMBER
 70
     0
1001
ACDBATTR
1070
     0
1070
     1
  0
ATTDEF
  5
3931
  8
DEFPOINTS
 10
2356.3412324835221625
 20
128.1608602772996051
 30
0.0
 40
0.001
  1
PARALLEL
  3

  2
TRADENAME
 70
     0
1001
ACDBATTR
1070
     0
1070
     1
  0
ATTDEF
  5
3932
  8
DEFPOINTS
 10
2356.3412324835221625
 20
128.1591936106329968
 30
0.0
 40
0.001
  1
BATHROOM SINK FAUCET
  3

  2
PRODUCT
 70
     0
1001
ACDBATTR
1070
     0
1070
     1
  0
LINE
  5
714F
  8
0
 10
2350.3206980112308884
 20
136.5631209481180122
 30
0.0
 11
2350.3206980112308884
 21
137.0513099245181081
 31
0.0
  0
LINE
  5
7150
  8
0
 10
2355.3797544926310366
 20
128.1654831520181119
 30
0.0
 11
2357.3088856242311522
 21
128.1654831520181119
 31
0.0
  0
LINE
  5
7151
  8
0
 10
2352.4287074333010423
 20
138.2793081786155938
 30
0.0
 11
2352.4202471198491367
 21
138.3868066536981871
 31
0.0
  0
LINE
  5
7152
  8
0
 10
2356.3481425041309194
 20
137.1711062751180066
 30
0.0
 11
2357.0842501058309608
 21
137.4988424949179944
 31
0.0
  0
LINE
  5
7153
  8
0
 10
2350.7585568868307746
 20
136.3682890896180879
 30
0.0
 11
2351.3018535747310125
 21
136.2206786465181096
 31
0.0
  0
LINE
  5
7154
  8
0
 10
2357.4140496968311709
 20
130.1268466611680878
 30
0.0
 11
2357.7543895422309106
 21
129.9717448578680887
 31
0.0
  0
LINE
  5
7155
  8
0
 10
2350.7109795513310928
 20
136.4709696513180006
 30
0.0
 11
2351.3948493321740898
 21
136.2851660086504921
 31
0.0
  0
LINE
  5
7156
  8
0
 10
2350.5335473701311457
 20
136.5224406929179963
 30
0.0
 11
2351.568329928501953
 21
136.2412964854947859
 31
0.0
  0
LINE
  5
7157
  8
0
 10
2358.0719633428311681
 20
130.6923314219679924
 30
0.0
 11
2357.7495699425307976
 21
130.8392545590681095
 31
0.0
  0
LINE
  5
7158
  8
0
 10
2355.3600680899307918
 20
128.1851681914180006
 30
0.0
 11
2355.3600680899307918
 21
136.4528847276181125
 31
0.0
  0
LINE
  5
7159
  8
0
 10
2355.3673958441031573
 20
138.0536005624913116
 30
0.0
 11
2355.3603147190310665
 21
137.199175900418112
 31
0.0
  0
LINE
  5
715A
  8
0
 10
2350.3521940742311926
 20
136.5316248851179921
 30
0.0
 11
2355.7843541062311488
 21
136.5316248851179921
 31
0.0
  0
LINE
  5
715B
  8
0
 10
2355.748339500360089
 20
137.169404412717995
 30
0.0
 11
2355.7482039447309035
 21
137.1218325018180053
 31
0.0
  0
LINE
  5
715C
  8
0
 10
2356.024261103731078
 20
136.4528847276181125
 30
0.0
 11
2356.024261103731078
 21
128.1851681920780095
 31
0.0
  0
LINE
  5
715D
  8
0
 10
2356.0347696207309127
 20
137.1991766763179896
 30
0.0
 11
2356.0346764910691491
 21
138.0829189999145967
 31
0.0
  0
LINE
  5
715E
  8
0
 10
2350.3521940742311926
 20
137.0828059875179861
 30
0.0
 11
2357.2970746238311222
 21
137.0828059875179861
 31
0.0
  0
LINE
  5
715F
  8
0
 10
2355.3898449325311049
 20
137.169404412717995
 30
0.0
 11
2356.3401358707310465
 21
137.169404412717995
 31
0.0
  0
LINE
  5
7160
  8
0
 10
2357.1643163741309763
 20
137.5158611056180007
 30
0.0
 11
2357.2987263112308938
 21
137.5158611056180007
 31
0.0
  0
LINE
  5
7161
  8
0
 10
2356.6643790130310663
 20
128.1851681914180858
 30
0.0
 11
2356.6643790130310663
 21
137.0513099245181081
 31
0.0
  0
LINE
  5
7162
  8
0
 10
2356.6592069300309049
 20
138.3902039247180937
 30
0.0
 11
2356.6589614661979795
 21
137.3094917929888084
 31
0.0
  0
LINE
  5
7163
  8
0
 10
2357.0945944789741588
 20
137.5024969212875874
 30
0.0
 11
2357.0979164870309432
 21
137.1218325018180053
 31
0.0
  0
LINE
  5
7164
  8
0
 10
2352.4584012221757803
 20
138.252081578017993
 30
0.0
 11
2355.5901990239308361
 21
138.252081578017993
 31
0.0
  0
LINE
  5
7165
  8
0
 10
2357.3282647409309902
 20
137.545692808218007
 30
0.0
 11
2357.3195649689309903
 21
138.390282562018001
 31
0.0
  0
LINE
  5
7166
  8
0
 10
2357.3285720269309422
 20
128.1851681914180858
 30
0.0
 11
2357.3285720269309422
 21
137.0513099245181081
 31
0.0
  0
LINE
  5
7167
  8
0
 10
2357.2801935852307906
 20
138.4292469324180956
 30
0.0
 11
2352.4594960693812027
 21
138.4292469324180956
 31
0.0
  0
LINE
  5
7168
  8
0
 10
2357.3994256408309411
 20
130.1659604755679993
 30
0.0
 11
2357.6973843683308587
 21
130.8197712312681062
 31
0.0
  0
LINE
  5
7169
  8
0
 10
2357.3285720269309422
 20
129.7019384451546102
 30
0.0
 11
2357.5036128140309302
 21
130.0860303971680878
 31
0.0
  0
LINE
  5
716A
  8
0
 10
2357.3285720269309422
 20
129.2747181866162123
 30
0.0
 11
2357.6648264249311069
 21
130.0125611218680888
 31
0.0
  0
LINE
  5
716B
  8
0
 10
2357.7935033565308913
 20
129.9863689137681035
 30
0.0
 11
2358.0914620840308089
 21
130.6401796694680968
 31
0.0
  0
ARC
  5
716C
  8
0
 10
2351.3408074244930503
 20
136.4822544023421074
 30
0.0
 40
0.6299289606119479
 50
180.7283338723831037
 51
181.0264700229380139
  0
ARC
  5
716D
  8
0
 10
2350.857331410030838
 20
136.6136097282179946
 30
0.0
 40
0.6299212598000001
 50
328.5734965724020071
 51
328.871666511271485
  0
ARC
  5
716E
  8
0
 10
2350.8975328190308574
 20
136.4423548702179971
 30
0.0
 40
0.157480315
 50
172.5728245457275136
 51
208.0549215784888872
  0
ARC
  5
716F
  8
0
 10
2351.2194647192309276
 20
136.3548879088180001
 30
0.0
 40
0.157480315
 50
301.5450784215075828
 51
337.0270671258139146
  0
ARC
  5
7170
  8
0
 10
2351.578817156525929
 20
136.2798973220573941
 30
0.0
 40
0.0400000816870628
 50
254.8005351532160887
 51
318.2946142504122236
  0
ARC
  5
7171
  8
0
 10
2350.3538444324408374
 20
136.5647713063279127
 30
0.0
 40
0.0331874813934613
 50
182.8503993673595005
 51
267.149600632629415
  0
ARC
  5
7172
  8
0
 10
2352.4594707999949605
 20
138.3899013649271126
 30
0.0
 40
0.0393455756055341
 50
89.9632022336457737
 51
184.5112374595869937
  0
ARC
  5
7173
  8
0
 10
2350.3557700884712176
 20
137.0477339102781116
 30
0.0
 40
0.0352539143893353
 50
95.8218647651511048
 51
174.1781352348556027
  0
ARC
  5
7174
  8
0
 10
2352.4581743230219217
 20
138.2816396912201071
 30
0.0
 40
0.0295589840707085
 50
184.5239964138118012
 51
270.4398152359372034
  0
ARC
  5
7175
  8
0
 10
2355.2731909070671463
 20
136.4447477022538919
 30
0.0
 40
0.0872574127749981
 50
5.3507841865832457
 51
84.6492158134253003
  0
ARC
  5
7176
  8
0
 10
2358.0493944179997925
 20
130.654172230191989
 30
0.0
 40
0.0443337374531149
 50
341.6018261775021756
 51
59.3981738225025566
  0
ARC
  5
7177
  8
0
 10
2357.7352119391889573
 20
130.7980815897527975
 30
0.0
 40
0.0436046518412233
 50
70.7751095775618921
 51
150.1708244437369899
  0
ARC
  5
7178
  8
0
 10
2357.4283227826149414
 20
130.1544739117366873
 30
0.0
 40
0.0310963977482551
 50
158.3222647558955885
 51
242.677735244115695
  0
ARC
  5
7179
  8
0
 10
2357.7666344214321725
 20
129.9986137930681025
 30
0.0
 40
0.0295275591
 50
245.5000000000094929
 51
335.4999999999943157
  0
ARC
  5
717A
  8
0
 10
2357.3076639317901027
 20
128.1863913318163952
 30
0.0
 40
0.0209438419327262
 50
273.3440654155862717
 51
356.6519666659373797
  0
ARC
  5
717B
  8
0
 10
2355.3817568607901194
 20
128.1871720615988863
 30
0.0
 40
0.0217811449893644
 50
185.2786888940804033
 51
264.7252790243713889
  0
ARC
  5
717C
  8
0
 10
2357.1805060963852156
 20
137.2428440571383987
 30
0.0
 40
0.2734966469030577
 50
93.3936260517148753
 51
110.6063739482926991
  0
ARC
  5
717D
  8
0
 10
2355.1588422932350113
 20
138.043617928078902
 30
0.0
 40
0.2087923288077063
 50
2.7404309262881541
 51
86.7846871140020539
  0
ARC
  5
717E
  8
0
 10
2357.2776684082409702
 20
138.3873218684954054
 30
0.0
 40
0.0420010416983761
 50
4.042186503404662
 51
86.5531976789010855
  0
ARC
  5
717F
  8
0
 10
2357.137285066730783
 20
137.1221760662180031
 30
0.0
 40
0.0393700787
 50
180.4999999999994884
 51
270.0
  0
ARC
  5
7180
  8
0
 10
2355.7052949038311453
 20
137.1257475594713924
 30
0.0
 40
0.04308727733392
 50
274.713281299908374
 51
354.7867187001099865
  0
ARC
  5
7181
  8
0
 10
2357.294261666372222
 20
137.0484955072440982
 30
0.0
 40
0.0344255978350001
 50
4.689371051897723
 51
85.3130667270946645
  0
ARC
  5
7182
  8
0
 10
2357.2950591108437948
 20
137.5490321253446098
 30
0.0
 40
0.0333731165518424
 50
276.3086785526185167
 51
354.257369124693696
  0
ARC
  5
7183
  8
0
 10
2355.393267831555022
 20
137.2023307630389013
 30
0.0
 40
0.0331037880488563
 50
185.4687114138239963
 51
264.0650652971975774
  0
ARC
  5
7184
  8
0
 10
2356.3382457710617928
 20
137.197981687921299
 30
0.0
 40
0.0286397125474937
 50
273.7840289103706937
 51
290.2159711061225948
  0
ARC
  5
7185
  8
0
 10
2355.7587893089380486
 20
136.048886916416194
 30
0.0
 40
0.483414423954314
 50
56.6906054373367425
 51
86.9685666723330115
  0
ARC
  5
7186
  8
0
 10
2355.5169206601981386
 20
137.3910242362991028
 30
0.0
 40
0.8641698122009833
 50
53.1919082183094076
 51
85.1356911598407606
  0
ARC
  5
7187
  8
0
 10
2356.5782640651527799
 20
138.385441102213008
 30
0.0
 40
0.0810828702806258
 50
3.3675029196574902
 51
32.7013662994492478
  0
ARC
  5
7188
  8
0
 10
2356.1126166621929769
 20
137.207128638344102
 30
0.0
 40
0.0782521281781596
 50
185.8324507606097029
 51
208.8217058766934997
  0
ARC
  5
7189
  8
0
 10
2356.5934646881200933
 20
137.0456632708045106
 30
0.0
 40
0.0711387810959025
 50
4.552652104961199
 51
31.4743156397407589
  0
ARC
  5
718A
  8
0
 10
2352.5443611550072092
 20
135.458001595826488
 30
0.0
 40
1.227996275652778
 50
125.4066200344306026
 51
139.6370676212686135
  0
ARC
  5
718B
  8
0
 10
2352.1241599282420793
 20
135.9151572254835116
 30
0.0
 40
0.6168361706864138
 50
91.9806128682722886
 51
118.1771461346998962
  0
ARC
  5
718C
  8
0
 10
2350.4535038523081312
 20
136.1867370273564006
 30
0.0
 40
0.3451143517981686
 50
76.5890787833351823
 51
87.9240912436238915
  0
ARC
  5
718D
  8
0
 10
2356.086931148693111
 20
128.1946639431176891
 30
0.0
 40
0.0633853596921419
 50
188.6159076840957027
 51
207.4110598940366117
  0
ARC
  5
718E
  8
0
 10
2356.627233144415186
 20
128.1863639940951032
 30
0.0
 40
0.0371651113182556
 50
325.816865825949094
 51
358.1561665959451943
  0
ENDSEC
  0
EOF
