  0
SECTION
  2
HEADER
  9
$ACADVER
  1
AC1009
  9
$INSBASE
 10
5617.0942038900548141
 20
403.3220293855757177
 30
0.0
  9
$EXTMIN
 10
5616.1561590026549311
 20
403.322029385575604
 30
0.0
  9
$EXTMAX
 10
5618.0322487774556066
 20
413.5859120301519738
 30
0.0
  9
$LIMMIN
 10
0.0
 20
0.0
  9
$LIMMAX
 10
11.6929133858000007
 20
8.2677165353999982
  9
$ORTHOMODE
 70
     0
  9
$REGENMODE
 70
     1
  9
$FILLMODE
 70
     1
  9
$QTEXTMODE
 70
     0
  9
$MIRRTEXT
 70
     0
  9
$DRAGMODE
 70
     2
  9
$LTSCALE
 40
0.6431102362
  9
$OSMODE
 70
  3839
  9
$ATTMODE
 70
     1
  9
$TEXTSIZE
 40
0.2
  9
$TRACEWID
 40
0.05
  9
$TEXTSTYLE
  7
STANDARD
  9
$CLAYER
  8
0
  9
$CELTYPE
  6
BYLAYER
  9
$CECOLOR
 62
   256
  9
$DIMSCALE
 40
1.0
  9
$DIMASZ
 40
0.1875
  9
$DIMEXO
 40
0.0625
  9
$DIMDLI
 40
0.4443307087
  9
$DIMRND
 40
0.0
  9
$DIMDLE
 40
0.0
  9
$DIMEXE
 40
0.125
  9
$DIMTP
 40
0.01
  9
$DIMTM
 40
0.01
  9
$DIMTXT
 40
2.0
  9
$DIMCEN
 40
0.1052362205
  9
$DIMTSZ
 40
0.0
  9
$DIMTOL
 70
     1
  9
$DIMLIM
 70
     0
  9
$DIMTIH
 70
     1
  9
$DIMTOH
 70
     1
  9
$DIMSE1
 70
     0
  9
$DIMSE2
 70
     0
  9
$DIMTAD
 70
     0
  9
$DIMZIN
 70
     0
  9
$DIMBLK
  1

  9
$DIMASO
 70
     1
  9
$DIMSHO
 70
     1
  9
$DIMPOST
  1
\X
  9
$DIMAPOST
  1

  9
$DIMALT
 70
     1
  9
$DIMALTD
 70
     2
  9
$DIMALTF
 40
25.3999999999999986
  9
$DIMLFAC
 40
1.0
  9
$DIMTOFL
 70
     0
  9
$DIMTVP
 40
0.0
  9
$DIMTIX
 70
     0
  9
$DIMSOXD
 70
     0
  9
$DIMSAH
 70
     0
  9
$DIMBLK1
  1

  9
$DIMBLK2
  1

  9
$DIMSTYLE
  2
STANDARD
  9
$DIMCLRD
 70
     0
  9
$DIMCLRE
 70
     0
  9
$DIMCLRT
 70
     0
  9
$DIMTFAC
 40
1.0
  9
$DIMGAP
 40
0.09
  9
$LUNITS
 70
     2
  9
$LUPREC
 70
     4
  9
$SKETCHINC
 40
0.1
  9
$FILLETRAD
 40
0.0
  9
$AUNITS
 70
     0
  9
$AUPREC
 70
     0
  9
$MENU
  1
.
  9
$ELEVATION
 40
0.0
  9
$PELEVATION
 40
0.0
  9
$THICKNESS
 40
0.0
  9
$LIMCHECK
 70
     0
  9
$BLIPMODE
 70
     0
  9
$CHAMFERA
 40
0.0
  9
$CHAMFERB
 40
0.0
  9
$SKPOLY
 70
     0
  9
$TDCREATE
 40
2458060.468368056230247
  9
$TDUPDATE
 40
2460443.8560185190290213
  9
$TDINDWG
 40
0.6442431713
  9
$TDUSRTIMER
 40
0.6442431713
  9
$USRTIMER
 70
     1
  9
$ANGBASE
 50
0.0
  9
$ANGDIR
 70
     0
  9
$PDMODE
 70
     0
  9
$PDSIZE
 40
0.3125
  9
$PLINEWID
 40
0.0
  9
$COORDS
 70
     1
  9
$SPLFRAME
 70
     0
  9
$SPLINETYPE
 70
     6
  9
$SPLINESEGS
 70
     8
  9
$ATTDIA
 70
     1
  9
$ATTREQ
 70
     1
  9
$HANDLING
 70
     1
  9
$HANDSEED
  5
2B611
  9
$SURFTAB1
 70
     6
  9
$SURFTAB2
 70
     6
  9
$SURFTYPE
 70
     6
  9
$SURFU
 70
     6
  9
$SURFV
 70
     6
  9
$UCSNAME
  2

  9
$UCSORG
 10
0.0
 20
0.0
 30
0.0
  9
$UCSXDIR
 10
1.0
 20
0.0
 30
0.0
  9
$UCSYDIR
 10
0.0
 20
1.0
 30
0.0
  9
$PUCSNAME
  2

  9
$PUCSORG
 10
0.0
 20
0.0
 30
0.0
  9
$PUCSXDIR
 10
1.0
 20
0.0
 30
0.0
  9
$PUCSYDIR
 10
0.0
 20
1.0
 30
0.0
  9
$USERI1
 70
     0
  9
$USERI2
 70
     0
  9
$USERI3
 70
     0
  9
$USERI4
 70
     0
  9
$USERI5
 70
     0
  9
$USERR1
 40
0.0
  9
$USERR2
 40
0.0
  9
$USERR3
 40
0.0
  9
$USERR4
 40
0.0
  9
$USERR5
 40
0.0
  9
$WORLDVIEW
 70
     1
  9
$SHADEDGE
 70
     3
  9
$SHADEDIF
 70
    70
  9
$TILEMODE
 70
     1
  9
$MAXACTVP
 70
    64
  9
$PLIMCHECK
 70
     0
  9
$PEXTMIN
 10
1.0000000000000000E+20
 20
1.0000000000000000E+20
 30
1.0000000000000000E+20
  9
$PEXTMAX
 10
-1.0000000000000000E+20
 20
-1.0000000000000000E+20
 30
-1.0000000000000000E+20
  9
$PLIMMIN
 10
0.0
 20
0.0
  9
$PLIMMAX
 10
12.0
 20
9.0
  9
$UNITMODE
 70
     0
  9
$VISRETAIN
 70
     1
  9
$PLINEGEN
 70
     0
  9
$PSLTSCALE
 70
     1
  0
ENDSEC
  0
SECTION
  2
TABLES
  0
TABLE
  2
VPORT
 70
     1
  0
VPORT
  2
*ACTIVE
 70
     0
 10
0.0
 20
0.0
 11
1.0
 21
1.0
 12
1705.7288474447429962
 22
275.8743656053247832
 13
0.0
 23
0.0
 14
1.0
 24
1.0
 15
0.0
 25
0.0
 16
0.0
 26
0.0
 36
60.4960186965801583
 17
3911.3653564453120453
 27
132.5796051025390057
 37
0.0
 40
10.3322325844959
 41
2.1211111111111101
 42
50.0
 43
0.0
 44
0.0
 50
0.0
 51
0.0
 71
     0
 72
   100
 73
     1
 74
     1
 75
     0
 76
     0
 77
     0
 78
     1
  0
ENDTAB
  0
TABLE
  2
LTYPE
 70
     2
  0
LTYPE
  2
CONTINUOUS
 70
     0
  3
Solid line
 72
    65
 73
     0
 40
0.0
  0
LTYPE
  2
PHANTOM2
 70
     0
  3
___ _ _ ___ _ _ ___ _ _ ___ _ _
 72
    65
 73
     6
 40
1.25
 49
0.625
 49
-0.125
 49
0.125
 49
-0.125
 49
0.125
 49
-0.125
  0
ENDTAB
  0
TABLE
  2
LAYER
 70
     2
  0
LAYER
  2
0
 70
     0
 62
   255
  6
CONTINUOUS
  0
LAYER
  2
DEFPOINTS
 70
     0
 62
     7
  6
CONTINUOUS
  0
ENDTAB
  0
TABLE
  2
STYLE
 70
     1
  0
STYLE
  2
STANDARD
 70
     0
 40
0.0
 41
0.8
 50
0.0
 71
     0
 42
0.2
  3
txt
  4

  0
ENDTAB
  0
TABLE
  2
VIEW
 70
     0
  0
ENDTAB
  0
TABLE
  2
UCS
 70
     0
  0
ENDTAB
  0
TABLE
  2
APPID
 70
    11
  0
APPID
  2
ACAD
 70
     0
  0
APPID
  2
ACAD_MLEADERVER
 70
     0
  0
APPID
  2
ACAD_EXEMPT_FROM_CAD_STANDARDS
 70
     0
  0
APPID
  2
ACAD_NAV_VCDISPLAY
 70
     0
  0
APPID
  2
ACAECLAYERSTANDARD
 70
     0
  0
APPID
  2
ACCMTRANSPARENCY
 70
     0
  0
APPID
  2
ACAD_DSTYLE_DIMJAG
 70
     0
  0
APPID
  2
ACAD_DSTYLE_DIMTALN
 70
     0
  0
APPID
  2
ACDBATTR
 70
     0
  0
APPID
  2
ACADANNOTATIVE
 70
     0
  0
APPID
  2
DCO15
 70
     0
  0
ENDTAB
  0
TABLE
  2
DIMSTYLE
 70
     1
  0
DIMSTYLE
  2
STANDARD
 70
     0
  3

  4

  5

  6

  7

 40
1.0
 41
0.1875
 42
0.0625
 43
0.38
 44
0.125
 45
0.0
 46
0.0
 47
0.01
 48
0.01
140
0.15625
141
0.09
142
0.0
143
25.3999999999999986
144
1.0
145
0.0
146
1.0
147
0.09
 71
     1
 72
     0
 73
     1
 74
     1
 75
     0
 76
     0
 77
     0
 78
     4
170
     0
171
     2
172
     0
173
     0
174
     0
175
     0
176
     0
177
     0
178
     0
  0
ENDTAB
  0
ENDSEC
  0
SECTION
  2
BLOCKS
  0
BLOCK
  8
0
  2
$MODEL_SPACE
 70
     0
 10
0.0
 20
0.0
 30
0.0
  3
$MODEL_SPACE
  1

  0
ENDBLK
  5
21
  8
0
  0
BLOCK
 67
     1
  8
0
  2
$PAPER_SPACE
 70
     0
 10
0.0
 20
0.0
 30
0.0
  3
$PAPER_SPACE
  1

  0
ENDBLK
  5
1D
 67
     1
  8
0
  0
BLOCK
  8
0
  2
_FILLED
 70
     0
 10
0.0
 20
0.0
 30
0.0
  3
_FILLED
  1

  0
SOLID
  5
2A961
  8
0
  6
BYBLOCK
 62
     0
 10
0.0
 20
0.0
 30
0.0
 11
-1.0
 21
0.1666666667
 31
0.0
 12
-1.0
 22
-0.1666666667
 32
0.0
 13
-1.0
 23
-0.1666666667
 33
0.0
  0
ENDBLK
  5
2A962
  8
0
  6
BYBLOCK
 62
     0
  0
ENDSEC
  0
SECTION
  2
ENTITIES
  0
ATTDEF
  5
26A5B
  8
DEFPOINTS
 10
5617.0943451230250503
 20
403.3258122909714984
 30
0.0
 40
0.001
  1
K-23475T-4
  3

  2
MODELNUMBER
 70
     0
1001
ACDBATTR
1070
     0
1070
     1
  0
ATTDEF
  5
26A5C
  8
DEFPOINTS
 10
5617.0942193133678302
 20
403.3241454505923116
 30
0.0
 40
0.001
  1
PARALLEL
  3

  2
TRADENAME
 70
     0
1001
ACDBATTR
1070
     0
1070
     1
  0
ATTDEF
  5
26A5D
  8
DEFPOINTS
 10
5617.0943451230250503
 20
403.3224789576381113
 30
0.0
 40
0.001
  1
BATHROOM SINK FAUCET
  3

  2
PRODUCT
 70
     0
1001
ACDBATTR
1070
     0
1070
     1
  0
LINE
  5
2B268
  8
0
 10
5616.1788495593546031
 20
403.3220293855757177
 30
0.0
 11
5618.0095582207559346
 21
403.3220293855757177
 31
0.0
  0
LINE
  5
2B269
  8
0
 10
5616.1591645199559935
 20
403.3417144249758053
 30
0.0
 11
5616.1591645199559935
 21
412.207856158175673
 31
0.0
  0
LINE
  5
2B26A
  8
0
 10
5616.419347618854772
 20
412.2783787354757123
 30
0.0
 11
5616.4197627726553037
 21
412.3259506463758157
 31
0.0
  0
LINE
  5
2B26B
  8
0
 10
5616.1906606598568032
 20
411.6881711187755855
 30
0.0
 11
5617.9977471202555535
 21
411.6881711187755855
 31
0.0
  0
LINE
  5
2B26C
  8
0
 10
5616.1906605829553882
 20
412.2393522211756931
 30
0.0
 11
5617.9977471971551495
 21
412.2393522211756931
 31
0.0
  0
LINE
  5
2B26D
  8
0
 10
5616.1857387719555845
 20
412.3259506463758157
 30
0.0
 11
5618.0026690081558627
 21
412.3259506463758157
 31
0.0
  0
ARC
  5
2B26E
  8
0
 10
5616.1807073871677858
 20
403.3435722527881921
 30
0.0
 40
0.021622827102815
 50
184.928915931692103
 51
265.0710840683057086
  0
ARC
  5
2B26F
  8
0
 10
5616.3774833876514094
 20
412.2812398257324276
 30
0.0
 40
0.0419618838046472
 50
273.4096356694361134
 51
356.0903643305185255
  0
ARC
  5
2B270
  8
0
 10
5616.1945902592897255
 20
412.2039264818401989
 30
0.0
 40
0.0356430268574493
 50
96.3297799342411452
 51
173.670220065724294
  0
ARC
  5
2B271
  8
0
 10
5616.193321588465551
 20
411.7223281937830279
 30
0.0
 40
0.034260565000094
 50
184.4546395565145076
 51
265.5455003352453218
  0
ARC
  5
2B272
  8
0
 10
5616.1880171547709324
 20
412.3577927725323775
 30
0.0
 40
0.0319235340529701
 50
183.6676272472855942
 51
265.9073203815923989
  0
LINE
  5
2B273
  8
0
 10
5618.0292432601554538
 20
403.3417144249755211
 30
0.0
 11
5618.0292432601554538
 21
412.207856158175673
 31
0.0
  0
LINE
  5
2B274
  8
0
 10
5617.7690601612557657
 20
412.2783787354757123
 30
0.0
 11
5617.768645007455234
 21
412.3259506463758157
 31
0.0
  0
ARC
  5
2B275
  8
0
 10
5618.0077003929427519
 20
403.3435722527881921
 30
0.0
 40
0.021622827102815
 50
274.9289159316941777
 51
355.0710840683079255
  0
ARC
  5
2B276
  8
0
 10
5617.8109243924600378
 20
412.2812398257324276
 30
0.0
 40
0.0419618838046472
 50
183.9096356694815029
 51
266.5903643305638866
  0
ARC
  5
2B277
  8
0
 10
5617.9938175208199027
 20
412.2039264818401989
 30
0.0
 40
0.0356430268574493
 50
6.3297799342756607
 51
83.6702200657588548
  0
ARC
  5
2B278
  8
0
 10
5617.9950861916449867
 20
411.7223281937830279
 30
0.0
 40
0.034260565000094
 50
274.4544996647546782
 51
355.5453604434854924
  0
ARC
  5
2B279
  8
0
 10
5618.0003999913133157
 20
412.3577636951628165
 30
0.0
 40
0.0318938632115769
 50
274.0796250966540129
 51
356.9534166261460086
  0
CIRCLE
  5
2B27A
  8
0
 10
5617.0942038900548141
 20
412.8889427723755716
 30
0.0
 40
0.1318897636999998
  0
LINE
  5
2B27B
  8
0
 10
5616.9622818098059724
 20
411.3929995306618821
 30
0.0
 11
5616.9908293901053185
 21
411.4059637000619887
 31
0.0
  0
LINE
  5
2B27C
  8
0
 10
5616.993782731005922
 20
411.4073048858618904
 30
0.0
 11
5617.022334279405186
 21
411.4202708571618814
 31
0.0
  0
LINE
  5
2B27D
  8
0
 10
5617.0252882953045628
 20
411.4216123495618831
 30
0.0
 11
5617.0568112601058601
 21
411.4359277152619825
 31
0.0
  0
LINE
  5
2B27E
  8
0
 10
5617.0597693030058508
 20
411.4372710364618797
 30
0.0
 11
5617.0775655947054474
 21
411.4453527770619985
 31
0.0
  0
LINE
  5
2B27F
  8
0
 10
5617.0843846923053206
 20
411.4443205361619107
 30
0.0
 11
5617.0665884006048145
 21
411.4362387955619056
 31
0.0
  0
LINE
  5
2B280
  8
0
 10
5617.0636303577048238
 20
411.4348954744618823
 30
0.0
 11
5617.0321073930053899
 21
411.4205801087618966
 31
0.0
  0
LINE
  5
2B281
  8
0
 10
5617.0291533771051036
 20
411.4192386163618949
 30
0.0
 11
5617.0006018287058396
 21
411.4062726450619039
 31
0.0
  0
LINE
  5
2B282
  8
0
 10
5616.9976484878061456
 20
411.4049314591619009
 30
0.0
 11
5616.9691009074058456
 21
411.3919672898618956
 31
0.0
  0
LINE
  5
2B283
  8
0
 10
5617.0202960381056982
 20
411.3862869199618899
 30
0.0
 11
5617.0350799952057059
 21
411.4007530712618745
 31
0.0
  0
LINE
  5
2B284
  8
0
 10
5617.050291425605792
 20
411.399684416961918
 30
0.0
 11
5617.0355074684057399
 21
411.3852182655620027
 31
0.0
  0
LINE
  5
2B285
  8
0
 10
5616.8436043667052218
 20
411.4499978609619006
 30
0.0
 11
5616.8436043667052218
 21
411.4355331821619188
 31
0.0
  0
LINE
  5
2B286
  8
0
 10
5616.8693454149051831
 20
411.433066960258202
 30
0.0
 11
5616.8693454149051831
 21
411.4181221004619147
 31
0.0
  0
LINE
  5
2B287
  8
0
 10
5616.8938645391053797
 20
411.4520623426619181
 30
0.0
 11
5616.8938645391053797
 21
411.4629960745112953
 31
0.0
  0
LINE
  5
2B288
  8
0
 10
5616.9028547364059705
 20
411.4666391002620003
 30
0.0
 11
5616.9028547364059705
 21
411.4788656297887997
 31
0.0
  0
LINE
  5
2B289
  8
0
 10
5616.9067861276053009
 20
411.4214058299069734
 30
0.0
 11
5616.9067861276053009
 21
411.4047034575618795
 31
0.0
  0
LINE
  5
2B28A
  8
0
 10
5616.922728282405842
 20
411.4782411300619742
 30
0.0
 11
5616.922728282405842
 21
411.4931768854947904
 31
0.0
  0
LINE
  5
2B28B
  8
0
 10
5616.9239066110058047
 20
411.4499978609619006
 30
0.0
 11
5616.9239066110058047
 21
411.4263813011619959
 31
0.0
  0
LINE
  5
2B28C
  8
0
 10
5616.9568743177051147
 20
411.4520623426619181
 30
0.0
 11
5616.9568743177051147
 21
411.4706884160149798
 31
0.0
  0
LINE
  5
2B28D
  8
0
 10
5616.9583121895057047
 20
411.4896864062619102
 30
0.0
 11
5616.9583121895057047
 21
411.5084346765951864
 31
0.0
  0
LINE
  5
2B28E
  8
0
 10
5616.9622818098059724
 20
411.4114441790281944
 30
0.0
 11
5616.9622818098059724
 21
411.3929995306618821
 31
0.0
  0
LINE
  5
2B28F
  8
0
 10
5616.9772963514051298
 20
411.4699808889620272
 30
0.0
 11
5616.9772963514051298
 21
411.4919183811110202
 31
0.0
  0
LINE
  5
2B290
  8
0
 10
5616.993782731005922
 20
411.4264752236620097
 30
0.0
 11
5616.993782731005922
 21
411.4073048858618904
 31
0.0
  0
LINE
  5
2B291
  8
0
 10
5616.9976484878061456
 20
411.4971287443618735
 30
0.0
 11
5616.9976484878061456
 21
411.5136778382619127
 31
0.0
  0
LINE
  5
2B292
  8
0
 10
5617.0202954589249202
 20
411.4021226804351272
 30
0.0
 11
5617.0202960381056982
 21
411.3862869199618899
 31
0.0
  0
LINE
  5
2B293
  8
0
 10
5617.0252882953045628
 20
411.4499978609619006
 30
0.0
 11
5617.0252882953045628
 21
411.4216123495618831
 31
0.0
  0
LINE
  5
2B294
  8
0
 10
5617.0258282790064186
 20
411.4520623426619181
 30
0.0
 11
5617.0258282790064186
 21
411.4802026338759902
 31
0.0
  0
LINE
  5
2B295
  8
0
 10
5617.0291533771051036
 20
411.4828215872619239
 30
0.0
 11
5617.0291533771051036
 21
411.4991569658619142
 31
0.0
  0
LINE
  5
2B296
  8
0
 10
5617.050291425605792
 20
411.5023757866620144
 30
0.0
 11
5617.050291425605792
 21
411.5176604382435244
 31
0.0
  0
LINE
  5
2B297
  8
0
 10
5617.0597693030058508
 20
411.4499978609619006
 30
0.0
 11
5617.0597693030058508
 21
411.4372710364618797
 31
0.0
  0
LINE
  5
2B298
  8
0
 10
5617.0636303577048238
 20
411.4671647291618797
 30
0.0
 11
5617.0636303577048238
 21
411.4845025916894201
 31
0.0
  0
LINE
  5
2B299
  8
0
 10
5617.0673369482055932
 20
411.4520623426619181
 30
0.0
 11
5617.0673369482055932
 21
411.4613525103845859
 31
0.0
  0
LINE
  5
2B29A
  8
0
 10
5617.0843846923053206
 20
411.4577396673619205
 30
0.0
 11
5617.084387616305321
 21
411.4672616555122886
 31
0.0
  0
LINE
  5
2B29B
  8
0
 10
5617.0906763310058523
 20
411.3834262055618751
 30
0.0
 11
5617.0906763310058523
 21
411.3983959388619951
 31
0.0
  0
LINE
  5
2B29C
  8
0
 10
5617.0906763310058523
 20
411.3999446068618795
 30
0.0
 11
5617.0906763310058523
 21
411.4150976999345062
 31
0.0
  0
LINE
  5
2B29D
  8
0
 10
5617.0906763310058523
 20
411.4871437825618727
 30
0.0
 11
5617.0906763310058523
 21
411.5021155966618949
 31
0.0
  0
LINE
  5
2B29E
  8
0
 10
5617.0906763310058523
 20
411.5036642646620066
 30
0.0
 11
5617.0906763310058523
 21
411.5186339979620129
 31
0.0
  0
LINE
  5
2B29F
  8
0
 10
5617.0350799952057059
 20
411.5013071322620135
 30
0.0
 11
5617.0202960381056982
 21
411.515773283661872
 31
0.0
  0
LINE
  5
2B2A0
  8
0
 10
5617.0355074684057399
 20
411.5168419379618854
 30
0.0
 11
5617.050291425605792
 21
411.5023757866620144
 31
0.0
  0
LINE
  5
2B2A1
  8
0
 10
5616.9583121895057047
 20
411.4123737973619086
 30
0.0
 11
5616.9179216675047428
 21
411.4017838395619719
 31
0.0
  0
LINE
  5
2B2A2
  8
0
 10
5616.9067861276053009
 20
411.4047034575618795
 30
0.0
 11
5616.9471766497063072
 21
411.415293415361873
 31
0.0
  0
LINE
  5
2B2A3
  8
0
 10
5616.9772963514051298
 20
411.4320793145619177
 30
0.0
 11
5616.9278436189051718
 21
411.424593407561872
 31
0.0
  0
LINE
  5
2B2A4
  8
0
 10
5616.922728282405842
 20
411.4238190734619138
 30
0.0
 11
5616.8732824228063691
 21
411.4163342068620182
 31
0.0
  0
LINE
  5
2B2A5
  8
0
 10
5616.8693454149051831
 20
411.4181221004619147
 30
0.0
 11
5616.9187912745055655
 21
411.4256069671619116
 31
0.0
  0
LINE
  5
2B2A6
  8
0
 10
5616.9239066110058047
 20
411.4263813011619959
 30
0.0
 11
5616.9733593435057628
 21
411.4338672081619279
 31
0.0
  0
LINE
  5
2B2A7
  8
0
 10
5616.9028547364059705
 20
411.4354211032620015
 30
0.0
 11
5616.8476802572058659
 21
411.4315449097618966
 31
0.0
  0
LINE
  5
2B2A8
  8
0
 10
5616.8436043667052218
 20
411.4355331821619188
 30
0.0
 11
5616.8987788459053263
 21
411.4394093757618975
 31
0.0
  0
LINE
  5
2B2A9
  8
0
 10
5617.0673369482055932
 20
411.4499978609619006
 30
0.0
 11
5617.0317443647054461
 21
411.4499978609619006
 31
0.0
  0
LINE
  5
2B2AA
  8
0
 10
5617.0258282790064186
 20
411.4499978609619006
 30
0.0
 11
5616.9627823495056873
 21
411.4499978609619006
 31
0.0
  0
LINE
  5
2B2AB
  8
0
 10
5616.9568743177051147
 20
411.4499978609619006
 30
0.0
 11
5616.8997712209047677
 21
411.4499978609619006
 31
0.0
  0
LINE
  5
2B2AC
  8
0
 10
5616.8938645391053797
 20
411.4499978609619006
 30
0.0
 11
5616.8367693783056893
 21
411.4499978609619006
 31
0.0
  0
LINE
  5
2B2AD
  8
0
 10
5616.8367693783056893
 20
411.4520623426619181
 30
0.0
 11
5616.8938645391053797
 21
411.4520623426619181
 31
0.0
  0
LINE
  5
2B2AE
  8
0
 10
5616.8997712209047677
 20
411.4520623426619181
 30
0.0
 11
5616.9568743177051147
 21
411.4520623426619181
 31
0.0
  0
LINE
  5
2B2AF
  8
0
 10
5616.9627823495056873
 20
411.4520623426619181
 30
0.0
 11
5617.0258282790064186
 21
411.4520623426619181
 31
0.0
  0
LINE
  5
2B2B0
  8
0
 10
5617.0317443647054461
 20
411.4520623426619181
 30
0.0
 11
5617.0673369482055932
 21
411.4520623426619181
 31
0.0
  0
LINE
  5
2B2B1
  8
0
 10
5616.8987788459053263
 20
411.4626508278619212
 30
0.0
 11
5616.8436043667052218
 21
411.4665270213619124
 31
0.0
  0
LINE
  5
2B2B2
  8
0
 10
5616.8476802572058659
 20
411.4705152938619221
 30
0.0
 11
5616.9028547364059705
 21
411.4666391002620003
 31
0.0
  0
LINE
  5
2B2B3
  8
0
 10
5616.9733593435057628
 20
411.4681929953619033
 30
0.0
 11
5616.9239066110058047
 21
411.4756789023620058
 31
0.0
  0
LINE
  5
2B2B4
  8
0
 10
5616.9187912745055655
 20
411.4764532364620209
 30
0.0
 11
5616.8693454149051831
 21
411.4839381030619165
 31
0.0
  0
LINE
  5
2B2B5
  8
0
 10
5616.8732824228063691
 20
411.4857259966619267
 30
0.0
 11
5616.922728282405842
 21
411.4782411300619742
 31
0.0
  0
LINE
  5
2B2B6
  8
0
 10
5616.9278436189051718
 20
411.4774667960618899
 30
0.0
 11
5616.9772963514051298
 21
411.4699808889620272
 31
0.0
  0
LINE
  5
2B2B7
  8
0
 10
5616.9471766497063072
 20
411.4867667881619013
 30
0.0
 11
5616.9067861276053009
 21
411.4973567459618948
 31
0.0
  0
LINE
  5
2B2B8
  8
0
 10
5616.9179216675047428
 20
411.5002763640619037
 30
0.0
 11
5616.9583121895057047
 21
411.4896864062619102
 31
0.0
  0
LINE
  5
2B2B9
  8
0
 10
5617.0775655947054474
 20
411.4567074265618771
 30
0.0
 11
5617.0597693030058508
 21
411.4647891670618947
 31
0.0
  0
LINE
  5
2B2BA
  8
0
 10
5617.0568112601058601
 20
411.4661324882619056
 30
0.0
 11
5617.0252882953045628
 21
411.4804478539618913
 31
0.0
  0
LINE
  5
2B2BB
  8
0
 10
5617.022334279405186
 20
411.481789346361893
 30
0.0
 11
5616.993782731005922
 21
411.494755317661884
 31
0.0
  0
LINE
  5
2B2BC
  8
0
 10
5616.9908293901053185
 20
411.4960965035618869
 30
0.0
 11
5616.9622818098059724
 21
411.5090606728618923
 31
0.0
  0
LINE
  5
2B2BD
  8
0
 10
5616.9691009074058456
 20
411.5100929137619801
 30
0.0
 11
5616.9976484878061456
 21
411.4971287443618735
 31
0.0
  0
LINE
  5
2B2BE
  8
0
 10
5617.0006018287058396
 20
411.4957875585619149
 30
0.0
 11
5617.0291533771051036
 21
411.4828215872619239
 31
0.0
  0
LINE
  5
2B2BF
  8
0
 10
5617.0321073930053899
 20
411.4814800948619791
 30
0.0
 11
5617.0636303577048238
 21
411.4671647291618797
 31
0.0
  0
LINE
  5
2B2C0
  8
0
 10
5617.0665884006048145
 20
411.4658214079619825
 30
0.0
 11
5617.0843846923053206
 21
411.4577396673619205
 31
0.0
  0
ARC
  5
2B2C1
  8
0
 10
5617.0940387047057811
 20
412.3370247324618845
 30
0.0
 40
0.9536044546999999
 50
266.4810335414260862
 51
269.7979768028674243
  0
ARC
  5
2B2C2
  8
0
 10
5617.0944658261059885
 20
412.1507089309619118
 30
0.0
 40
0.7523225361
 50
266.633806344293987
 51
269.7113963928111957
  0
ARC
  5
2B2C3
  8
0
 10
5617.0208433825473548
 20
411.80270311459401
 30
0.0
 40
0.4221637121261841
 50
242.9850943806424084
 51
265.6840856906130739
  0
ARC
  5
2B2C4
  8
0
 10
5617.1099104311351766
 20
412.9703513950663023
 30
0.0
 40
1.5932039380608409
 50
265.6501984521078157
 51
269.4351425634545194
  0
ARC
  5
2B2C5
  8
0
 10
5616.9036570560128894
 20
411.5199588047419184
 30
0.0
 40
0.1194825737122828
 50
219.8700032251076948
 51
231.3833709678550861
  0
ARC
  5
2B2C6
  8
0
 10
5616.9475359040070543
 20
411.5585433569224278
 30
0.0
 40
0.1779003739812901
 50
202.5635600671193117
 51
220.348353172810306
  0
ARC
  5
2B2C7
  8
0
 10
5616.9404355778724494
 20
411.5553503609431232
 30
0.0
 40
0.1701185155517916
 50
188.0678038855479883
 51
202.4880719749349112
  0
ARC
  5
2B2C8
  8
0
 10
5616.8241412299612421
 20
411.5238903697518822
 30
0.0
 40
0.0526892266126192
 50
105.1387050065115005
 51
171.7233949778633928
  0
ARC
  5
2B2C9
  8
0
 10
5617.0031610232008461
 20
411.1104632694400038
 30
0.0
 40
0.5027198880726828
 50
95.7592825660778431
 51
112.5490281829205941
  0
ARC
  5
2B2CA
  8
0
 10
5617.1175608706689673
 20
410.0689627245807856
 30
0.0
 40
1.5504711060423739
 50
90.8631615436436419
 51
96.1032720304049235
  0
ARC
  5
2B2CB
  8
0
 10
5616.8402854426885824
 20
411.4531242182944766
 30
0.0
 40
0.0274295167933807
 50
191.9292605610177134
 51
222.6141788863633906
  0
ARC
  5
2B2CC
  8
0
 10
5616.837954530396928
 20
411.4503809778132108
 30
0.0
 40
0.0246803506421062
 50
134.7998582280712867
 51
186.81004282733781
  0
ARC
  5
2B2CD
  8
0
 10
5616.925772708871591
 20
411.3408197256118228
 30
0.0
 40
0.1649746038620919
 50
101.621457895917203
 51
129.6225335626998003
  0
ARC
  5
2B2CE
  8
0
 10
5617.0620181884796693
 20
410.8284940113376251
 30
0.0
 40
0.6949021128202232
 50
94.0470008763752503
 51
104.1161669664944043
  0
ARC
  5
2B2CF
  8
0
 10
5617.0961122567587154
 20
410.4342912968486985
 30
0.0
 40
1.090545618599968
 50
90.100263035139136
 51
94.3721268206043646
  0
ARC
  5
2B2D0
  8
0
 10
5617.0801727756161199
 20
412.1594762517923982
 30
0.0
 40
0.7755043304529511
 50
261.7654742026185204
 51
265.5717821266189844
  0
ARC
  5
2B2D1
  8
0
 10
5617.0836924211444057
 20
412.0059924070155262
 30
0.0
 40
0.607188456329003
 50
261.853262132443092
 51
265.4078985396650978
  0
ARC
  5
2B2D2
  8
0
 10
5617.0539226850341947
 20
411.8117057733978754
 30
0.0
 40
0.4106183068737481
 50
256.5353622457300844
 51
261.1612378620322943
  0
ARC
  5
2B2D3
  8
0
 10
5617.042015515687126
 20
411.9120490933290171
 30
0.0
 40
0.5251379936345132
 50
256.3313143045343168
 51
261.266786099113574
  0
ARC
  5
2B2D4
  8
0
 10
5616.9981946811103626
 20
411.6009110306360981
 30
0.0
 40
0.1925012691625402
 50
246.9190881487488127
 51
254.6314436096571967
  0
ARC
  5
2B2D5
  8
0
 10
5616.9749424616629767
 20
411.655106583250074
 30
0.0
 40
0.2595130270845076
 50
246.9375718976774863
 51
254.7737276780829063
  0
ARC
  5
2B2D6
  8
0
 10
5616.9078784249131786
 20
411.5045122998891998
 30
0.0
 40
0.094594182787892
 50
230.4773356250705945
 51
245.9614795098275977
  0
ARC
  5
2B2D7
  8
0
 10
5616.8608019119183155
 20
411.4525067371945966
 30
0.0
 40
0.0241631358017502
 50
185.9598045864049993
 51
224.6244338624474892
  0
ARC
  5
2B2D8
  8
0
 10
5616.8646371077456934
 20
411.4477412228778235
 30
0.0
 40
0.0282007521245663
 50
138.2297502188937131
 51
171.1860110262628041
  0
ARC
  5
2B2D9
  8
0
 10
5616.9083418777890984
 20
411.3967998644932891
 30
0.0
 40
0.0954662073134718
 50
114.1096669564093986
 51
129.451517563050686
  0
ARC
  5
2B2DA
  8
0
 10
5616.9738862216299822
 20
411.249996240602286
 30
0.0
 40
0.2562999068082793
 50
105.1770749249285046
 51
113.1116254992813026
  0
ARC
  5
2B2DB
  8
0
 10
5617.0424307597795632
 20
410.9879141508939142
 30
0.0
 40
0.5272736969934987
 50
98.7432154018021748
 51
103.658683945960604
  0
ARC
  5
2B2DC
  8
0
 10
5617.0816250116067749
 20
410.7294954712115782
 30
0.0
 40
0.7886659884528712
 50
94.4599900667396071
 51
98.2027536039748838
  0
ARC
  5
2B2DD
  8
0
 10
5617.0917966370607246
 20
410.6340578877494067
 30
0.0
 40
0.8845768196248007
 50
90.072564444917532
 51
93.6484251916671582
  0
ARC
  5
2B2DE
  8
0
 10
5617.0924877473726156
 20
410.8133503761071097
 30
0.0
 40
0.6903162651720169
 50
90.1503464963903838
 51
93.5044505981685035
  0
ARC
  5
2B2DF
  8
0
 10
5617.0835282881616877
 20
410.8975381590266807
 30
0.0
 40
0.6057096747881161
 50
94.5877609125631125
 51
98.1510784153164337
  0
ARC
  5
2B2E0
  8
0
 10
5617.0544304026116151
 20
411.0877788758110114
 30
0.0
 40
0.4132413022969317
 50
98.8534511138268357
 51
103.449948778062506
  0
ARC
  5
2B2E1
  8
0
 10
5616.9999267696903189
 20
411.2961821970512801
 30
0.0
 40
0.1977499975421058
 50
105.4710566902652999
 51
112.9784115513549949
  0
ARC
  5
2B2E2
  8
0
 10
5616.9484800721002102
 20
411.4103973043644942
 30
0.0
 40
0.072421066464076
 50
114.2015043056448036
 51
129.0501875531886071
  0
ARC
  5
2B2E3
  8
0
 10
5616.9123221671270585
 20
411.4499304766399064
 30
0.0
 40
0.0185803359742307
 50
136.7947712409076075
 51
173.4115006443290099
  0
ARC
  5
2B2E4
  8
0
 10
5616.9121152995421653
 20
411.4520337160096801
 30
0.0
 40
0.0183639582415651
 50
186.3649767861303985
 51
223.428751320371191
  0
ARC
  5
2B2E5
  8
0
 10
5616.9499174837283135
 20
411.4939970187776908
 30
0.0
 40
0.0751401361727157
 50
231.2199064686649024
 51
245.5284017991791927
  0
ARC
  5
2B2E6
  8
0
 10
5617.0922332828386061
 20
412.0663393953151967
 30
0.0
 40
0.666396607266784
 50
262.0966255496359736
 51
269.866135497697428
  0
ARC
  5
2B2E7
  8
0
 10
5617.0889249445626774
 20
411.8481805903484769
 30
0.0
 40
0.4330864317013563
 50
262.0671153037368981
 51
270.2317027679220018
  0
ARC
  5
2B2E8
  8
0
 10
5617.0515233081850965
 20
411.6233914348684948
 30
0.0
 40
0.205207135570254
 50
248.7943054554870912
 51
261.8224106169578818
  0
ARC
  5
2B2E9
  8
0
 10
5617.0338595412777067
 20
411.6945509046282723
 30
0.0
 40
0.290028319339179
 50
248.5593994972759049
 51
262.0573165995813838
  0
ARC
  5
2B2EA
  8
0
 10
5616.9798359538872319
 20
411.4569750210652046
 30
0.0
 40
0.0239982811716214
 50
196.9020139921788086
 51
254.3429871380722034
  0
ARC
  5
2B2EB
  8
0
 10
5616.9352712206309661
 20
411.4621366681515156
 30
0.0
 40
0.0375180039514201
 50
198.8775195229218866
 51
252.3674816492955983
  0
ARC
  5
2B2EC
  8
0
 10
5616.9356465488099275
 20
411.4395399615851261
 30
0.0
 40
0.0379980154763608
 50
107.9966789206700071
 51
160.7583196645273063
  0
ARC
  5
2B2ED
  8
0
 10
5617.0363749467951493
 20
411.1979154401952883
 30
0.0
 40
0.2998799921639272
 50
98.1653809510571165
 51
111.2179027895389964
  0
ARC
  5
2B2EE
  8
0
 10
5617.0920994594043805
 20
410.8376256661048274
 30
0.0
 40
0.664491454502077
 50
90.1227093482662553
 51
97.9145294778185189
  0
ARC
  5
2B2EF
  8
0
 10
5617.0930556581160999
 20
411.0132501464760821
 30
0.0
 40
0.4738996091158672
 50
90.287668467573738
 51
97.7495702389558119
  0
ARC
  5
2B2F0
  8
0
 10
5617.0515057271031765
 20
411.2787358235855777
 30
0.0
 40
0.2051382618446802
 50
98.1753928575109285
 51
111.2078910671959022
  0
ARC
  5
2B2F1
  8
0
 10
5616.9813852695060632
 20
411.4435018297363058
 30
0.0
 40
0.0259628416803865
 50
108.0068840820841984
 51
160.7481126893360965
  0
ARC
  5
2B2F2
  8
0
 10
5616.9893868179597121
 20
411.440979507844304
 30
0.0
 40
0.0288205997393536
 50
107.5369138160973961
 51
157.3844665478752063
  0
ARC
  5
2B2F3
  8
0
 10
5617.0522708569860697
 20
411.2911777680478735
 30
0.0
 40
0.1911837442271765
 50
98.1134818768854018
 51
111.9837027224087933
  0
ARC
  5
2B2F4
  8
0
 10
5616.9935927357591936
 20
411.464725433835099
 30
0.0
 40
0.0341493968297871
 50
205.548114831738701
 51
256.9480936349179956
  0
ARC
  5
2B2F5
  8
0
 10
5617.053981251240657
 20
411.620240454665975
 30
0.0
 40
0.2006898349632272
 50
250.1637835513126902
 51
261.7801607395028896
  0
ARC
  5
2B2F6
  8
0
 10
5617.1380231349621681
 20
412.5442074161256869
 30
0.0
 40
1.128608200505216
 50
264.6150770445524927
 51
267.7748797109376824
  0
ARC
  5
2B2F7
  8
0
 10
5617.0948782012346783
 20
411.6868689827330741
 30
0.0
 40
0.2539036758215935
 50
262.9307042721472953
 51
269.847835089682178
  0
ARC
  5
2B2F8
  8
0
 10
5617.1140782913680596
 20
411.9748429264079164
 30
0.0
 40
0.5406937205932991
 50
264.9611382015834238
 51
267.893491550475801
  0
ARC
  5
2B2F9
  8
0
 10
5617.0944449542294024
 20
411.542206783981328
 30
0.0
 40
0.0984018616802027
 50
264.1320273017055911
 51
269.8596370705030267
  0
ARC
  5
2B2FA
  8
0
 10
5617.073875317256352
 20
411.5421189027836135
 30
0.0
 40
0.1075534767514532
 50
250.7676533603230951
 51
260.8710772440550159
  0
ARC
  5
2B2FB
  8
0
 10
5617.0453474889427525
 20
411.4629598955929737
 30
0.0
 40
0.0234310456096205
 50
213.586766413859209
 51
252.8729111738188919
  0
ARC
  5
2B2FC
  8
0
 10
5617.048091411958012
 20
411.4354757879261797
 30
0.0
 40
0.0277625806952191
 50
107.5890276116757036
 51
143.3130275804805933
  0
ARC
  5
2B2FD
  8
0
 10
5617.0742809423891231
 20
411.3578214347401172
 30
0.0
 40
0.1097108659800879
 50
99.1624282611216188
 51
108.3718788078828936
  0
ARC
  5
2B2FE
  8
0
 10
5617.0749372193122326
 20
411.5314422082594774
 30
0.0
 40
0.0953848797389638
 50
250.4029276521503959
 51
260.8500958333791004
  0
ARC
  5
2B2FF
  8
0
 10
5617.0488311499893825
 20
411.4610783291601024
 30
0.0
 40
0.0203650437464736
 50
212.9626721765361026
 51
253.1994075341602013
  0
ARC
  5
2B300
  8
0
 10
5617.0524931268946602
 20
411.4361124882013883
 30
0.0
 40
0.0261707659361789
 50
108.2066776371577959
 51
142.4500308818128076
  0
ARC
  5
2B301
  8
0
 10
5617.076068456430221
 20
411.3655910111817207
 30
0.0
 40
0.1005282872249096
 50
99.3308407896934966
 51
108.4123823436785017
  0
ARC
  5
2B302
  8
0
 10
5617.1042101204348
 20
411.0673065716616179
 30
0.0
 40
0.4019120093536649
 50
91.4266157763307064
 51
95.794844861452674
  0
ARC
  5
2B303
  8
0
 10
5617.0978873072263013
 20
410.9613268545404026
 30
0.0
 40
0.5242960905173277
 50
90.4025320767159002
 51
97.2075111677721821
  0
ARC
  5
2B304
  8
0
 10
5617.0970169684869688
 20
411.2004771296097942
 30
0.0
 40
0.2670832900005178
 50
90.6034840359667442
 51
96.5418629903440717
  0
ARC
  5
2B305
  8
0
 10
5617.0944558576347845
 20
411.3596494324434047
 30
0.0
 40
0.0986058951456772
 50
90.1464080275937079
 51
95.8621570865364703
  0
ARC
  5
2B306
  8
0
 10
5617.0795988559266334
 20
411.4386456393223739
 30
0.0
 40
0.01817587162926
 50
96.4228908485790015
 51
132.4250801577159962
  0
ARC
  5
2B307
  8
0
 10
5617.0792276943366232
 20
411.4625972527567797
 30
0.0
 40
0.0173243908169901
 50
226.6574459265123949
 51
264.4945830672257898
  0
LINE
  5
2B308
  8
0
 10
5617.2261259703045653
 20
411.3929995306618821
 30
0.0
 11
5617.1975783900052193
 21
411.4059637000619887
 31
0.0
  0
LINE
  5
2B309
  8
0
 10
5617.1946250491046158
 20
411.4073048858618904
 30
0.0
 11
5617.1660735007053518
 21
411.4202708571618814
 31
0.0
  0
LINE
  5
2B30A
  8
0
 10
5617.1631194848059749
 20
411.4216123495618831
 30
0.0
 11
5617.1315965200055871
 21
411.4359277152619825
 31
0.0
  0
LINE
  5
2B30B
  8
0
 10
5617.1286384771046869
 20
411.4372710364618797
 30
0.0
 11
5617.1108421854059998
 21
411.4453527770619985
 31
0.0
  0
LINE
  5
2B30C
  8
0
 10
5617.1040230878052171
 20
411.4443205361619107
 30
0.0
 11
5617.1218193795048137
 21
411.4362387955619056
 31
0.0
  0
LINE
  5
2B30D
  8
0
 10
5617.1247774224057139
 20
411.4348954744618823
 30
0.0
 11
5617.1563003871051478
 21
411.4205801087618966
 31
0.0
  0
LINE
  5
2B30E
  8
0
 10
5617.1592544030063436
 20
411.4192386163618949
 30
0.0
 11
5617.1878059514056076
 21
411.4062726450619039
 31
0.0
  0
LINE
  5
2B30F
  8
0
 10
5617.1907592923062111
 20
411.4049314591619009
 30
0.0
 11
5617.2193068727046921
 21
411.3919672898618956
 31
0.0
  0
LINE
  5
2B310
  8
0
 10
5617.168111742005749
 20
411.3862869199618899
 30
0.0
 11
5617.1533277849048318
 21
411.4007530712618745
 31
0.0
  0
LINE
  5
2B311
  8
0
 10
5617.1381163545056552
 20
411.399684416961918
 30
0.0
 11
5617.1529003117047978
 21
411.3852182655620027
 31
0.0
  0
LINE
  5
2B312
  8
0
 10
5617.3448034134062254
 20
411.4499978609619006
 30
0.0
 11
5617.3448034134062254
 21
411.4355331821619188
 31
0.0
  0
LINE
  5
2B313
  8
0
 10
5617.3190623652053546
 20
411.433066960258202
 30
0.0
 11
5617.3190623652053546
 21
411.4181221004619147
 31
0.0
  0
LINE
  5
2B314
  8
0
 10
5617.2945432410051581
 20
411.4520623426619181
 30
0.0
 11
5617.2945432410051581
 21
411.4629960745112953
 31
0.0
  0
LINE
  5
2B315
  8
0
 10
5617.2855530437045672
 20
411.4666391002620003
 30
0.0
 11
5617.2855530437045672
 21
411.4788656297887997
 31
0.0
  0
LINE
  5
2B316
  8
0
 10
5617.2816216525052369
 20
411.4214058299069734
 30
0.0
 11
5617.2816216525052369
 21
411.4047034575618795
 31
0.0
  0
LINE
  5
2B317
  8
0
 10
5617.2656794977046957
 20
411.4782411300619742
 30
0.0
 11
5617.2656794977046957
 21
411.4931768854947904
 31
0.0
  0
LINE
  5
2B318
  8
0
 10
5617.2645011691056425
 20
411.4499978609619006
 30
0.0
 11
5617.2645011691056425
 21
411.4263813011619959
 31
0.0
  0
LINE
  5
2B319
  8
0
 10
5617.2315334624054231
 20
411.4520623426619181
 30
0.0
 11
5617.2315334624054231
 21
411.4706884160149798
 31
0.0
  0
LINE
  5
2B31A
  8
0
 10
5617.2300955906057425
 20
411.4896864062619102
 30
0.0
 11
5617.2300955906057425
 21
411.5084346765951864
 31
0.0
  0
LINE
  5
2B31B
  8
0
 10
5617.2261259703045653
 20
411.4114441790281944
 30
0.0
 11
5617.2261259703045653
 21
411.3929995306618821
 31
0.0
  0
LINE
  5
2B31C
  8
0
 10
5617.2111114287054079
 20
411.4699808889620272
 30
0.0
 11
5617.2111114287054079
 21
411.4919183811110202
 31
0.0
  0
LINE
  5
2B31D
  8
0
 10
5617.1946250491046158
 20
411.4264752236620097
 30
0.0
 11
5617.1946250491046158
 21
411.4073048858618904
 31
0.0
  0
LINE
  5
2B31E
  8
0
 10
5617.1907592923062111
 20
411.4971287443618735
 30
0.0
 11
5617.1907592923062111
 21
411.5136778382619127
 31
0.0
  0
LINE
  5
2B31F
  8
0
 10
5617.1681123211874365
 20
411.4021226804351272
 30
0.0
 11
5617.168111742005749
 21
411.3862869199618899
 31
0.0
  0
LINE
  5
2B320
  8
0
 10
5617.1631194848059749
 20
411.4499978609619006
 30
0.0
 11
5617.1631194848059749
 21
411.4216123495618831
 31
0.0
  0
LINE
  5
2B321
  8
0
 10
5617.1625795011059381
 20
411.4520623426619181
 30
0.0
 11
5617.1625795011059381
 21
411.4802026338759902
 31
0.0
  0
LINE
  5
2B322
  8
0
 10
5617.1592544030063436
 20
411.4828215872619239
 30
0.0
 11
5617.1592544030063436
 21
411.4991569658619142
 31
0.0
  0
LINE
  5
2B323
  8
0
 10
5617.1381163545056552
 20
411.5023757866620144
 30
0.0
 11
5617.1381163545056552
 21
411.5176604382435244
 31
0.0
  0
LINE
  5
2B324
  8
0
 10
5617.1286384771046869
 20
411.4499978609619006
 30
0.0
 11
5617.1286384771046869
 21
411.4372710364618797
 31
0.0
  0
LINE
  5
2B325
  8
0
 10
5617.1247774224057139
 20
411.4671647291618797
 30
0.0
 11
5617.1247774224057139
 21
411.4845025916894201
 31
0.0
  0
LINE
  5
2B326
  8
0
 10
5617.121070831905854
 20
411.4520623426619181
 30
0.0
 11
5617.121070831905854
 21
411.4613525103845859
 31
0.0
  0
LINE
  5
2B327
  8
0
 10
5617.1040230878052171
 20
411.4577396673619205
 30
0.0
 11
5617.1040201638061262
 21
411.4672616555122886
 31
0.0
  0
LINE
  5
2B328
  8
0
 10
5617.0977314491046855
 20
411.3834262055618751
 30
0.0
 11
5617.0977314491046855
 21
411.3983959388619951
 31
0.0
  0
LINE
  5
2B329
  8
0
 10
5617.0977314491046855
 20
411.3999446068618795
 30
0.0
 11
5617.0977314491046855
 21
411.4150976999345062
 31
0.0
  0
LINE
  5
2B32A
  8
0
 10
5617.0977314491046855
 20
411.4871437825618727
 30
0.0
 11
5617.0977314491046855
 21
411.5021155966618949
 31
0.0
  0
LINE
  5
2B32B
  8
0
 10
5617.0977314491046855
 20
411.5036642646620066
 30
0.0
 11
5617.0977314491046855
 21
411.5186339979620129
 31
0.0
  0
LINE
  5
2B32C
  8
0
 10
5617.1533277849048318
 20
411.5013071322620135
 30
0.0
 11
5617.168111742005749
 21
411.515773283661872
 31
0.0
  0
LINE
  5
2B32D
  8
0
 10
5617.1529003117047978
 20
411.5168419379618854
 30
0.0
 11
5617.1381163545056552
 21
411.5023757866620144
 31
0.0
  0
LINE
  5
2B32E
  8
0
 10
5617.2300955906057425
 20
411.4123737973619086
 30
0.0
 11
5617.2704861126048854
 21
411.4017838395619719
 31
0.0
  0
LINE
  5
2B32F
  8
0
 10
5617.2816216525052369
 20
411.4047034575618795
 30
0.0
 11
5617.24123113040514
 21
411.415293415361873
 31
0.0
  0
LINE
  5
2B330
  8
0
 10
5617.2111114287054079
 20
411.4320793145619177
 30
0.0
 11
5617.260564161205366
 21
411.424593407561872
 31
0.0
  0
LINE
  5
2B331
  8
0
 10
5617.2656794977046957
 20
411.4238190734619138
 30
0.0
 11
5617.3151253573059876
 21
411.4163342068620182
 31
0.0
  0
LINE
  5
2B332
  8
0
 10
5617.3190623652053546
 20
411.4181221004619147
 30
0.0
 11
5617.2696165056049722
 21
411.4256069671619116
 31
0.0
  0
LINE
  5
2B333
  8
0
 10
5617.2645011691056425
 20
411.4263813011619959
 30
0.0
 11
5617.2150484366047749
 21
411.4338672081619279
 31
0.0
  0
LINE
  5
2B334
  8
0
 10
5617.2855530437045672
 20
411.4354211032620015
 30
0.0
 11
5617.3407275229055813
 21
411.4315449097618966
 31
0.0
  0
LINE
  5
2B335
  8
0
 10
5617.3448034134062254
 20
411.4355331821619188
 30
0.0
 11
5617.2896289342052114
 21
411.4394093757618975
 31
0.0
  0
LINE
  5
2B336
  8
0
 10
5617.121070831905854
 20
411.4499978609619006
 30
0.0
 11
5617.1566634154060011
 21
411.4499978609619006
 31
0.0
  0
LINE
  5
2B337
  8
0
 10
5617.1625795011059381
 20
411.4499978609619006
 30
0.0
 11
5617.2256254306057599
 21
411.4499978609619006
 31
0.0
  0
LINE
  5
2B338
  8
0
 10
5617.2315334624054231
 20
411.4499978609619006
 30
0.0
 11
5617.2886365592048605
 21
411.4499978609619006
 31
0.0
  0
LINE
  5
2B339
  8
0
 10
5617.2945432410051581
 20
411.4499978609619006
 30
0.0
 11
5617.3516384018057579
 21
411.4499978609619006
 31
0.0
  0
LINE
  5
2B33A
  8
0
 10
5617.3516384018057579
 20
411.4520623426619181
 30
0.0
 11
5617.2945432410051581
 21
411.4520623426619181
 31
0.0
  0
LINE
  5
2B33B
  8
0
 10
5617.2886365592048605
 20
411.4520623426619181
 30
0.0
 11
5617.2315334624054231
 21
411.4520623426619181
 31
0.0
  0
LINE
  5
2B33C
  8
0
 10
5617.2256254306057599
 20
411.4520623426619181
 30
0.0
 11
5617.1625795011059381
 21
411.4520623426619181
 31
0.0
  0
LINE
  5
2B33D
  8
0
 10
5617.1566634154060011
 20
411.4520623426619181
 30
0.0
 11
5617.121070831905854
 21
411.4520623426619181
 31
0.0
  0
LINE
  5
2B33E
  8
0
 10
5617.2896289342052114
 20
411.4626508278619212
 30
0.0
 11
5617.3448034134062254
 21
411.4665270213619124
 31
0.0
  0
LINE
  5
2B33F
  8
0
 10
5617.3407275229055813
 20
411.4705152938619221
 30
0.0
 11
5617.2855530437045672
 21
411.4666391002620003
 31
0.0
  0
LINE
  5
2B340
  8
0
 10
5617.2150484366047749
 20
411.4681929953619033
 30
0.0
 11
5617.2645011691056425
 21
411.4756789023620058
 31
0.0
  0
LINE
  5
2B341
  8
0
 10
5617.2696165056049722
 20
411.4764532364620209
 30
0.0
 11
5617.3190623652053546
 21
411.4839381030619165
 31
0.0
  0
LINE
  5
2B342
  8
0
 10
5617.3151253573059876
 20
411.4857259966619267
 30
0.0
 11
5617.2656794977046957
 21
411.4782411300619742
 31
0.0
  0
LINE
  5
2B343
  8
0
 10
5617.260564161205366
 20
411.4774667960618899
 30
0.0
 11
5617.2111114287054079
 21
411.4699808889620272
 31
0.0
  0
LINE
  5
2B344
  8
0
 10
5617.24123113040514
 20
411.4867667881619013
 30
0.0
 11
5617.2816216525052369
 21
411.4973567459618948
 31
0.0
  0
LINE
  5
2B345
  8
0
 10
5617.2704861126048854
 20
411.5002763640619037
 30
0.0
 11
5617.2300955906057425
 21
411.4896864062619102
 31
0.0
  0
LINE
  5
2B346
  8
0
 10
5617.1108421854059998
 20
411.4567074265618771
 30
0.0
 11
5617.1286384771046869
 21
411.4647891670618947
 31
0.0
  0
LINE
  5
2B347
  8
0
 10
5617.1315965200055871
 20
411.4661324882619056
 30
0.0
 11
5617.1631194848059749
 21
411.4804478539618913
 31
0.0
  0
LINE
  5
2B348
  8
0
 10
5617.1660735007053518
 20
411.481789346361893
 30
0.0
 11
5617.1946250491046158
 21
411.494755317661884
 31
0.0
  0
LINE
  5
2B349
  8
0
 10
5617.1975783900052193
 20
411.4960965035618869
 30
0.0
 11
5617.2261259703045653
 21
411.5090606728618923
 31
0.0
  0
LINE
  5
2B34A
  8
0
 10
5617.2193068727046921
 20
411.5100929137619801
 30
0.0
 11
5617.1907592923062111
 21
411.4971287443618735
 31
0.0
  0
LINE
  5
2B34B
  8
0
 10
5617.1878059514056076
 20
411.4957875585619149
 30
0.0
 11
5617.1592544030063436
 21
411.4828215872619239
 31
0.0
  0
LINE
  5
2B34C
  8
0
 10
5617.1563003871051478
 20
411.4814800948619791
 30
0.0
 11
5617.1247774224057139
 21
411.4671647291618797
 31
0.0
  0
LINE
  5
2B34D
  8
0
 10
5617.1218193795048137
 20
411.4658214079619825
 30
0.0
 11
5617.1040230878052171
 21
411.4577396673619205
 31
0.0
  0
ARC
  5
2B34E
  8
0
 10
5617.0943690754056661
 20
412.3370247324618845
 30
0.0
 40
0.9536044546999999
 50
270.2020231970803934
 51
273.5189664585738001
  0
ARC
  5
2B34F
  8
0
 10
5617.0939419540063682
 20
412.1507089309619118
 30
0.0
 40
0.7523225361
 50
270.2886036071888043
 51
273.366193655706013
  0
ARC
  5
2B350
  8
0
 10
5617.1675643975650019
 20
411.80270311459401
 30
0.0
 40
0.4221637121261841
 50
274.3159143093869261
 51
297.0149056193575916
  0
ARC
  5
2B351
  8
0
 10
5617.0784973489771801
 20
412.9703513950655065
 30
0.0
 40
1.5932039380601319
 50
270.564857436493412
 51
274.3498015478921843
  0
ARC
  5
2B352
  8
0
 10
5617.2847507240976483
 20
411.5199588047419184
 30
0.0
 40
0.1194825737122828
 50
308.6166290321448855
 51
320.1299967748922768
  0
ARC
  5
2B353
  8
0
 10
5617.2408718761025739
 20
411.5585433569224278
 30
0.0
 40
0.1779003739812901
 50
319.6516468271897224
 51
337.4364399328807167
  0
ARC
  5
2B354
  8
0
 10
5617.2479722022399073
 20
411.5553503609431232
 30
0.0
 40
0.1701185155517916
 50
337.5119280250651173
 51
351.9321961144519832
  0
ARC
  5
2B355
  8
0
 10
5617.3642665501511146
 20
411.5238903697518822
 30
0.0
 40
0.0526892266126192
 50
8.2766050221365681
 51
74.8612949934885421
  0
ARC
  5
2B356
  8
0
 10
5617.1852467569096916
 20
411.1104632694400038
 30
0.0
 40
0.5027198880726828
 50
67.4509718170793633
 51
84.2407174339221569
  0
ARC
  5
2B357
  8
0
 10
5617.0708469094415705
 20
410.0689627245807856
 30
0.0
 40
1.5504711060423739
 50
83.8967279695950907
 51
89.136838456408455
  0
ARC
  5
2B358
  8
0
 10
5617.3481223374210458
 20
411.4531242182944766
 30
0.0
 40
0.0274295167933807
 50
317.3858211136366094
 51
348.0707394389822866
  0
ARC
  5
2B359
  8
0
 10
5617.3504532497127002
 20
411.4503809778132108
 30
0.0
 40
0.0246803506421062
 50
353.1899571726622185
 51
45.2001417719286422
  0
ARC
  5
2B35A
  8
0
 10
5617.2626350712398562
 20
411.3408197256118228
 30
0.0
 40
0.1649746038620919
 50
50.3774664373001784
 51
78.3785421040828112
  0
ARC
  5
2B35B
  8
0
 10
5617.1263895916308684
 20
410.8284940113376251
 30
0.0
 40
0.6949021128202232
 50
75.8838330335055247
 51
85.9529991236247639
  0
ARC
  5
2B35C
  8
0
 10
5617.0922955233518223
 20
410.4342912968486985
 30
0.0
 40
1.090545618599968
 50
85.6278731793956354
 51
89.8997369648608498
  0
ARC
  5
2B35D
  8
0
 10
5617.1082350044953273
 20
412.1594762517923982
 30
0.0
 40
0.7755043304529511
 50
274.4282178733810156
 51
278.2345257973814796
  0
ARC
  5
2B35E
  8
0
 10
5617.104715358966132
 20
412.0059924070155262
 30
0.0
 40
0.607188456329003
 50
274.5921014603347885
 51
278.146737867556908
  0
ARC
  5
2B35F
  8
0
 10
5617.1344850950772525
 20
411.8117057733978754
 30
0.0
 40
0.4106183068737481
 50
278.8387621379677057
 51
283.4646377542699156
  0
ARC
  5
2B360
  8
0
 10
5617.1463922644243212
 20
411.9120490933290171
 30
0.0
 40
0.5251379936345132
 50
278.7332139008349259
 51
283.6686856954656832
  0
ARC
  5
2B361
  8
0
 10
5617.1902130990010846
 20
411.6009110306360981
 30
0.0
 40
0.1925012691625402
 50
285.3685563903428033
 51
293.0809118512510736
  0
ARC
  5
2B362
  8
0
 10
5617.21346531844938
 20
411.655106583250074
 30
0.0
 40
0.2595130270845076
 50
285.2262723219170084
 51
293.0624281023224853
  0
ARC
  5
2B363
  8
0
 10
5617.2805293551982686
 20
411.5045122998891998
 30
0.0
 40
0.094594182787892
 50
294.0385204901724023
 51
309.5226643749294908
  0
ARC
  5
2B364
  8
0
 10
5617.3276058681940412
 20
411.4525067371945966
 30
0.0
 40
0.0241631358017502
 50
315.3755661375524255
 51
354.0401954135949723
  0
ARC
  5
2B365
  8
0
 10
5617.3237706723639349
 20
411.4477412228778235
 30
0.0
 40
0.0282007521245663
 50
8.8139889737371249
 51
41.7702497811062585
  0
ARC
  5
2B366
  8
0
 10
5617.2800659023223488
 20
411.3967998644932891
 30
0.0
 40
0.0954662073134718
 50
50.5484824369492287
 51
65.890333043590573
  0
ARC
  5
2B367
  8
0
 10
5617.214521558479646
 20
411.249996240602286
 30
0.0
 40
0.2562999068082793
 50
66.888374500718669
 51
74.8229250750715096
  0
ARC
  5
2B368
  8
0
 10
5617.145977020331884
 20
410.9879141508939142
 30
0.0
 40
0.5272736969934987
 50
76.3413160540394244
 51
81.2567845981978536
  0
ARC
  5
2B369
  8
0
 10
5617.1067827685046723
 20
410.7294954712115782
 30
0.0
 40
0.7886659884528712
 50
81.7972463960251162
 51
85.5400099332084665
  0
ARC
  5
2B36A
  8
0
 10
5617.0966111430498131
 20
410.6340578877494067
 30
0.0
 40
0.8845768196248007
 50
86.351574808332856
 51
89.9274355550824538
  0
ARC
  5
2B36B
  8
0
 10
5617.0959200327379222
 20
410.8133503761071097
 30
0.0
 40
0.6903162651720169
 50
86.4955494018314965
 51
89.8496535035575192
  0
ARC
  5
2B36C
  8
0
 10
5617.10487949194885
 20
410.8975381590266807
 30
0.0
 40
0.6057096747881161
 50
81.8489215846835805
 51
85.4122390874369017
  0
ARC
  5
2B36D
  8
0
 10
5617.1339773774980131
 20
411.0877788758110114
 30
0.0
 40
0.4132413022969317
 50
76.5500512219374372
 51
81.1465488861731643
  0
ARC
  5
2B36E
  8
0
 10
5617.1884810104229473
 20
411.2961821970512801
 30
0.0
 40
0.1977499975421058
 50
67.0215884486449482
 51
74.5289433097346858
  0
ARC
  5
2B36F
  8
0
 10
5617.239927708013056
 20
411.4103973043644942
 30
0.0
 40
0.072421066464076
 50
50.9498124468113218
 51
65.7984956943551964
  0
ARC
  5
2B370
  8
0
 10
5617.2760856129852982
 20
411.4499304766399064
 30
0.0
 40
0.0185803359742307
 50
6.5884993556709333
 51
43.2052287590923427
  0
ARC
  5
2B371
  8
0
 10
5617.2762924805683724
 20
411.4520337160096801
 30
0.0
 40
0.0183639582415651
 50
316.571248679628809
 51
353.6350232138696015
  0
ARC
  5
2B372
  8
0
 10
5617.2384902963831337
 20
411.4939970187776908
 30
0.0
 40
0.0751401361727157
 50
294.4715982008207789
 51
308.7800935313350124
  0
ARC
  5
2B373
  8
0
 10
5617.0961744972710221
 20
412.0663393953151967
 30
0.0
 40
0.666396607266784
 50
270.133864502302572
 51
277.9033744503640264
  0
ARC
  5
2B374
  8
0
 10
5617.0994828355478603
 20
411.8481805903484769
 30
0.0
 40
0.4330864317013563
 50
269.7682972320779982
 51
277.9328846962632156
  0
ARC
  5
2B375
  8
0
 10
5617.1368844719272602
 20
411.6233914348684948
 30
0.0
 40
0.205207135570254
 50
278.1775893830420046
 51
291.2056945445128804
  0
ARC
  5
2B376
  8
0
 10
5617.1545482388337405
 20
411.6945509046282723
 30
0.0
 40
0.290028319339179
 50
277.9426834004186162
 51
291.4406005027241235
  0
ARC
  5
2B377
  8
0
 10
5617.2085718262251248
 20
411.4569750210652046
 30
0.0
 40
0.0239982811716214
 50
285.6570128619277966
 51
343.0979860078211914
  0
ARC
  5
2B378
  8
0
 10
5617.2531365594786621
 20
411.4621366681515156
 30
0.0
 40
0.0375180039514201
 50
287.632518350704288
 51
341.122480477074987
  0
ARC
  5
2B379
  8
0
 10
5617.2527612312997007
 20
411.4395399615851261
 30
0.0
 40
0.0379980154763608
 50
19.2416803354726902
 51
72.0033210793299361
  0
ARC
  5
2B37A
  8
0
 10
5617.1520328333172074
 20
411.1979154401952883
 30
0.0
 40
0.2998799921639272
 50
68.7820972104610036
 51
81.8346190489429262
  0
ARC
  5
2B37B
  8
0
 10
5617.0963083207070667
 20
410.8376256661048274
 30
0.0
 40
0.664491454502077
 50
82.0854705221814953
 51
89.8772906517858559
  0
ARC
  5
2B37C
  8
0
 10
5617.0953521219944378
 20
411.0132501464760821
 30
0.0
 40
0.4738996091158672
 50
82.2504297610441739
 51
89.7123315324783732
  0
ARC
  5
2B37D
  8
0
 10
5617.1369020530082707
 20
411.2787358235855777
 30
0.0
 40
0.2051382618446802
 50
68.792108932804112
 51
81.8246071424890857
  0
ARC
  5
2B37E
  8
0
 10
5617.207022510605384
 20
411.4435018297363058
 30
0.0
 40
0.0259628416803865
 50
19.2518873106669801
 51
71.9931159179188143
  0
ARC
  5
2B37F
  8
0
 10
5617.1990209621508257
 20
411.440979507844304
 30
0.0
 40
0.0288205997393536
 50
22.6155334521247404
 51
72.4630861839026181
  0
ARC
  5
2B380
  8
0
 10
5617.1361369231253775
 20
411.2911777680478735
 30
0.0
 40
0.1911837442271765
 50
68.0162972775911783
 51
81.8865181231145982
  0
ARC
  5
2B381
  8
0
 10
5617.1948150443531631
 20
411.464725433835099
 30
0.0
 40
0.0341493968297871
 50
283.0519063650820044
 51
334.4518851682582863
  0
ARC
  5
2B382
  8
0
 10
5617.1344265288698807
 20
411.620240454665975
 30
0.0
 40
0.2006898349632272
 50
278.2198392604971104
 51
289.8362164486873098
  0
ARC
  5
2B383
  8
0
 10
5617.0503846451501886
 20
412.5442074161256869
 30
0.0
 40
1.128608200505216
 50
272.2251202890623176
 51
275.3849229554475073
  0
ARC
  5
2B384
  8
0
 10
5617.0935295788767689
 20
411.6868689827330741
 30
0.0
 40
0.2539036758215935
 50
270.152164910317822
 51
277.0692957278527047
  0
ARC
  5
2B385
  8
0
 10
5617.0743294887415686
 20
411.9748429264079164
 30
0.0
 40
0.5406937205932991
 50
272.106508449524199
 51
275.0388617984166899
  0
ARC
  5
2B386
  8
0
 10
5617.0939628258820449
 20
411.542206783981328
 30
0.0
 40
0.0984018616802027
 50
270.1403629294969733
 51
275.8679726982944089
  0
ARC
  5
2B387
  8
0
 10
5617.1145324628560047
 20
411.5421189027836135
 30
0.0
 40
0.1075534767514532
 50
279.1289227559449841
 51
289.2323466396769049
  0
ARC
  5
2B388
  8
0
 10
5617.1430602911677852
 20
411.4629598955929737
 30
0.0
 40
0.0234310456096205
 50
287.1270888261810796
 51
326.413233586140791
  0
ARC
  5
2B389
  8
0
 10
5617.1403163681534352
 20
411.4354757879261797
 30
0.0
 40
0.0277625806952191
 50
36.6869724195193712
 51
72.4109723883242822
  0
ARC
  5
2B38A
  8
0
 10
5617.1141268377214146
 20
411.3578214347401172
 30
0.0
 40
0.1097108659800879
 50
71.6281211921170922
 51
80.837571738878367
  0
ARC
  5
2B38B
  8
0
 10
5617.1134705607992146
 20
411.5314422082594774
 30
0.0
 40
0.0953848797389638
 50
279.1499041665693994
 51
289.5970723478495756
  0
ARC
  5
2B38C
  8
0
 10
5617.1395766301229742
 20
411.4610783291601024
 30
0.0
 40
0.0203650437464736
 50
286.8005924658398271
 51
327.0373278234638974
  0
ARC
  5
2B38D
  8
0
 10
5617.135914653216787
 20
411.4361124882013883
 30
0.0
 40
0.0261707659361789
 50
37.5499691181872279
 51
71.7933223628422184
  0
ARC
  5
2B38E
  8
0
 10
5617.1123393236812262
 20
411.3655910111817207
 30
0.0
 40
0.1005282872249096
 50
71.5876176563214841
 51
80.669159210306546
  0
ARC
  5
2B38F
  8
0
 10
5617.0841976596766472
 20
411.0673065716616179
 30
0.0
 40
0.4019120093536649
 50
84.205155138547326
 51
88.5733842237213906
  0
ARC
  5
2B390
  8
0
 10
5617.0905204728860554
 20
410.9613268545404026
 30
0.0
 40
0.5242960905173277
 50
82.7924888322278179
 51
89.5974679232319886
  0
ARC
  5
2B391
  8
0
 10
5617.0913908116226594
 20
411.2004771296097942
 30
0.0
 40
0.2670832900005178
 50
83.4581370096559141
 51
89.396515964085367
  0
ARC
  5
2B392
  8
0
 10
5617.0939519224757532
 20
411.3596494324434047
 30
0.0
 40
0.0986058951456772
 50
84.1378429134635439
 51
89.8535919724062779
  0
ARC
  5
2B393
  8
0
 10
5617.1088089241839043
 20
411.4386456393223739
 30
0.0
 40
0.01817587162926
 50
47.5749198422840109
 51
83.5771091514210127
  0
ARC
  5
2B394
  8
0
 10
5617.109180085773005
 20
411.4625972527567797
 30
0.0
 40
0.0173243908169901
 50
275.5054169327740965
 51
313.3425540734875767
  0
ARC
  5
2B395
  8
0
 10
5616.9857968339192666
 20
412.5126474707009265
 30
0.0
 40
1.109114837143784
 50
255.8389939651916052
 51
263.7885002466475726
  0
ARC
  5
2B396
  8
0
 10
5616.7844272338306837
 20
411.7844010117535163
 30
0.0
 40
0.3541461330065777
 50
226.9269030517347119
 51
258.6044485806692137
  0
ARC
  5
2B397
  8
0
 10
5616.2294144975357995
 20
411.3091468967573974
 30
0.0
 40
0.3807400405561866
 50
34.665022498024058
 51
84.5583861161362051
  0
ARC
  5
2B398
  8
0
 10
5616.5811912958470202
 20
411.5505413402976842
 30
0.0
 40
0.0459188499574619
 50
151.8017707178599949
 51
212.7457593140640881
  0
ARC
  5
2B399
  8
0
 10
5616.7129236687533194
 20
411.3942139246140073
 30
0.0
 40
0.2476818649768945
 50
100.3217858949237069
 51
134.0473572671103
  0
ARC
  5
2B39A
  8
0
 10
5616.9862641309582614
 20
410.2947039234636009
 30
0.0
 40
1.380249155877969
 50
93.2640820242857131
 51
103.308242385388894
  0
ARC
  5
2B39B
  8
0
 10
5617.1294950215778954
 20
407.8533479451626818
 30
0.0
 40
3.8258019258969771
 50
90.5285327382709823
 51
93.3238696769182781
  0
ARC
  5
2B39C
  8
0
 10
5617.2026109461921806
 20
412.5126474707009265
 30
0.0
 40
1.109114837143784
 50
276.2114997533004725
 51
284.1610060348083948
  0
ARC
  5
2B39D
  8
0
 10
5617.4039805462807635
 20
411.7844010117535163
 30
0.0
 40
0.3541461330065777
 50
281.3955514193302179
 51
313.0730969482652881
  0
ARC
  5
2B39E
  8
0
 10
5617.9589934427658591
 20
411.3091467241401915
 30
0.0
 40
0.3807402704924039
 50
95.4416348030985233
 51
145.3349698477846061
  0
ARC
  5
2B39F
  8
0
 10
5617.607216484262608
 20
411.5505413402976842
 30
0.0
 40
0.0459188499574619
 50
327.2542406859358834
 51
28.1982292821399803
  0
ARC
  5
2B3A0
  8
0
 10
5617.4754841113572184
 20
411.3942139246140073
 30
0.0
 40
0.2476818649768945
 50
45.9526427328897284
 51
79.6782141050762931
  0
ARC
  5
2B3A1
  8
0
 10
5617.2021436491522763
 20
410.2947039234636009
 30
0.0
 40
1.380249155877969
 50
76.6917576146111202
 51
86.7359179757142869
  0
ARC
  5
2B3A2
  8
0
 10
5617.0589127585326423
 20
407.8533479451626818
 30
0.0
 40
3.8258019258969771
 50
86.6761303230817362
 51
89.4714672617811431
  0
LINE
  5
2B3E3
  8
0
 10
5618.0322487774556066
 20
412.3560686046537853
 30
0.0
 11
5618.0217774279053629
 21
413.5467811114755818
 31
0.0
  0
ARC
  5
2B3E4
  8
0
 10
5617.9822849607780881
 20
413.5464178927683179
 30
0.0
 40
0.039494137383791
 50
0.5269438385015425
 51
94.1412451237072361
  0
LINE
  5
2B3E5
  8
0
 10
5617.9794328740063065
 20
413.5858089131755833
 30
0.0
 11
5616.2089749061051407
 21
413.5858089131755833
 31
0.0
  0
ARC
  5
2B3E6
  8
0
 10
5616.2061818375168514
 20
413.546353858782993
 30
0.0
 40
0.0395537930087248
 50
85.9507211419217469
 51
179.3810925404899024
  0
LINE
  5
2B3E7
  8
0
 10
5616.1666303521051304
 20
413.546781109475603
 30
0.0
 11
5616.1561590026558406
 21
412.3557506730755904
 31
0.0
  0
ARC
  5
2B3E8
  8
0
 10
5616.200738141704278
 20
413.4441383816064217
 30
0.0
 40
0.0355865791195788
 50
189.9296512907845909
 51
265.8846593627193897
  0
ARC
  5
2B3E9
  8
0
 10
5616.1975107372718412
 20
413.3936065031289218
 30
0.0
 40
0.0150521332018152
 50
87.4352778480835156
 51
150.013718015432687
  0
ARC
  5
2B3EA
  8
0
 10
5616.3110797108747647
 20
413.3278881642207807
 30
0.0
 40
0.1462649724258013
 50
149.9507755839545098
 51
179.4775132623304046
  0
ARC
  5
2B3EB
  8
0
 10
5617.9877080977776131
 20
413.4440482327170798
 30
0.0
 40
0.035493916978988
 50
274.0638612878306049
 51
350.1913307247559146
  0
ARC
  5
2B3EC
  8
0
 10
5617.990897042837787
 20
413.3936065031289218
 30
0.0
 40
0.0150521332018152
 50
29.9862819845673094
 51
92.5647221519164844
  0
ARC
  5
2B3ED
  8
0
 10
5617.8773005724669929
 20
413.3278766803726967
 30
0.0
 40
0.1462945240220403
 50
0.526885354471583
 51
30.0477250080346394
  0
LINE
  5
2B3EE
  8
0
 10
5617.9902234915061854
 20
413.4086435587756796
 30
0.0
 11
5616.1981842886061713
 21
413.4086435587756796
 31
0.0
  0
ENDSEC
  0
EOF
