  0
SECTION
  2
HEADER
  9
$ACADVER
  1
AC1009
  9
$INSBASE
 10
2275.6903230301168151
 20
122.614869215128607
 30
0.0
  9
$EXTMIN
 10
2269.246080247556165
 20
116.8668007112286062
 30
0.0
  9
$EXTMAX
 10
2282.1345658126779199
 20
123.6187692151285944
 30
0.0
  9
$LIMMIN
 10
0.0
 20
0.0
  9
$LIMMAX
 10
11.6929133858000007
 20
8.2677165353999982
  9
$ORTHOMODE
 70
     1
  9
$REGENMODE
 70
     1
  9
$FILLMODE
 70
     1
  9
$QTEXTMODE
 70
     0
  9
$MIRRTEXT
 70
     0
  9
$DRAGMODE
 70
     2
  9
$LTSCALE
 40
0.6431102362
  9
$OSMODE
 70
  2039
  9
$ATTMODE
 70
     1
  9
$TEXTSIZE
 40
0.2
  9
$TRACEWID
 40
0.05
  9
$TEXTSTYLE
  7
STANDARD
  9
$CLAYER
  8
0
  9
$CELTYPE
  6
BYLAYER
  9
$CECOLOR
 62
   256
  9
$DIMSCALE
 40
1.0
  9
$DIMASZ
 40
0.1875
  9
$DIMEXO
 40
0.0625
  9
$DIMDLI
 40
0.4443307087
  9
$DIMRND
 40
0.0
  9
$DIMDLE
 40
0.0
  9
$DIMEXE
 40
0.125
  9
$DIMTP
 40
0.01
  9
$DIMTM
 40
0.01
  9
$DIMTXT
 40
2.0
  9
$DIMCEN
 40
0.1052362205
  9
$DIMTSZ
 40
0.0
  9
$DIMTOL
 70
     1
  9
$DIMLIM
 70
     0
  9
$DIMTIH
 70
     1
  9
$DIMTOH
 70
     1
  9
$DIMSE1
 70
     0
  9
$DIMSE2
 70
     0
  9
$DIMTAD
 70
     0
  9
$DIMZIN
 70
     0
  9
$DIMBLK
  1

  9
$DIMASO
 70
     1
  9
$DIMSHO
 70
     1
  9
$DIMPOST
  1
\X
  9
$DIMAPOST
  1

  9
$DIMALT
 70
     1
  9
$DIMALTD
 70
     2
  9
$DIMALTF
 40
25.3999999999999986
  9
$DIMLFAC
 40
1.0
  9
$DIMTOFL
 70
     0
  9
$DIMTVP
 40
0.0
  9
$DIMTIX
 70
     0
  9
$DIMSOXD
 70
     0
  9
$DIMSAH
 70
     0
  9
$DIMBLK1
  1

  9
$DIMBLK2
  1

  9
$DIMSTYLE
  2
STANDARD
  9
$DIMCLRD
 70
     0
  9
$DIMCLRE
 70
     0
  9
$DIMCLRT
 70
     0
  9
$DIMTFAC
 40
1.0
  9
$DIMGAP
 40
0.09
  9
$LUNITS
 70
     2
  9
$LUPREC
 70
     4
  9
$SKETCHINC
 40
0.1
  9
$FILLETRAD
 40
0.0
  9
$AUNITS
 70
     0
  9
$AUPREC
 70
     0
  9
$MENU
  1
.
  9
$ELEVATION
 40
0.0
  9
$PELEVATION
 40
0.0
  9
$THICKNESS
 40
0.0
  9
$LIMCHECK
 70
     0
  9
$BLIPMODE
 70
     0
  9
$CHAMFERA
 40
0.0
  9
$CHAMFERB
 40
0.0
  9
$SKPOLY
 70
     0
  9
$TDCREATE
 40
2458060.468368056230247
  9
$TDUPDATE
 40
2459674.6887847217731178
  9
$TDINDWG
 40
0.2923681713
  9
$TDUSRTIMER
 40
0.2923681713
  9
$USRTIMER
 70
     1
  9
$ANGBASE
 50
0.0
  9
$ANGDIR
 70
     0
  9
$PDMODE
 70
     0
  9
$PDSIZE
 40
0.3125
  9
$PLINEWID
 40
0.0
  9
$COORDS
 70
     1
  9
$SPLFRAME
 70
     0
  9
$SPLINETYPE
 70
     6
  9
$SPLINESEGS
 70
     8
  9
$ATTDIA
 70
     1
  9
$ATTREQ
 70
     1
  9
$HANDLING
 70
     1
  9
$HANDSEED
  5
69DD
  9
$SURFTAB1
 70
     6
  9
$SURFTAB2
 70
     6
  9
$SURFTYPE
 70
     6
  9
$SURFU
 70
     6
  9
$SURFV
 70
     6
  9
$UCSNAME
  2

  9
$UCSORG
 10
0.0
 20
0.0
 30
0.0
  9
$UCSXDIR
 10
1.0
 20
0.0
 30
0.0
  9
$UCSYDIR
 10
0.0
 20
1.0
 30
0.0
  9
$PUCSNAME
  2

  9
$PUCSORG
 10
0.0
 20
0.0
 30
0.0
  9
$PUCSXDIR
 10
1.0
 20
0.0
 30
0.0
  9
$PUCSYDIR
 10
0.0
 20
1.0
 30
0.0
  9
$USERI1
 70
     0
  9
$USERI2
 70
     0
  9
$USERI3
 70
     0
  9
$USERI4
 70
     0
  9
$USERI5
 70
     0
  9
$USERR1
 40
0.0
  9
$USERR2
 40
0.0
  9
$USERR3
 40
0.0
  9
$USERR4
 40
0.0
  9
$USERR5
 40
0.0
  9
$WORLDVIEW
 70
     1
  9
$SHADEDGE
 70
     3
  9
$SHADEDIF
 70
    70
  9
$TILEMODE
 70
     1
  9
$MAXACTVP
 70
    64
  9
$PLIMCHECK
 70
     0
  9
$PEXTMIN
 10
1.0000000000000000E+20
 20
1.0000000000000000E+20
 30
1.0000000000000000E+20
  9
$PEXTMAX
 10
-1.0000000000000000E+20
 20
-1.0000000000000000E+20
 30
-1.0000000000000000E+20
  9
$PLIMMIN
 10
0.0
 20
0.0
  9
$PLIMMAX
 10
12.0
 20
9.0
  9
$UNITMODE
 70
     0
  9
$VISRETAIN
 70
     1
  9
$PLINEGEN
 70
     0
  9
$PSLTSCALE
 70
     1
  0
ENDSEC
  0
SECTION
  2
TABLES
  0
TABLE
  2
VPORT
 70
     1
  0
VPORT
  2
*ACTIVE
 70
     0
 10
0.0
 20
0.0
 11
1.0
 21
1.0
 12
3.842265335265505
 22
3.6363241732206211
 13
0.0
 23
0.0
 14
1.0
 24
1.0
 15
0.0
 25
0.0
 16
0.0
 26
0.0
 36
41.6084348960589026
 17
2275.6903076171879547
 27
120.2427825927733949
 37
0.0
 40
16.1008618764024689
 41
2.000833333333333
 42
50.0
 43
0.0
 44
0.0
 50
0.0
 51
0.0
 71
     0
 72
   100
 73
     1
 74
     1
 75
     0
 76
     0
 77
     0
 78
     0
  0
ENDTAB
  0
TABLE
  2
LTYPE
 70
     2
  0
LTYPE
  2
CONTINUOUS
 70
     0
  3
Solid line
 72
    65
 73
     0
 40
0.0
  0
LTYPE
  2
PHANTOM2
 70
     0
  3
___ _ _ ___ _ _ ___ _ _ ___ _ _
 72
    65
 73
     6
 40
1.25
 49
0.625
 49
-0.125
 49
0.125
 49
-0.125
 49
0.125
 49
-0.125
  0
ENDTAB
  0
TABLE
  2
LAYER
 70
     2
  0
LAYER
  2
0
 70
     0
 62
   255
  6
CONTINUOUS
  0
LAYER
  2
DEFPOINTS
 70
     0
 62
     7
  6
CONTINUOUS
  0
ENDTAB
  0
TABLE
  2
STYLE
 70
     1
  0
STYLE
  2
STANDARD
 70
     0
 40
0.0
 41
0.8
 50
0.0
 71
     0
 42
0.2
  3
txt
  4

  0
ENDTAB
  0
TABLE
  2
VIEW
 70
     0
  0
ENDTAB
  0
TABLE
  2
UCS
 70
     0
  0
ENDTAB
  0
TABLE
  2
APPID
 70
     9
  0
APPID
  2
ACAD
 70
     0
  0
APPID
  2
ACAD_MLEADERVER
 70
     0
  0
APPID
  2
ACAD_EXEMPT_FROM_CAD_STANDARDS
 70
     0
  0
APPID
  2
ACAD_NAV_VCDISPLAY
 70
     0
  0
APPID
  2
ACAECLAYERSTANDARD
 70
     0
  0
APPID
  2
ACCMTRANSPARENCY
 70
     0
  0
APPID
  2
ACAD_DSTYLE_DIMJAG
 70
     0
  0
APPID
  2
ACAD_DSTYLE_DIMTALN
 70
     0
  0
APPID
  2
ACDBATTR
 70
     0
  0
ENDTAB
  0
TABLE
  2
DIMSTYLE
 70
     1
  0
DIMSTYLE
  2
STANDARD
 70
     0
  3

  4

  5

  6

  7

 40
1.0
 41
0.1875
 42
0.0625
 43
0.38
 44
0.125
 45
0.0
 46
0.0
 47
0.01
 48
0.01
140
0.15625
141
0.09
142
0.0
143
25.3999999999999986
144
1.0
145
0.0
146
1.0
147
0.09
 71
     1
 72
     0
 73
     1
 74
     1
 75
     0
 76
     0
 77
     0
 78
     4
170
     0
171
     2
172
     0
173
     0
174
     0
175
     0
176
     0
177
     0
178
     0
  0
ENDTAB
  0
ENDSEC
  0
SECTION
  2
BLOCKS
  0
BLOCK
  8
0
  2
$MODEL_SPACE
 70
     0
 10
0.0
 20
0.0
 30
0.0
  3
$MODEL_SPACE
  1

  0
ENDBLK
  5
21
  8
0
  0
BLOCK
 67
     1
  8
0
  2
$PAPER_SPACE
 70
     0
 10
0.0
 20
0.0
 30
0.0
  3
$PAPER_SPACE
  1

  0
ENDBLK
  5
1D
 67
     1
  8
0
  0
ENDSEC
  0
SECTION
  2
ENTITIES
  0
ATTDEF
  5
3930
  8
DEFPOINTS
 10
2275.6880336443327906
 20
122.619442404058006
 30
0.0
 40
0.001
  1
K-23484T-4
  3

  2
MODELNUMBER
 70
     0
1001
ACDBATTR
1070
     0
1070
     1
  0
ATTDEF
  5
3931
  8
DEFPOINTS
 10
2275.6880336443327906
 20
122.6177757373912982
 30
0.0
 40
0.001
  1
PARALLEL
  3

  2
TRADENAME
 70
     0
1001
ACDBATTR
1070
     0
1070
     1
  0
ATTDEF
  5
3932
  8
DEFPOINTS
 10
2275.6880336443327906
 20
122.6161090707247041
 30
0.0
 40
0.001
  1
BATHROOM SINK FAUCET
  3

  2
PRODUCT
 70
     0
1001
ACDBATTR
1070
     0
1070
     1
  0
LINE
  5
6775
  8
0
 10
2269.246080247556165
 20
122.7919561921285947
 30
0.0
 11
2269.246080247556165
 21
122.4377082223285953
 31
0.0
  0
LINE
  5
6776
  8
0
 10
2270.6867954710678532
 20
121.9101077978379948
 30
0.0
 11
2270.6867954710678532
 21
122.141035774050394
 31
0.0
  0
LINE
  5
6777
  8
0
 10
2270.6867954710678532
 20
123.0886286404541039
 30
0.0
 11
2270.6867954710678532
 21
123.3195566167286046
 31
0.0
  0
LINE
  5
6778
  8
0
 10
2276.1682600379667747
 20
116.8668007112286062
 30
0.0
 11
2275.2123860222682197
 21
116.8668007112286062
 31
0.0
  0
LINE
  5
6779
  8
0
 10
2272.6946694867669976
 20
123.3195566167286046
 30
0.0
 11
2272.6946694867669976
 21
121.9101077978286014
 31
0.0
  0
LINE
  5
677A
  8
0
 10
2274.6863230300668874
 20
121.9108951994285945
 30
0.0
 11
2274.6863230300668874
 21
123.3187692151285972
 31
0.0
  0
LINE
  5
677B
  8
0
 10
2274.9131734237671481
 20
117.1660133096285961
 30
0.0
 11
2274.9131734237671481
 21
122.8589266954285932
 31
0.0
  0
LINE
  5
677C
  8
0
 10
2275.434417518266855
 20
122.9494778765286043
 30
0.0
 11
2275.434417518266855
 21
123.4142111332286049
 31
0.0
  0
LINE
  5
677D
  8
0
 10
2272.3954568883668799
 20
121.6108951993285956
 30
0.0
 11
2270.9860080694670614
 21
121.6108951993285956
 31
0.0
  0
LINE
  5
677E
  8
0
 10
2271.9190812691667816
 20
122.1226333006286069
 30
0.0
 11
2271.4631525056670398
 21
122.1222865227286007
 31
0.0
  0
LINE
  5
677F
  8
0
 10
2269.562611769967134
 20
122.140180723728605
 30
0.0
 11
2271.9205999017672184
 21
122.1419742015285976
 31
0.0
  0
LINE
  5
6780
  8
0
 10
2274.9446694867669976
 20
122.8904227584285991
 30
0.0
 11
2276.4359765734670873
 21
122.8904227584285991
 31
0.0
  0
LINE
  5
6781
  8
0
 10
2275.4541025573671504
 20
122.9297928371286019
 30
0.0
 11
2275.9265435028210049
 21
122.9297928371286019
 31
0.0
  0
LINE
  5
6782
  8
0
 10
2271.9205997567669328
 20
123.0876902130285941
 30
0.0
 11
2269.562611769967134
 21
123.089483690828601
 31
0.0
  0
LINE
  5
6783
  8
0
 10
2271.4631525056670398
 20
123.1073778918286052
 30
0.0
 11
2271.9190811319667773
 21
123.1070311140286009
 31
0.0
  0
LINE
  5
6784
  8
0
 10
2270.9860080694670614
 20
123.6187692151285944
 30
0.0
 11
2272.3954568883668799
 21
123.6187692151285944
 31
0.0
  0
LINE
  5
6785
  8
0
 10
2274.9863230300670693
 20
123.6187692151285944
 30
0.0
 11
2276.3943230301620133
 21
123.6187692151285944
 31
0.0
  0
ARC
  5
6786
  8
0
 10
2275.2403653771089012
 20
117.1939926644703007
 30
0.0
 40
0.3283860815618184
 50
184.8876764649681945
 51
265.1123235350231084
  0
ARC
  5
6787
  8
0
 10
2271.6907824199670358
 20
122.6148322787285991
 30
0.0
 40
0.5510405054
 50
239.1849525387036124
 51
241.179741300900389
  0
ARC
  5
6788
  8
0
 10
2271.6907824199670358
 20
122.6148322787285991
 30
0.0
 40
0.5510405054
 50
118.8202659826908985
 51
120.8150764469007044
  0
ARC
  5
6789
  8
0
 10
2271.6909916656868518
 20
122.6148264376090964
 30
0.0
 40
0.5509009864180365
 50
2.0285475144236309
 51
61.1231525447214281
  0
ARC
  5
678A
  8
0
 10
2271.6910222251030973
 20
122.6147791116374037
 30
0.0
 40
0.5508587568476717
 50
298.8769471189136766
 51
357.4985649573217188
  0
ARC
  5
678B
  8
0
 10
2271.7217684922329681
 20
122.6148130799249998
 30
0.0
 40
0.5201450890995563
 50
296.7647012321215811
 51
63.2371127279800689
  0
ARC
  5
678C
  8
0
 10
2271.0044868781960758
 20
121.9285866065563937
 30
0.0
 40
0.3182283716686166
 50
183.32891013789569
 51
266.6710898603099054
  0
ARC
  5
678D
  8
0
 10
2271.0114000886078429
 20
123.2941645975877947
 30
0.0
 40
0.3255962413240024
 50
94.4728227711040063
 51
175.5271772271086945
  0
ARC
  5
678E
  8
0
 10
2271.9083783130299707
 20
122.9581889702958932
 30
0.0
 40
0.1300766526181351
 50
68.5294023656821452
 51
84.6087826670330543
  0
ARC
  5
678F
  8
0
 10
2271.9129620627768418
 20
122.2527289239559991
 30
0.0
 40
0.1110177694084485
 50
273.9449711520571782
 51
292.8117446252114746
  0
ARC
  5
6790
  8
0
 10
2271.9151352739140748
 20
123.0133685209916052
 30
0.0
 40
0.0937456725944267
 50
63.4500608945627391
 51
87.5876452051517163
  0
ARC
  5
6791
  8
0
 10
2271.9136658812708447
 20
122.2222302211419986
 30
0.0
 40
0.0997440374249168
 50
273.1122813653051935
 51
295.7814428179827928
  0
ARC
  5
6792
  8
0
 10
2271.4663755195028898
 20
122.2137253200342997
 30
0.0
 40
0.0914955817015522
 50
243.2166221952066962
 51
267.9812871978277826
  0
ARC
  5
6793
  8
0
 10
2271.4686216482668897
 20
123.0071903784770058
 30
0.0
 40
0.100336679994699
 50
93.1246216944318377
 51
115.6771156536211009
  0
ARC
  5
6794
  8
0
 10
2275.6903230300667929
 20
122.8549896875286009
 30
0.0
 40
0.6653543307000001
 50
89.9999999957009038
 51
107.5785741646071045
  0
ARC
  5
6795
  8
0
 10
2275.0033455073707955
 20
121.9241665570720983
 30
0.0
 40
0.317300141903351
 50
182.3971456888303067
 51
253.4898348252112896
  0
ARC
  5
6796
  8
0
 10
2275.0213435230630239
 20
123.2837487221315058
 30
0.0
 40
0.3368459078827033
 50
95.9675917729789063
 51
174.0324082257313876
  0
ARC
  5
6797
  8
0
 10
2272.3697249202468811
 20
121.9358397659497939
 30
0.0
 40
0.3259618160069193
 50
274.5277351433576882
 51
355.4722648548395796
  0
ARC
  5
6798
  8
0
 10
2272.3702700381340946
 20
123.2943697664961036
 30
0.0
 40
0.3253757515515021
 50
4.4396218991587952
 51
85.5603781008533275
  0
ARC
  5
6799
  8
0
 10
2275.513157675767161
 20
123.4142111333286067
 30
0.0
 40
0.0787401575
 50
107.5785740931079033
 51
180.0
  0
ARC
  5
679A
  8
0
 10
2274.9472390209739388
 20
122.8563571612215952
 30
0.0
 40
0.0341623684645039
 50
94.3135954057487425
 51
175.68640458403911
  0
ARC
  5
679B
  8
0
 10
2275.4549175398910847
 20
122.950292858742003
 30
0.0
 40
0.0205162151136793
 50
182.2766056178232077
 51
267.7233936422647957
  0
ARC
  5
679C
  8
0
 10
2269.5662108985811756
 20
122.4611481860979012
 30
0.0
 40
0.3209876409250194
 50
184.1877235024616937
 51
269.357547847773219
  0
ARC
  5
679D
  8
0
 10
2269.5679557236971959
 20
122.766659955844105
 30
0.0
 40
0.3228679632772518
 50
90.9483752222765247
 51
175.5063534467132911
  0
LINE
  5
679E
  8
0
 10
2282.1345658126779199
 20
122.7919561921285947
 30
0.0
 11
2282.1345658126779199
 21
122.4377082223285953
 31
0.0
  0
LINE
  5
679F
  8
0
 10
2280.6938505891671412
 20
121.9101077978379948
 30
0.0
 11
2280.6938505891671412
 21
122.141035774050394
 31
0.0
  0
LINE
  5
67A0
  8
0
 10
2280.6938505891671412
 20
123.0886286404541039
 30
0.0
 11
2280.6938505891671412
 21
123.3195566167286046
 31
0.0
  0
LINE
  5
67A1
  8
0
 10
2278.6859765734670873
 20
123.3195566167286046
 30
0.0
 11
2278.6859765734670873
 21
121.9101077978286014
 31
0.0
  0
LINE
  5
67A2
  8
0
 10
2276.6943230301671974
 20
121.9108951994285945
 30
0.0
 11
2276.6943230301671974
 21
123.3187692151285972
 31
0.0
  0
LINE
  5
67A3
  8
0
 10
2276.4674726364669368
 20
117.1660133096285961
 30
0.0
 11
2276.4674726364669368
 21
122.8589266954285932
 31
0.0
  0
LINE
  5
67A4
  8
0
 10
2275.9462285419667751
 20
122.9494778765286043
 30
0.0
 11
2275.9462285419667751
 21
123.4142111332286049
 31
0.0
  0
LINE
  5
67A5
  8
0
 10
2278.985189171867205
 20
121.6108951993285956
 30
0.0
 11
2280.3946379907670234
 21
121.6108951993285956
 31
0.0
  0
LINE
  5
67A6
  8
0
 10
2279.4615647910682128
 20
122.1226333006286069
 30
0.0
 11
2279.9174935545670451
 21
122.1222865227286007
 31
0.0
  0
LINE
  5
67A7
  8
0
 10
2281.8180342902669508
 20
122.140180723728605
 30
0.0
 11
2279.4600461584668665
 21
122.1419742015285976
 31
0.0
  0
LINE
  5
67A8
  8
0
 10
2279.460046303467152
 20
123.0876902130285941
 30
0.0
 11
2281.8180342902669508
 21
123.089483690828601
 31
0.0
  0
LINE
  5
67A9
  8
0
 10
2279.9174935545670451
 20
123.1073778918286052
 30
0.0
 11
2279.4615649282668528
 21
123.1070311140286009
 31
0.0
  0
LINE
  5
67AA
  8
0
 10
2280.3946379907670234
 20
123.6187692151285944
 30
0.0
 11
2278.985189171867205
 21
123.6187692151285944
 31
0.0
  0
ARC
  5
67AB
  8
0
 10
2276.1402806831260932
 20
117.1939926644703007
 30
0.0
 40
0.3283860815618184
 50
274.8876764649767779
 51
355.1123235350316918
  0
ARC
  5
67AC
  8
0
 10
2279.689863640267049
 20
122.6148322787285991
 30
0.0
 40
0.5510405054
 50
298.8202586990997247
 51
300.8150474612965013
  0
ARC
  5
67AD
  8
0
 10
2279.689863640267049
 20
122.6148322787285991
 30
0.0
 40
0.5510405054
 50
59.1849235530992317
 51
61.1797340173090092
  0
ARC
  5
67AE
  8
0
 10
2279.6896543945467783
 20
122.6148264376090964
 30
0.0
 40
0.5509009864180365
 50
118.8768474552785932
 51
177.9714524855762932
  0
ARC
  5
67AF
  8
0
 10
2279.6896238351318971
 20
122.6147791116374037
 30
0.0
 40
0.5508587568476717
 50
182.5014350426783096
 51
241.123052881086295
  0
ARC
  5
67B0
  8
0
 10
2279.6588775680020262
 20
122.6148130799249998
 30
0.0
 40
0.5201450890995563
 50
116.7628872720198956
 51
243.2352987678783904
  0
ARC
  5
67B1
  8
0
 10
2280.3761591820389185
 20
121.9285866065563937
 30
0.0
 40
0.3182283716686166
 50
273.3289101396900946
 51
356.6710898621042247
  0
ARC
  5
67B2
  8
0
 10
2280.3692459716271514
 20
123.2941645975877947
 30
0.0
 40
0.3255962413240024
 50
4.4728227728912993
 51
85.5271772288959795
  0
ARC
  5
67B3
  8
0
 10
2279.4722677472041141
 20
122.9581889702958932
 30
0.0
 40
0.1300766526181351
 50
95.3912173329669457
 51
111.470597634317798
  0
ARC
  5
67B4
  8
0
 10
2279.4676839974581526
 20
122.2527289239559991
 30
0.0
 40
0.1110177694084485
 50
247.188255374788497
 51
266.0550288479428218
  0
ARC
  5
67B5
  8
0
 10
2279.4655107863209196
 20
123.0133685209916052
 30
0.0
 40
0.0937456725944267
 50
92.4123547948482553
 51
116.549939105437204
  0
ARC
  5
67B6
  8
0
 10
2279.4669801789641497
 20
122.2222302211419986
 30
0.0
 40
0.0997440374249168
 50
244.2185571820172072
 51
266.8877186346948065
  0
ARC
  5
67B7
  8
0
 10
2279.9142705407321046
 20
122.2137253200342997
 30
0.0
 40
0.0914955817015522
 50
272.0187128021722174
 51
296.7833778047931901
  0
ARC
  5
67B8
  8
0
 10
2279.9120244119671952
 20
123.0071903784770058
 30
0.0
 40
0.100336679994699
 50
64.3228843463788422
 51
86.8753783055681623
  0
ARC
  5
67B9
  8
0
 10
2275.6903230301668373
 20
122.8549896875286009
 30
0.0
 40
0.6653543307000001
 50
72.4214258353928528
 51
90.0000000042991246
  0
ARC
  5
67BA
  8
0
 10
2276.3773005528641988
 20
121.9241665570720983
 30
0.0
 40
0.317300141903351
 50
286.5101651747887104
 51
357.6028543111696081
  0
ARC
  5
67BB
  8
0
 10
2276.359302537171061
 20
123.2837487221315058
 30
0.0
 40
0.3368459078827033
 50
5.9675917742686009
 51
84.0324082270211079
  0
ARC
  5
67BC
  8
0
 10
2279.0109211399881133
 20
121.9358397659497939
 30
0.0
 40
0.3259618160069193
 50
184.5277351451603067
 51
265.4722648566423118
  0
ARC
  5
67BD
  8
0
 10
2279.0103760220999902
 20
123.2943697664961036
 30
0.0
 40
0.3253757515515021
 50
94.4396218991466867
 51
175.5603781008412057
  0
ARC
  5
67BE
  8
0
 10
2275.8674883844669239
 20
123.4142111333286067
 30
0.0
 40
0.0787401575
 50
0.0
 51
72.4214259068920967
  0
ARC
  5
67BF
  8
0
 10
2276.4334070392610556
 20
122.8563571612215952
 30
0.0
 40
0.0341623684645039
 50
4.3135954159608731
 51
85.686404594251286
  0
ARC
  5
67C0
  8
0
 10
2275.9257285203439096
 20
122.950292858742003
 30
0.0
 40
0.0205162151136793
 50
272.2766063577353179
 51
357.7233943821768207
  0
ARC
  5
67C1
  8
0
 10
2281.8144351616538188
 20
122.4611481860979012
 30
0.0
 40
0.3209876409250194
 50
270.6424521522268947
 51
355.8122764975382211
  0
ARC
  5
67C2
  8
0
 10
2281.8126903365377984
 20
122.766659955844105
 30
0.0
 40
0.3228679632772518
 50
4.4936465532866636
 51
89.0516247777235037
  0
ENDSEC
  0
EOF
