  0
SECTION
  2
HEADER
  9
$ACADVER
  1
AC1009
  9
$INSBASE
 10
2324.3894775445901359
 20
131.9584925976795091
 30
0.0
  9
$EXTMIN
 10
2320.5705799068400665
 20
128.1696705511205039
 30
0.0
  9
$EXTMAX
 10
2328.2083751823402054
 20
133.5332957472795954
 30
0.0
  9
$LIMMIN
 10
0.0
 20
0.0
  9
$LIMMAX
 10
11.6929133858000007
 20
8.2677165353999982
  9
$ORTHOMODE
 70
     0
  9
$REGENMODE
 70
     1
  9
$FILLMODE
 70
     1
  9
$QTEXTMODE
 70
     0
  9
$MIRRTEXT
 70
     0
  9
$DRAGMODE
 70
     2
  9
$LTSCALE
 40
0.6431102362
  9
$OSMODE
 70
  4095
  9
$ATTMODE
 70
     1
  9
$TEXTSIZE
 40
0.2
  9
$TRACEWID
 40
0.05
  9
$TEXTSTYLE
  7
STANDARD
  9
$CLAYER
  8
0
  9
$CELTYPE
  6
BYLAYER
  9
$CECOLOR
 62
   256
  9
$DIMSCALE
 40
1.0
  9
$DIMASZ
 40
0.1875
  9
$DIMEXO
 40
0.0625
  9
$DIMDLI
 40
0.4443307087
  9
$DIMRND
 40
0.0
  9
$DIMDLE
 40
0.0
  9
$DIMEXE
 40
0.125
  9
$DIMTP
 40
0.01
  9
$DIMTM
 40
0.01
  9
$DIMTXT
 40
2.0
  9
$DIMCEN
 40
0.1052362205
  9
$DIMTSZ
 40
0.0
  9
$DIMTOL
 70
     1
  9
$DIMLIM
 70
     0
  9
$DIMTIH
 70
     1
  9
$DIMTOH
 70
     1
  9
$DIMSE1
 70
     0
  9
$DIMSE2
 70
     0
  9
$DIMTAD
 70
     0
  9
$DIMZIN
 70
     0
  9
$DIMBLK
  1

  9
$DIMASO
 70
     1
  9
$DIMSHO
 70
     1
  9
$DIMPOST
  1
\X
  9
$DIMAPOST
  1

  9
$DIMALT
 70
     1
  9
$DIMALTD
 70
     2
  9
$DIMALTF
 40
25.3999999999999986
  9
$DIMLFAC
 40
1.0
  9
$DIMTOFL
 70
     0
  9
$DIMTVP
 40
0.0
  9
$DIMTIX
 70
     0
  9
$DIMSOXD
 70
     0
  9
$DIMSAH
 70
     0
  9
$DIMBLK1
  1

  9
$DIMBLK2
  1

  9
$DIMSTYLE
  2
STANDARD
  9
$DIMCLRD
 70
     0
  9
$DIMCLRE
 70
     0
  9
$DIMCLRT
 70
     0
  9
$DIMTFAC
 40
1.0
  9
$DIMGAP
 40
0.09
  9
$LUNITS
 70
     2
  9
$LUPREC
 70
     4
  9
$SKETCHINC
 40
0.1
  9
$FILLETRAD
 40
0.0
  9
$AUNITS
 70
     0
  9
$AUPREC
 70
     0
  9
$MENU
  1
.
  9
$ELEVATION
 40
0.0
  9
$PELEVATION
 40
0.0
  9
$THICKNESS
 40
0.0
  9
$LIMCHECK
 70
     0
  9
$BLIPMODE
 70
     0
  9
$CHAMFERA
 40
0.0
  9
$CHAMFERB
 40
0.0
  9
$SKPOLY
 70
     0
  9
$TDCREATE
 40
2458060.468368056230247
  9
$TDUPDATE
 40
2458967.5531712961383164
  9
$TDINDWG
 40
0.3224607639
  9
$TDUSRTIMER
 40
0.3224607639
  9
$USRTIMER
 70
     1
  9
$ANGBASE
 50
0.0
  9
$ANGDIR
 70
     0
  9
$PDMODE
 70
     0
  9
$PDSIZE
 40
0.3125
  9
$PLINEWID
 40
0.0
  9
$COORDS
 70
     1
  9
$SPLFRAME
 70
     0
  9
$SPLINETYPE
 70
     6
  9
$SPLINESEGS
 70
     8
  9
$ATTDIA
 70
     1
  9
$ATTREQ
 70
     1
  9
$HANDLING
 70
     1
  9
$HANDSEED
  5
7219
  9
$SURFTAB1
 70
     6
  9
$SURFTAB2
 70
     6
  9
$SURFTYPE
 70
     6
  9
$SURFU
 70
     6
  9
$SURFV
 70
     6
  9
$UCSNAME
  2

  9
$UCSORG
 10
0.0
 20
0.0
 30
0.0
  9
$UCSXDIR
 10
1.0
 20
0.0
 30
0.0
  9
$UCSYDIR
 10
0.0
 20
1.0
 30
0.0
  9
$PUCSNAME
  2

  9
$PUCSORG
 10
0.0
 20
0.0
 30
0.0
  9
$PUCSXDIR
 10
1.0
 20
0.0
 30
0.0
  9
$PUCSYDIR
 10
0.0
 20
1.0
 30
0.0
  9
$USERI1
 70
     0
  9
$USERI2
 70
     0
  9
$USERI3
 70
     0
  9
$USERI4
 70
     0
  9
$USERI5
 70
     0
  9
$USERR1
 40
0.0
  9
$USERR2
 40
0.0
  9
$USERR3
 40
0.0
  9
$USERR4
 40
0.0
  9
$USERR5
 40
0.0
  9
$WORLDVIEW
 70
     1
  9
$SHADEDGE
 70
     3
  9
$SHADEDIF
 70
    70
  9
$TILEMODE
 70
     1
  9
$MAXACTVP
 70
    64
  9
$PLIMCHECK
 70
     0
  9
$PEXTMIN
 10
1.0000000000000000E+20
 20
1.0000000000000000E+20
 30
1.0000000000000000E+20
  9
$PEXTMAX
 10
-1.0000000000000000E+20
 20
-1.0000000000000000E+20
 30
-1.0000000000000000E+20
  9
$PLIMMIN
 10
0.0
 20
0.0
  9
$PLIMMAX
 10
12.0
 20
9.0
  9
$UNITMODE
 70
     0
  9
$VISRETAIN
 70
     1
  9
$PLINEGEN
 70
     0
  9
$PSLTSCALE
 70
     1
  0
ENDSEC
  0
SECTION
  2
TABLES
  0
TABLE
  2
VPORT
 70
     1
  0
VPORT
  2
*ACTIVE
 70
     0
 10
0.0
 20
0.0
 11
1.0
 21
1.0
 12
0.0
 22
0.0
 13
0.0
 23
0.0
 14
1.0
 24
1.0
 15
0.0
 25
0.0
 16
0.0
 26
0.0
 36
34.5263068178853771
 17
2324.3895263671879547
 27
130.8514862060546875
 37
0.0
 40
9.3350568788244441
 41
2.9120171673819741
 42
50.0
 43
0.0
 44
0.0
 50
0.0
 51
0.0
 71
     0
 72
   100
 73
     1
 74
     1
 75
     0
 76
     0
 77
     0
 78
     0
  0
ENDTAB
  0
TABLE
  2
LTYPE
 70
     2
  0
LTYPE
  2
CONTINUOUS
 70
     0
  3
Solid line
 72
    65
 73
     0
 40
0.0
  0
LTYPE
  2
PHANTOM2
 70
     0
  3
___ _ _ ___ _ _ ___ _ _ ___ _ _
 72
    65
 73
     6
 40
1.25
 49
0.625
 49
-0.125
 49
0.125
 49
-0.125
 49
0.125
 49
-0.125
  0
ENDTAB
  0
TABLE
  2
LAYER
 70
     2
  0
LAYER
  2
0
 70
     0
 62
   255
  6
CONTINUOUS
  0
LAYER
  2
DEFPOINTS
 70
     0
 62
     7
  6
CONTINUOUS
  0
ENDTAB
  0
TABLE
  2
STYLE
 70
     1
  0
STYLE
  2
STANDARD
 70
     0
 40
0.0
 41
0.8
 50
0.0
 71
     0
 42
0.2
  3
txt
  4

  0
ENDTAB
  0
TABLE
  2
VIEW
 70
     0
  0
ENDTAB
  0
TABLE
  2
UCS
 70
     0
  0
ENDTAB
  0
TABLE
  2
APPID
 70
     9
  0
APPID
  2
ACAD
 70
     0
  0
APPID
  2
ACAD_MLEADERVER
 70
     0
  0
APPID
  2
ACAD_EXEMPT_FROM_CAD_STANDARDS
 70
     0
  0
APPID
  2
ACAD_NAV_VCDISPLAY
 70
     0
  0
APPID
  2
ACAECLAYERSTANDARD
 70
     0
  0
APPID
  2
ACCMTRANSPARENCY
 70
     0
  0
APPID
  2
ACAD_DSTYLE_DIMJAG
 70
     0
  0
APPID
  2
ACAD_DSTYLE_DIMTALN
 70
     0
  0
APPID
  2
ACDBATTR
 70
     0
  0
ENDTAB
  0
TABLE
  2
DIMSTYLE
 70
     1
  0
DIMSTYLE
  2
STANDARD
 70
     0
  3

  4

  5

  6

  7

 40
1.0
 41
0.1875
 42
0.0625
 43
0.38
 44
0.125
 45
0.0
 46
0.0
 47
0.01
 48
0.01
140
0.15625
141
0.09
142
0.0
143
25.3999999999999986
144
1.0
145
0.0
146
1.0
147
0.09
 71
     1
 72
     0
 73
     1
 74
     1
 75
     0
 76
     0
 77
     0
 78
     4
170
     0
171
     2
172
     0
173
     0
174
     0
175
     0
176
     0
177
     0
178
     0
  0
ENDTAB
  0
ENDSEC
  0
SECTION
  2
BLOCKS
  0
BLOCK
  8
0
  2
$MODEL_SPACE
 70
     0
 10
0.0
 20
0.0
 30
0.0
  3
$MODEL_SPACE
  1

  0
ENDBLK
  5
21
  8
0
  0
BLOCK
 67
     1
  8
0
  2
$PAPER_SPACE
 70
     0
 10
0.0
 20
0.0
 30
0.0
  3
$PAPER_SPACE
  1

  0
ENDBLK
  5
1D
 67
     1
  8
0
  0
BLOCK
  8
0
  2
_FILLED
 70
     0
 10
0.0
 20
0.0
 30
0.0
  3
_FILLED
  1

  0
SOLID
  5
68A1
  8
0
  6
BYBLOCK
 62
     0
 10
0.0
 20
0.0
 30
0.0
 11
-1.0
 21
0.1666666667
 31
0.0
 12
-1.0
 22
-0.1666666667
 32
0.0
 13
-1.0
 23
-0.1666666667
 33
0.0
  0
ENDBLK
  5
68A2
  8
0
  6
BYBLOCK
 62
     0
  0
ENDSEC
  0
SECTION
  2
ENTITIES
  0
ATTDEF
  5
3930
  8
DEFPOINTS
 10
2324.3863800088001881
 20
131.9552198854117933
 30
0.0
 40
0.001
  1
K-23485T-4
  3

  2
MODELNUMBER
 70
     0
1001
ACDBATTR
1070
     0
1070
     1
  0
ATTDEF
  5
3931
  8
DEFPOINTS
 10
2324.3863800088001881
 20
131.9535532187450997
 30
0.0
 40
0.001
  1
PARALLEL
  3

  2
TRADENAME
 70
     0
1001
ACDBATTR
1070
     0
1070
     1
  0
ATTDEF
  5
3932
  8
DEFPOINTS
 10
2324.3863800088001881
 20
131.9518865520784914
 30
0.0
 40
0.001
  1
BATHROOM SINK FAUCET
  3

  2
PRODUCT
 70
     0
1001
ACDBATTR
1070
     0
1070
     1
  0
LINE
  5
6FB0
  8
0
 10
2320.5705799068400665
 20
130.6829020464795974
 30
0.0
 11
2320.5705799068400665
 21
133.2340831488795914
 31
0.0
  0
LINE
  5
6FB1
  8
0
 10
2321.4544381745390638
 20
131.7741917493796109
 30
0.0
 11
2321.4544381745390638
 21
132.3246343299796024
 31
0.0
  0
LINE
  5
6FB2
  8
0
 10
2323.3245169146389344
 20
131.7741035264795926
 30
0.0
 11
2323.3245169146389344
 21
132.3246343299796024
 31
0.0
  0
LINE
  5
6FB3
  8
0
 10
2327.9091625839400876
 20
130.3836894480795934
 30
0.0
 11
2327.3196982237031989
 21
130.3836894480795934
 31
0.0
  0
LINE
  5
6FB4
  8
0
 10
2325.4592568653770286
 20
130.3836894480795934
 30
0.0
 11
2320.8697925052401843
 21
130.3836894480795934
 31
0.0
  0
LINE
  5
6FB5
  8
0
 10
2321.4844381745401733
 20
131.7498311803796014
 30
0.0
 11
2323.2945169146400985
 21
131.7498311803796014
 31
0.0
  0
LINE
  5
6FB6
  8
0
 10
2321.4938082532398766
 20
132.3640044086795911
 30
0.0
 11
2323.2851468359399405
 21
132.3640044086795911
 31
0.0
  0
LINE
  5
6FB7
  8
0
 10
2320.8697925052401843
 20
133.5332957472795954
 30
0.0
 11
2327.9091625839400876
 21
133.5332957472795954
 31
0.0
  0
LINE
  5
6FB8
  8
0
 10
2328.2083751823402054
 20
133.2340831488795914
 30
0.0
 11
2328.2083751823402054
 21
130.6829020464795974
 31
0.0
  0
ARC
  5
6FB9
  8
0
 10
2320.8697925052401843
 20
130.6829020464795974
 30
0.0
 40
0.2992125984
 50
179.9999999997997122
 51
270.0
  0
ARC
  5
6FBA
  8
0
 10
2320.8697925052401843
 20
133.2340831488795914
 30
0.0
 40
0.2992125984
 50
89.9999999997915552
 51
180.0
  0
ARC
  5
6FBB
  8
0
 10
2321.4954844124540614
 20
132.322958170765304
 30
0.0
 40
0.0410804473761183
 50
92.3384242820212791
 51
177.661575716089601
  0
ARC
  5
6FBC
  8
0
 10
2323.2828559006170508
 20
132.3223433946571106
 30
0.0
 40
0.041723955637354
 50
3.1475196074869869
 51
86.8524803939146182
  0
ARC
  5
6FBD
  8
0
 10
2321.4844381745401733
 20
131.7798311803794888
 30
0.0
 40
0.03
 50
180.0000000795999995
 51
270.0
  0
ARC
  5
6FBE
  8
0
 10
2323.2945169146400985
 20
131.7798311803794888
 30
0.0
 40
0.03
 50
270.0
 51
359.9999999947002038
  0
ARC
  5
6FBF
  8
0
 10
2327.9091625839400876
 20
130.6829020464795974
 30
0.0
 40
0.2992125984
 50
269.999999999791612
 51
0.0
  0
ARC
  5
6FC0
  8
0
 10
2327.9091625839400876
 20
133.2340831488795914
 30
0.0
 40
0.2992125984
 50
0.0
 51
90.0
  0
ARC
  5
6FC1
  8
0
 10
2322.4038755827968998
 20
129.9592062324576034
 30
0.0
 40
1.648869635103787
 50
90.5003168770427777
 51
95.5555073411451588
  0
ARC
  5
6FC2
  8
0
 10
2322.3076299693811961
 20
130.9728830210488013
 30
0.0
 40
0.6306410131262125
 50
95.7681541589256824
 51
105.2164833186994031
  0
ARC
  5
6FC3
  8
0
 10
2322.1639164958019137
 20
131.5012356776186095
 30
0.0
 40
0.0830918443818576
 50
105.2164833186994031
 51
128.2813004117388971
  0
ARC
  5
6FC4
  8
0
 10
2322.1193849188689455
 20
131.5576602855844897
 30
0.0
 40
0.011211403869366
 50
128.2813004117388971
 51
229.1026156158883964
  0
ARC
  5
6FC5
  8
0
 10
2322.1747171268489183
 20
131.6334675416862012
 30
0.0
 40
0.1050297316124873
 50
233.3653059691077942
 51
256.8217480550882783
  0
ARC
  5
6FC6
  8
0
 10
2322.3166730939169611
 20
132.1989380424400053
 30
0.0
 40
0.6880350298145693
 50
256.0471945029212861
 51
266.110742907153508
  0
ARC
  5
6FC7
  8
0
 10
2322.4614588092681515
 20
134.8500983512066966
 30
0.0
 40
3.343097437405655
 50
266.7169649885108811
 51
268.7662515146861892
  0
ARC
  5
6FC8
  8
0
 10
2322.4162207132199001
 20
129.8599122333741889
 30
0.0
 40
1.8416601500654151
 50
90.8320343734791038
 51
97.3832046349311184
  0
ARC
  5
6FC9
  8
0
 10
2322.2389466606591668
 20
131.2497999890215965
 30
0.0
 40
0.4405244630907992
 50
97.7477900455845941
 51
109.4600825581113952
  0
ARC
  5
6FCA
  8
0
 10
2322.1123818190808379
 20
131.6080009752095918
 30
0.0
 40
0.0606210469052811
 50
109.4600825581113952
 51
132.2158213723691915
  0
ARC
  5
6FCB
  8
0
 10
2322.0817105234218616
 20
131.6418079366943061
 30
0.0
 40
0.0149741519147168
 50
132.2158213723675999
 51
181.3092641252868873
  0
ARC
  5
6FCC
  8
0
 10
2322.229032415059919
 20
131.6638776292639079
 30
0.0
 40
0.1638323144354217
 50
187.8625684065476094
 51
223.7561427975697939
  0
ARC
  5
6FCD
  8
0
 10
2322.4068645373608888
 20
129.9218104567490002
 30
0.0
 40
1.785540425399335
 50
90.5579358687910769
 51
98.7565875763069272
  0
ARC
  5
6FCE
  8
0
 10
2322.1872151404008946
 20
131.3617692925847962
 30
0.0
 40
0.3289338299358151
 50
99.1268891161900001
 51
114.830845683469505
  0
ARC
  5
6FCF
  8
0
 10
2322.0604583951107998
 20
131.6357086122102089
 30
0.0
 40
0.0270894605776955
 50
114.830845683469505
 51
147.8800746287033121
  0
ARC
  5
6FD0
  8
0
 10
2322.0490712205269119
 20
131.6428572928988956
 30
0.0
 40
0.0136443357877433
 50
147.8800746287039942
 51
221.9166241418633092
  0
ARC
  5
6FD1
  8
0
 10
2322.0959447496279608
 20
131.6963131367633082
 30
0.0
 40
0.084658988892426
 50
227.6542662198191067
 51
254.0558437923317001
  0
ARC
  5
6FD2
  8
0
 10
2322.0380629488900013
 20
131.6928991306050989
 30
0.0
 40
0.0154044069208356
 50
126.0939210147963934
 51
187.5385909358174104
  0
LINE
  5
6FD3
  8
0
 10
2322.0227916865401312
 20
131.6908781657795942
 30
0.0
 11
2322.0354767171747881
 21
131.6416922273567138
 31
0.0
  0
ARC
  5
6FD4
  8
0
 10
2322.3696445608211434
 20
129.6395893836202902
 30
0.0
 40
2.093657121604259
 50
89.4572352611007204
 51
99.3641618296076956
  0
ARC
  5
6FD5
  8
0
 10
2322.0764385198890523
 20
131.3628114534787983
 30
0.0
 40
0.3458062192045004
 50
97.8868343264927745
 51
118.6186149268044971
  0
ARC
  5
6FD6
  8
0
 10
2321.9214452530541166
 20
131.6456141667322015
 30
0.0
 40
0.0233237770123801
 50
117.1412874236753936
 51
250.1536561369819935
  0
ARC
  5
6FD7
  8
0
 10
2322.1292104037829631
 20
132.0857253778816869
 30
0.0
 40
0.5099110937743661
 50
244.9769615727302039
 51
265.5814986986698045
  0
ARC
  5
6FD8
  8
0
 10
2322.4241064405659927
 20
128.1683683458267922
 30
0.0
 40
3.574115906732473
 50
90.5551360626653548
 51
96.3154203618280178
  0
ARC
  5
6FD9
  8
0
 10
2322.1264980961650508
 20
130.8854170261718082
 30
0.0
 40
0.8408241210646613
 50
96.5251645123398276
 51
107.3794157512579943
  0
ARC
  5
6FDA
  8
0
 10
2321.907200535130869
 20
131.5860784247155095
 30
0.0
 40
0.1066457941680888
 50
107.3794157512579943
 51
132.175312592218603
  0
ARC
  5
6FDB
  8
0
 10
2321.8513599681118649
 20
131.6515813807162942
 30
0.0
 40
0.0207733228584225
 50
139.3532878872840968
 51
221.0605223255107035
  0
ARC
  5
6FDC
  8
0
 10
2322.0261157554318743
 20
131.9204970272683966
 30
0.0
 40
0.3407345573927584
 50
236.0237558046171955
 51
259.6291597182149076
  0
ARC
  5
6FDD
  8
0
 10
2322.236194248837819
 20
132.8667804742177054
 30
0.0
 40
1.3098798214122109
 50
258.0412404172056995
 51
263.9919640027283094
  0
ARC
  5
6FDE
  8
0
 10
2321.5485644458849492
 20
131.3373164117271017
 30
0.0
 40
0.4157128356476345
 50
46.3145982752593213
 51
82.8884625188541548
  0
ARC
  5
6FDF
  8
0
 10
2322.0637093211439606
 20
131.8613783196890097
 30
0.0
 40
0.217804760347303
 50
235.8357085611204127
 51
262.2885964627056978
  0
LINE
  5
6FE0
  8
0
 10
2322.3855405367389722
 20
131.5931741353795985
 30
0.0
 11
2322.3855405367389722
 21
131.6032848170796115
 31
0.0
  0
LINE
  5
6FE1
  8
0
 10
2322.3855405367389722
 20
131.6032848170796115
 30
0.0
 11
2322.3303716742020697
 21
131.6020744449888014
 31
0.0
  0
LINE
  5
6FE2
  8
0
 10
2322.3303716742020697
 20
131.6020744449888014
 30
0.0
 11
2322.3451556313011679
 21
131.5923038866868069
 31
0.0
  0
LINE
  5
6FE3
  8
0
 10
2322.3451556313011679
 20
131.5923038866868069
 30
0.0
 11
2322.3855405367389722
 21
131.5931741353795985
 31
0.0
  0
LINE
  5
6FE4
  8
0
 10
2322.3451556313011679
 20
131.5923038866868069
 30
0.0
 11
2322.3451556313398214
 21
131.6023987962313129
 31
0.0
  0
LINE
  5
6FE5
  8
0
 10
2322.3299442009401901
 20
131.5915821086796029
 30
0.0
 11
2322.3151602438401824
 21
131.6013526669796079
 31
0.0
  0
LINE
  5
6FE6
  8
0
 10
2322.3151602438401824
 20
131.6013526669796079
 30
0.0
 11
2322.263965113139875
 21
131.5975160981795966
 31
0.0
  0
LINE
  5
6FE7
  8
0
 10
2322.263965113139875
 20
131.5975160981795966
 30
0.0
 11
2322.292512693540175
 21
131.5887599909796108
 31
0.0
  0
LINE
  5
6FE8
  8
0
 10
2322.292512693540175
 20
131.5887599909796108
 30
0.0
 11
2322.3299442009401901
 21
131.5915821086796029
 31
0.0
  0
LINE
  5
6FE9
  8
0
 10
2322.292512693540175
 20
131.5887599909796108
 30
0.0
 11
2322.292512693540175
 21
131.5996554570361923
 31
0.0
  0
LINE
  5
6FEA
  8
0
 10
2322.2856935958388931
 20
131.5880628068796057
 30
0.0
 11
2322.2571460155400018
 21
131.5968189141796074
 31
0.0
  0
LINE
  5
6FEB
  8
0
 10
2322.2571460155400018
 20
131.5968189141796074
 30
0.0
 11
2322.2127858732401364
 21
131.5908859192796001
 31
0.0
  0
LINE
  5
6FEC
  8
0
 10
2322.2127858732401364
 20
131.5908859192796001
 30
0.0
 11
2322.2531763952401889
 21
131.5837333741795874
 31
0.0
  0
LINE
  5
6FED
  8
0
 10
2322.2531763952401889
 20
131.5837333741795874
 30
0.0
 11
2322.2856935958388931
 21
131.5880628068796057
 31
0.0
  0
LINE
  5
6FEE
  8
0
 10
2322.2531763952401889
 20
131.5837333741795874
 30
0.0
 11
2322.2531763952401889
 21
131.5962879930469001
 31
0.0
  0
LINE
  5
6FEF
  8
0
 10
2322.2420408554330606
 20
131.5817614399805962
 30
0.0
 11
2322.201650333339785
 21
131.5889139850796141
 31
0.0
  0
LINE
  5
6FF0
  8
0
 10
2322.201650333339785
 20
131.5889139850796141
 30
0.0
 11
2322.1681466285390343
 21
131.5810584807794896
 31
0.0
  0
LINE
  5
6FF1
  8
0
 10
2322.1681466285390343
 20
131.5810584807794896
 30
0.0
 11
2322.2175924881398714
 21
131.5760031399794912
 31
0.0
  0
LINE
  5
6FF2
  8
0
 10
2322.2175924881398714
 20
131.5760031399794912
 30
0.0
 11
2322.2420408554330606
 21
131.5817614399805962
 31
0.0
  0
LINE
  5
6FF3
  8
0
 10
2322.2175924881398714
 20
131.5760031399794912
 30
0.0
 11
2322.2175924881398714
 21
131.5860908727435117
 31
0.0
  0
LINE
  5
6FF4
  8
0
 10
2322.2136554802477804
 20
131.5747955817888908
 30
0.0
 11
2322.164209620640122
 21
131.5798509226796114
 31
0.0
  0
ARC
  5
6FF5
  8
0
 10
2322.1959809219220006
 20
131.473505457926791
 30
0.0
 40
0.1109899700813498
 50
106.6338091323472952
 51
118.7803456990475013
  0
LINE
  5
6FF6
  8
0
 10
2322.1425444629389858
 20
131.5707850462796102
 30
0.0
 11
2322.1977189421399999
 21
131.5681670330795896
 31
0.0
  0
ARC
  5
6FF7
  8
0
 10
2322.2376802645399039
 20
131.4945627330743037
 30
0.0
 40
0.08375261349485
 50
106.6697115743906039
 51
118.4984658408955056
  0
LINE
  5
6FF8
  8
0
 10
2322.1977189421399999
 20
131.5681670330795896
 30
0.0
 11
2322.1977189421399999
 21
131.576424932221812
 31
0.0
  0
LINE
  5
6FF9
  8
0
 10
2322.1936430516398104
 20
131.5654733208795903
 30
0.0
 11
2322.1384685724401606
 21
131.568091334079611
 31
0.0
  0
ARC
  5
6FFA
  8
0
 10
2322.1461633861431437
 20
131.5554321524203942
 30
0.0
 40
0.0148143524398425
 50
121.2930952087479994
 51
168.752045919488495
  0
LINE
  5
6FFB
  8
0
 10
2322.1316335841402179
 20
131.5583217703795924
 30
0.0
 11
2322.1887287448389543
 21
131.5583217703801893
 31
0.0
  0
ARC
  5
6FFC
  8
0
 10
2322.2000185454348866
 20
131.5558280452918041
 30
0.0
 40
0.0115619315991275
 50
123.464565576663901
 51
167.544333563846493
  0
LINE
  5
6FFD
  8
0
 10
2322.1887287448389543
 20
131.5583217703795924
 30
0.0
 11
2322.1887287448389543
 21
131.5657065033265098
 31
0.0
  0
ARC
  5
6FFE
  8
0
 10
2322.1994118393909048
 20
131.5590042193531986
 30
0.0
 40
0.0108830913966298
 50
191.0012085329379943
 51
237.9898930744610936
  0
LINE
  5
6FFF
  8
0
 10
2322.1887287448389543
 20
131.556927402279598
 30
0.0
 11
2322.1316335841402179
 21
131.556927402279598
 31
0.0
  0
ARC
  5
7000
  8
0
 10
2322.146782408512081
 20
131.5602501010575907
 30
0.0
 40
0.0155089395842239
 50
192.3711840069009895
 51
237.583674864857187
  0
LINE
  5
7001
  8
0
 10
2322.1384685724401606
 20
131.5471578385794942
 30
0.0
 11
2322.1936430516398104
 21
131.5497758518795877
 31
0.0
  0
LINE
  5
7002
  8
0
 10
2322.1384685724401606
 20
131.5471578385794942
 30
0.0
 11
2322.1384685724401606
 21
131.556927402279598
 31
0.0
  0
LINE
  5
7003
  8
0
 10
2322.2136554803391846
 20
131.5404535908795935
 30
0.0
 11
2322.1977189421399999
 21
131.5470821396795884
 31
0.0
  0
LINE
  5
7004
  8
0
 10
2322.1977189421399999
 20
131.5470821396795884
 30
0.0
 11
2322.1425444629389858
 21
131.5444641264795962
 31
0.0
  0
LINE
  5
7005
  8
0
 10
2322.1425444629389858
 20
131.5444641264795962
 30
0.0
 11
2322.164209620640122
 21
131.5353982499794938
 31
0.0
  0
LINE
  5
7006
  8
0
 10
2322.164209620640122
 20
131.5353982499794938
 30
0.0
 11
2322.2136554802477804
 21
131.540453590870186
 31
0.0
  0
LINE
  5
7007
  8
0
 10
2322.164209620640122
 20
131.5353982499794938
 30
0.0
 11
2322.164209620640122
 21
131.5454921319795858
 31
0.0
  0
LINE
  5
7008
  8
0
 10
2322.2420408554330606
 20
131.533487732678509
 30
0.0
 11
2322.2175924881398714
 21
131.5392460327796016
 31
0.0
  0
LINE
  5
7009
  8
0
 10
2322.2175924881398714
 20
131.5392460327796016
 30
0.0
 11
2322.1681466285390343
 21
131.5341906918795871
 31
0.0
  0
LINE
  5
700A
  8
0
 10
2322.1681466285390343
 20
131.5341906918795871
 30
0.0
 11
2322.201650333339785
 21
131.526335187579491
 31
0.0
  0
LINE
  5
700B
  8
0
 10
2322.201650333339785
 20
131.526335187579491
 30
0.0
 11
2322.2420408554398819
 21
131.533487732679589
 31
0.0
  0
LINE
  5
700C
  8
0
 10
2322.201650333339785
 20
131.526335187579491
 30
0.0
 11
2322.201650333339785
 21
131.5376161080795896
 31
0.0
  0
LINE
  5
700D
  8
0
 10
2322.2856935958398026
 20
131.5271863657796132
 30
0.0
 11
2322.2531763952401889
 21
131.5315157984794894
 31
0.0
  0
LINE
  5
700E
  8
0
 10
2322.2531763952401889
 20
131.5315157984794894
 30
0.0
 11
2322.2127858732401364
 21
131.5243632533795903
 31
0.0
  0
LINE
  5
700F
  8
0
 10
2322.2127858732401364
 20
131.5243632533795903
 30
0.0
 11
2322.2571460155400018
 21
131.518430258579599
 31
0.0
  0
LINE
  5
7010
  8
0
 10
2322.2571460155400018
 20
131.518430258579599
 30
0.0
 11
2322.2856935958388931
 21
131.5271863657794995
 31
0.0
  0
LINE
  5
7011
  8
0
 10
2322.2571460155400018
 20
131.518430258579599
 30
0.0
 11
2322.2571460155400018
 21
131.5308848423796064
 31
0.0
  0
LINE
  5
7012
  8
0
 10
2322.3299442009401901
 20
131.5236670639795875
 30
0.0
 11
2322.292512693540175
 21
131.5264891817795956
 31
0.0
  0
LINE
  5
7013
  8
0
 10
2322.292512693540175
 20
131.5264891817795956
 30
0.0
 11
2322.263965113139875
 21
131.5177330744795938
 31
0.0
  0
LINE
  5
7014
  8
0
 10
2322.263965113139875
 20
131.5177330744795938
 30
0.0
 11
2322.3151602438401824
 21
131.513896505679611
 31
0.0
  0
LINE
  5
7015
  8
0
 10
2322.3151602438401824
 20
131.513896505679611
 30
0.0
 11
2322.3299442009401901
 21
131.5236670639795875
 31
0.0
  0
LINE
  5
7016
  8
0
 10
2322.3151602438401824
 20
131.513896505679611
 30
0.0
 11
2322.31516826665802
 21
131.5247810834258928
 31
0.0
  0
LINE
  5
7017
  8
0
 10
2322.3855405367189633
 20
131.511964355607887
 30
0.0
 11
2322.3855405367180538
 21
131.5220750372737939
 31
0.0
  0
LINE
  5
7018
  8
0
 10
2322.3855405367180538
 20
131.5220750372737939
 30
0.0
 11
2322.3451556313398214
 21
131.5229452859796027
 31
0.0
  0
LINE
  5
7019
  8
0
 10
2322.3451556313398214
 20
131.5229452859796027
 30
0.0
 11
2322.3303716742461802
 21
131.5131747277492877
 31
0.0
  0
LINE
  5
701A
  8
0
 10
2322.3303716742461802
 20
131.5131747277492877
 30
0.0
 11
2322.3855405367389722
 21
131.5119643555796074
 31
0.0
  0
LINE
  5
701B
  8
0
 10
2322.3855405367389722
 20
131.5231210204796071
 30
0.0
 11
2322.3855405367389722
 21
131.5332331075796048
 31
0.0
  0
ARC
  5
701C
  8
0
 10
2322.3878017342080966
 20
132.2306437154059893
 30
0.0
 40
0.6974142735295842
 50
264.7525066575681194
 51
269.8142319371883104
  0
LINE
  5
701D
  8
0
 10
2322.3240175828400425
 20
131.5361523540796043
 30
0.0
 11
2322.2954660344389595
 21
131.5273950297795977
 31
0.0
  0
ARC
  5
701E
  8
0
 10
2322.3867937504251131
 20
132.5008269321207024
 30
0.0
 40
0.9777067148192461
 50
264.6401796811346117
 51
269.9265588815450769
  0
ARC
  5
701F
  8
0
 10
2322.3439906197600067
 20
131.8192977640736956
 30
0.0
 40
0.283716088461826
 50
255.3344772976651882
 51
264.5813190431902058
  0
LINE
  5
7020
  8
0
 10
2322.2721605571400687
 20
131.5448250678796001
 30
0.0
 11
2322.2227078246401106
 21
131.5397690243796092
 31
0.0
  0
ARC
  5
7021
  8
0
 10
2322.3242283206700449
 20
131.9210387319697872
 30
0.0
 40
0.394554180107473
 50
255.0898298974346119
 51
264.8259664091339118
  0
LINE
  5
7022
  8
0
 10
2322.2886469367399513
 20
131.5280922137795869
 30
0.0
 11
2322.3171984851837806
 21
131.5368495380623983
 31
0.0
  0
ARC
  5
7023
  8
0
 10
2322.2702317788839537
 20
131.5669905441820049
 30
0.0
 40
0.0210539146447658
 50
208.552910428336304
 51
264.5265151666890233
  0
LINE
  5
7024
  8
0
 10
2322.2517385234400535
 20
131.556927402279598
 30
0.0
 11
2322.1946354266401613
 21
131.556927402279598
 31
0.0
  0
ARC
  5
7025
  8
0
 10
2322.2250639336848508
 20
131.576733972592109
 30
0.0
 40
0.0363069451833131
 50
213.060969458296313
 51
260.0184562426480852
  0
LINE
  5
7026
  8
0
 10
2322.2187708167389246
 20
131.5409765824796011
 30
0.0
 11
2322.2682235492179643
 21
131.5460326259772899
 31
0.0
  0
ARC
  5
7027
  8
0
 10
2322.2717237490610387
 20
131.5460011092208106
 30
0.0
 40
0.0234778179393045
 50
98.5739277396461233
 51
148.3466464528092104
  0
LINE
  5
7028
  8
0
 10
2322.2517385234400535
 20
131.5583217704065078
 30
0.0
 11
2322.1946354266401613
 21
131.5583217703795924
 31
0.0
  0
ARC
  5
7029
  8
0
 10
2322.2236095741600366
 20
131.5405331122670134
 30
0.0
 40
0.0340846878112146
 50
98.1614404723696055
 51
148.1317000653064042
  0
LINE
  5
702A
  8
0
 10
2322.2187708167389246
 20
131.5742725901795893
 30
0.0
 11
2322.2682235492397922
 21
131.5692165466795984
 31
0.0
  0
ARC
  5
702B
  8
0
 10
2322.3435433216877755
 20
131.2984773070313906
 30
0.0
 40
0.2811593140552216
 50
95.3765442693687646
 51
104.7076593897264019
  0
LINE
  5
702C
  8
0
 10
2322.2721605571400687
 20
131.5704241047795904
 30
0.0
 11
2322.2227078246401106
 21
131.5754801483795973
 31
0.0
  0
ARC
  5
702D
  8
0
 10
2322.3227630053438588
 20
131.2024850935561915
 30
0.0
 40
0.386181757865777
 50
95.0682306921867735
 51
105.0159728327486022
  0
LINE
  5
702E
  8
0
 10
2322.2886469367399513
 20
131.5871569588794898
 30
0.0
 11
2322.3171984852401692
 21
131.578399634579597
 31
0.0
  0
LINE
  5
702F
  8
0
 10
2322.3855405367389722
 20
131.5820160651796016
 30
0.0
 11
2322.3855405367389722
 21
131.5921281521794981
 31
0.0
  0
ARC
  5
7030
  8
0
 10
2322.38665811673809
 20
130.6172807127551891
 30
0.0
 40
0.9748480800295467
 50
90.0656847282434541
 51
95.3675767090716704
  0
ARC
  5
7031
  8
0
 10
2322.3876916119797897
 20
130.8869263007468078
 30
0.0
 40
0.6950930928616014
 50
90.1773111122691233
 51
95.2559504788142846
  0
LINE
  5
7032
  8
0
 10
2322.3240175828400425
 20
131.5790968185795862
 30
0.0
 11
2322.2954660344389595
 21
131.5878541428795927
 31
0.0
  0
ARC
  5
7033
  8
0
 10
2322.3894775445892265
 20
130.8792788116938084
 30
0.0
 40
0.701701439185765
 50
90.0
 51
95.1105497150508654
  0
LINE
  5
7034
  8
0
 10
2322.326971598739874
 20
131.5781907635796131
 30
0.0
 11
2322.3584945634402175
 21
131.5685220471796129
 31
0.0
  0
ARC
  5
7035
  8
0
 10
2322.3894775445892265
 20
131.2008874219885968
 30
0.0
 40
0.368937884690939
 50
90.0
 51
94.8173076216950079
  0
LINE
  5
7036
  8
0
 10
2322.351675465837161
 20
131.5678248630802898
 30
0.0
 11
2322.3201525010399564
 21
131.5774935795795955
 31
0.0
  0
LINE
  5
7037
  8
0
 10
2322.2576465552401714
 20
131.5583217703795924
 30
0.0
 11
2322.3206924847399932
 21
131.5583217703795924
 31
0.0
  0
ARC
  5
7038
  8
0
 10
2322.350762979638148
 20
131.5155413152589858
 30
0.0
 40
0.0522915098632435
 50
89.0001386073960816
 51
125.1034848995677038
  0
ARC
  5
7039
  8
0
 10
2322.3466935120600283
 20
131.3021046123388089
 30
0.0
 40
0.276664975275025
 50
95.5049617074114536
 51
104.380286615641495
  0
ARC
  5
703A
  8
0
 10
2322.2891735689731831
 20
131.5273382705910876
 30
0.0
 40
0.0442032787701595
 50
104.666101245015895
 51
135.4981605275253003
  0
ARC
  5
703B
  8
0
 10
2322.3894775445892265
 20
131.2310513256551019
 30
0.0
 40
0.337728204924427
 50
90.0
 51
94.7599198442563733
  0
LINE
  5
703C
  8
0
 10
2322.3614526063402081
 20
131.5676147568796068
 30
0.0
 11
2322.3792488981398492
 21
131.5621562824796058
 31
0.0
  0
ARC
  5
703D
  8
0
 10
2322.3894775446401582
 20
131.4122622898590862
 30
0.0
 40
0.150242584618808
 50
90.0000000190723455
 51
93.9037663889527892
  0
LINE
  5
703E
  8
0
 10
2322.3724298004399316
 20
131.5614590984795882
 30
0.0
 11
2322.3546335087389707
 21
131.5669175728795892
 31
0.0
  0
ARC
  5
703F
  8
0
 10
2322.369529589189824
 20
131.4305468949465023
 30
0.0
 40
0.1371818319338443
 50
96.2338337920700724
 51
103.2118682265376037
  0
ARC
  5
7040
  8
0
 10
2322.3410754741807978
 20
131.5438199250604896
 30
0.0
 40
0.0204840138040599
 50
98.1364965227225952
 51
134.9308909078928025
  0
LINE
  5
7041
  8
0
 10
2322.3266085704399302
 20
131.5583217703795924
 30
0.0
 11
2322.3622011539400773
 21
131.5583217703795924
 31
0.0
  0
ARC
  5
7042
  8
0
 10
2322.3727626508698449
 20
131.5421309867161881
 30
0.0
 40
0.0193309775682337
 50
90.9865961120450066
 51
123.1170276128971039
  0
LINE
  5
7043
  8
0
 10
2322.3724298004399316
 20
131.5537900741794886
 30
0.0
 11
2322.3546335087389707
 21
131.5483315997796012
 31
0.0
  0
ARC
  5
7044
  8
0
 10
2322.369529589189824
 20
131.6847022777126028
 30
0.0
 40
0.1371818319338443
 50
256.7881317734623963
 51
263.7661662079299276
  0
ARC
  5
7045
  8
0
 10
2322.3410754741807978
 20
131.5714292475985872
 30
0.0
 40
0.0204840138040599
 50
225.0691090921071122
 51
261.8635034772775043
  0
LINE
  5
7046
  8
0
 10
2322.3266085704399302
 20
131.556927402279598
 30
0.0
 11
2322.3622011539400773
 21
131.556927402279598
 31
0.0
  0
ARC
  5
7047
  8
0
 10
2322.3727626508698449
 20
131.5731181859428887
 30
0.0
 40
0.0193309775682337
 50
236.8829723871029103
 51
269.0134038879550076
  0
ARC
  5
7048
  8
0
 10
2322.3894775445892265
 20
132.2359703609652968
 30
0.0
 40
0.701701439185765
 50
264.8894502849490777
 51
270.0
  0
LINE
  5
7049
  8
0
 10
2322.326971598739874
 20
131.5370584090796058
 30
0.0
 11
2322.3584945634402175
 21
131.546727125479606
 31
0.0
  0
ARC
  5
704A
  8
0
 10
2322.3894775445892265
 20
131.9143617506705084
 30
0.0
 40
0.368937884690939
 50
265.1826923783049779
 51
270.0
  0
LINE
  5
704B
  8
0
 10
2322.351675465837161
 20
131.547424309578787
 30
0.0
 11
2322.3201525010399564
 21
131.537755593079595
 31
0.0
  0
LINE
  5
704C
  8
0
 10
2322.2576465552401714
 20
131.556927402279598
 30
0.0
 11
2322.3206924847399932
 21
131.556927402279598
 31
0.0
  0
ARC
  5
704D
  8
0
 10
2322.350762979638148
 20
131.5997078574002046
 30
0.0
 40
0.0522915098632435
 50
234.8965151004323104
 51
270.9998613926039184
  0
ARC
  5
704E
  8
0
 10
2322.3466935120600283
 20
131.8131445603202963
 30
0.0
 40
0.276664975275025
 50
255.6197133843583913
 51
264.4950382925886174
  0
ARC
  5
704F
  8
0
 10
2322.2891735689731831
 20
131.5879109020679891
 30
0.0
 40
0.0442032787701595
 50
224.501839472474586
 51
255.3338987549840908
  0
ARC
  5
7050
  8
0
 10
2322.3894775445892265
 20
131.8841978470040033
 30
0.0
 40
0.337728204924427
 50
265.2400801557436125
 51
270.0
  0
LINE
  5
7051
  8
0
 10
2322.3614526063402081
 20
131.547634415779612
 30
0.0
 11
2322.3792488981398492
 21
131.5530928901796131
 31
0.0
  0
ARC
  5
7052
  8
0
 10
2322.3894775446401582
 20
131.7029868828001042
 30
0.0
 40
0.150242584618808
 50
266.0962336110471824
 51
269.9999999809277256
  0
LINE
  5
7053
  8
0
 10
2322.3206924847399932
 20
131.5583217703795924
 30
0.0
 11
2322.3206924847399932
 21
131.5773279559035132
 31
0.0
  0
LINE
  5
7054
  8
0
 10
2322.3584945634402175
 20
131.5685220471796129
 30
0.0
 11
2322.3584945634402175
 21
131.5802959046625915
 31
0.0
  0
LINE
  5
7055
  8
0
 10
2322.3792488981398492
 20
131.5621562824796058
 30
0.0
 11
2322.3792488981398492
 21
131.5686245994687908
 31
0.0
  0
LINE
  5
7056
  8
0
 10
2322.3622011539400773
 20
131.5583217704015908
 30
0.0
 11
2322.3622011539400773
 21
131.5645964265256964
 31
0.0
  0
LINE
  5
7057
  8
0
 10
2322.3546335087389707
 20
131.5483315997796012
 30
0.0
 11
2322.3546335087389707
 21
131.556927402279598
 31
0.0
  0
LINE
  5
7058
  8
0
 10
2322.3201525010399564
 20
131.537755593079595
 30
0.0
 11
2322.3201525010399564
 21
131.556927402279598
 31
0.0
  0
LINE
  5
7059
  8
0
 10
2322.2187708167389246
 20
131.5409765824796011
 30
0.0
 11
2322.2187708167389246
 21
131.556927402279598
 31
0.0
  0
LINE
  5
705A
  8
0
 10
2322.2886469367399513
 20
131.5280922137795869
 30
0.0
 11
2322.2886469367399513
 21
131.541031891926508
 31
0.0
  0
LINE
  5
705B
  8
0
 10
2322.2517385234400535
 20
131.5583217704065078
 30
0.0
 11
2322.2517385234400535
 21
131.5709019744269881
 31
0.0
  0
LINE
  5
705C
  8
0
 10
2322.2721605571400687
 20
131.5704241047795904
 30
0.0
 11
2322.2721605571400687
 21
131.5853372090579114
 31
0.0
  0
LINE
  5
705D
  8
0
 10
2322.3240175828400425
 20
131.5790968185795862
 30
0.0
 11
2322.3240175828400425
 21
131.5901141736570139
 31
0.0
  0
ARC
  5
705E
  8
0
 10
2322.3750795063820078
 20
129.9592062324576034
 30
0.0
 40
1.6488696351037651
 50
84.4444926588548554
 51
89.4996831229572081
  0
ARC
  5
705F
  8
0
 10
2322.4713251197981663
 20
130.9728830210488013
 30
0.0
 40
0.6306410131262125
 50
74.7835166813005827
 51
84.2318458410742892
  0
ARC
  5
7060
  8
0
 10
2322.6150385933779035
 20
131.5012356776186095
 30
0.0
 40
0.0830918443818576
 50
51.7186995882610674
 51
74.7835166813005827
  0
ARC
  5
7061
  8
0
 10
2322.6595701703099621
 20
131.5576602855844897
 30
0.0
 40
0.011211403869366
 50
310.8973843841116036
 51
51.7186995882610674
  0
ARC
  5
7062
  8
0
 10
2322.6042379623299894
 20
131.6334675416862012
 30
0.0
 40
0.1050297316124873
 50
283.1782519449117217
 51
306.6346940308922058
  0
ARC
  5
7063
  8
0
 10
2322.4622819952619466
 20
132.1989380424400053
 30
0.0
 40
0.6880350298145693
 50
273.8892570928463783
 51
283.9528054970786002
  0
ARC
  5
7064
  8
0
 10
2322.3369244430341496
 20
134.3574578654458946
 30
0.0
 40
2.85016648057533
 50
271.0565142719120217
 51
273.4602692248628841
  0
ARC
  5
7065
  8
0
 10
2322.3627343759590076
 20
129.8599122333741889
 30
0.0
 40
1.8416601500654071
 50
82.6167953650688958
 51
89.1679656265209104
  0
ARC
  5
7066
  8
0
 10
2322.5400084285211051
 20
131.2497999890215965
 30
0.0
 40
0.4405244630907992
 50
70.5399174418885906
 51
82.2522099544153917
  0
ARC
  5
7067
  8
0
 10
2322.6665732700971603
 20
131.6080009752095918
 30
0.0
 40
0.0606210469052811
 50
47.784178627630773
 51
70.5399174418885906
  0
ARC
  5
7068
  8
0
 10
2322.6972445657579556
 20
131.6418079366943061
 30
0.0
 40
0.0149741519147168
 50
358.6907358747130843
 51
47.7841786276324072
  0
ARC
  5
7069
  8
0
 10
2322.5499226741198981
 20
131.6638776292639079
 30
0.0
 40
0.1638323144354217
 50
316.2438572024302061
 51
352.1374315934523906
  0
ARC
  5
706A
  8
0
 10
2322.3720905518189284
 20
129.9218104567490002
 30
0.0
 40
1.7855404253993239
 50
81.243412423693087
 51
89.4420641312089231
  0
ARC
  5
706B
  8
0
 10
2322.5917399487780131
 20
131.3617692925847962
 30
0.0
 40
0.3289338299358151
 50
65.1691543165304807
 51
80.8731108838100283
  0
ARC
  5
706C
  8
0
 10
2322.7184966940681079
 20
131.6357086122102089
 30
0.0
 40
0.0270894605776955
 50
32.1199253712966879
 51
65.1691543165304807
  0
ARC
  5
706D
  8
0
 10
2322.7298838686529052
 20
131.6428572928988956
 30
0.0
 40
0.0136443357877433
 50
318.0833758581366055
 51
32.1199253712960129
  0
ARC
  5
706E
  8
0
 10
2322.6830103395518563
 20
131.6963131367633082
 30
0.0
 40
0.084658988892426
 50
285.9441562076684136
 51
312.3457337801809217
  0
ARC
  5
706F
  8
0
 10
2322.7408921402898159
 20
131.6928991306050989
 30
0.0
 40
0.0154044069208356
 50
352.4614090641825896
 51
53.9060789852035995
  0
LINE
  5
7070
  8
0
 10
2322.7561634026401407
 20
131.6908781657795942
 30
0.0
 11
2322.7434783720041196
 21
131.6416922273567138
 31
0.0
  0
ARC
  5
7071
  8
0
 10
2322.409310528358219
 20
129.6395893836202902
 30
0.0
 40
2.093657121604259
 50
80.6358381703923044
 51
90.5427647388992654
  0
ARC
  5
7072
  8
0
 10
2322.7025165692898554
 20
131.3628114534787983
 30
0.0
 40
0.3458062192045004
 50
61.3813850731954602
 51
82.1131656735072397
  0
ARC
  5
7073
  8
0
 10
2322.8575098361261553
 20
131.6456141667322015
 30
0.0
 40
0.0233237770123801
 50
289.846343863017978
 51
62.8587125763245709
  0
ARC
  5
7074
  8
0
 10
2322.649744685396854
 20
132.0857253778816869
 30
0.0
 40
0.5099110937743661
 50
274.4185013013301955
 51
295.0230384272697961
  0
ARC
  5
7075
  8
0
 10
2322.354848648612915
 20
128.1683683458267922
 30
0.0
 40
3.5741159067324619
 50
83.6845796381720106
 51
89.4448639373346595
  0
ARC
  5
7076
  8
0
 10
2322.6524569930152211
 20
130.8854170261718082
 30
0.0
 40
0.8408241210646613
 50
72.6205842487419915
 51
83.4748354876601866
  0
ARC
  5
7077
  8
0
 10
2322.8717545540489482
 20
131.5860784247155095
 30
0.0
 40
0.1066457941680888
 50
47.8246874077813686
 51
72.6205842487419915
  0
ARC
  5
7078
  8
0
 10
2322.9275951210670428
 20
131.6515813807162942
 30
0.0
 40
0.0207733228584225
 50
318.9394776744894102
 51
40.646712112715889
  0
ARC
  5
7079
  8
0
 10
2322.7528393337470334
 20
131.9204970272683966
 30
0.0
 40
0.3407345573927584
 50
280.3708402817849219
 51
303.9762441953827761
  0
ARC
  5
707A
  8
0
 10
2322.5427608403419981
 20
132.8667804742177054
 30
0.0
 40
1.3098798214122109
 50
276.0080359972718043
 51
281.9587595827943005
  0
ARC
  5
707B
  8
0
 10
2323.2303906432939584
 20
131.3373164117271017
 30
0.0
 40
0.4157128356476345
 50
97.111537481145831
 51
133.6854017247407
  0
ARC
  5
707C
  8
0
 10
2322.7152457680349471
 20
131.8613783196890097
 30
0.0
 40
0.217804760347303
 50
277.7114035372941885
 51
304.1642914388796157
  0
LINE
  5
707D
  8
0
 10
2322.3934145524399355
 20
131.5931741353795985
 30
0.0
 11
2322.3934145524399355
 21
131.6032848170796115
 31
0.0
  0
LINE
  5
707E
  8
0
 10
2322.3934145524399355
 20
131.6032848170796115
 30
0.0
 11
2322.4485834149782022
 21
131.6020744449888014
 31
0.0
  0
LINE
  5
707F
  8
0
 10
2322.4485834149782022
 20
131.6020744449888014
 30
0.0
 11
2322.4337994578781945
 21
131.5923038866868069
 31
0.0
  0
LINE
  5
7080
  8
0
 10
2322.4337994578781945
 20
131.5923038866868069
 30
0.0
 11
2322.3934145524399355
 21
131.5931741353795985
 31
0.0
  0
LINE
  5
7081
  8
0
 10
2322.4337994578781945
 20
131.5923038866868069
 30
0.0
 11
2322.4337994578399957
 21
131.6023987962313129
 31
0.0
  0
LINE
  5
7082
  8
0
 10
2322.4490108882400818
 20
131.5915821086796029
 30
0.0
 11
2322.4637948453400895
 21
131.6013526669796079
 31
0.0
  0
LINE
  5
7083
  8
0
 10
2322.4637948453400895
 20
131.6013526669796079
 30
0.0
 11
2322.5149899760399421
 21
131.5975160981795966
 31
0.0
  0
LINE
  5
7084
  8
0
 10
2322.5149899760399421
 20
131.5975160981795966
 30
0.0
 11
2322.4864423956400969
 21
131.5887599909796108
 31
0.0
  0
LINE
  5
7085
  8
0
 10
2322.4864423956400969
 20
131.5887599909796108
 30
0.0
 11
2322.4490108882400818
 21
131.5915821086796029
 31
0.0
  0
LINE
  5
7086
  8
0
 10
2322.4864423956400969
 20
131.5887599909796108
 30
0.0
 11
2322.4864423956400969
 21
131.5996554570361923
 31
0.0
  0
LINE
  5
7087
  8
0
 10
2322.4932614933400146
 20
131.5880628068796057
 30
0.0
 11
2322.5218090736398153
 21
131.5968189141796074
 31
0.0
  0
LINE
  5
7088
  8
0
 10
2322.5218090736398153
 20
131.5968189141796074
 30
0.0
 11
2322.5661692159401355
 21
131.5908859192796001
 31
0.0
  0
LINE
  5
7089
  8
0
 10
2322.5661692159401355
 20
131.5908859192796001
 30
0.0
 11
2322.525778693940083
 21
131.5837333741795874
 31
0.0
  0
LINE
  5
708A
  8
0
 10
2322.525778693940083
 20
131.5837333741795874
 30
0.0
 11
2322.4932614933400146
 21
131.5880628068796057
 31
0.0
  0
LINE
  5
708B
  8
0
 10
2322.525778693940083
 20
131.5837333741795874
 30
0.0
 11
2322.525778693940083
 21
131.5962879930469001
 31
0.0
  0
LINE
  5
708C
  8
0
 10
2322.536914233745847
 20
131.5817614399805962
 30
0.0
 11
2322.5773047558400322
 21
131.5889139850796141
 31
0.0
  0
LINE
  5
708D
  8
0
 10
2322.5773047558400322
 20
131.5889139850796141
 30
0.0
 11
2322.6108084606389639
 21
131.5810584807794896
 31
0.0
  0
LINE
  5
708E
  8
0
 10
2322.6108084606389639
 20
131.5810584807794896
 30
0.0
 11
2322.5613626010399457
 21
131.5760031399794912
 31
0.0
  0
LINE
  5
708F
  8
0
 10
2322.5613626010399457
 20
131.5760031399794912
 30
0.0
 11
2322.536914233745847
 21
131.5817614399805962
 31
0.0
  0
LINE
  5
7090
  8
0
 10
2322.5613626010399457
 20
131.5760031399794912
 30
0.0
 11
2322.5613626010399457
 21
131.5860908727435117
 31
0.0
  0
LINE
  5
7091
  8
0
 10
2322.5652996089311273
 20
131.5747955817888908
 30
0.0
 11
2322.6147454685387856
 21
131.5798509226796114
 31
0.0
  0
ARC
  5
7092
  8
0
 10
2322.5829741672569071
 20
131.473505457926791
 30
0.0
 40
0.1109899700813498
 50
61.2196543009524703
 51
73.3661908676526764
  0
LINE
  5
7093
  8
0
 10
2322.6364106262390123
 20
131.5707850462796102
 30
0.0
 11
2322.5812361470398173
 21
131.5681670330795896
 31
0.0
  0
ARC
  5
7094
  8
0
 10
2322.5412748246399133
 20
131.4945627330743037
 30
0.0
 40
0.08375261349485
 50
61.5015341591045228
 51
73.3302884256094103
  0
LINE
  5
7095
  8
0
 10
2322.5812361470398173
 20
131.5681670330795896
 30
0.0
 11
2322.5812361470398173
 21
131.576424932221812
 31
0.0
  0
LINE
  5
7096
  8
0
 10
2322.5853120375400067
 20
131.5654733208795903
 30
0.0
 11
2322.6404865167401113
 21
131.568091334079611
 31
0.0
  0
ARC
  5
7097
  8
0
 10
2322.6327917030362187
 20
131.5554321524203942
 30
0.0
 40
0.0148143524398425
 50
11.2479540805114695
 51
58.706904791252029
  0
LINE
  5
7098
  8
0
 10
2322.647321505040054
 20
131.5583217703795924
 30
0.0
 11
2322.5902263443399534
 21
131.5583217703801893
 31
0.0
  0
ARC
  5
7099
  8
0
 10
2322.578936543744021
 20
131.5558280452918041
 30
0.0
 40
0.0115619315991275
 50
12.4556664361535105
 51
56.5354344233360706
  0
LINE
  5
709A
  8
0
 10
2322.5902263443399534
 20
131.5583217703795924
 30
0.0
 11
2322.5902263443399534
 21
131.5657065033265098
 31
0.0
  0
ARC
  5
709B
  8
0
 10
2322.5795432497889124
 20
131.5590042193531986
 30
0.0
 40
0.0108830913966298
 50
302.0101069255388779
 51
348.998791467061892
  0
LINE
  5
709C
  8
0
 10
2322.5902263443399534
 20
131.556927402279598
 30
0.0
 11
2322.647321505040054
 21
131.556927402279598
 31
0.0
  0
ARC
  5
709D
  8
0
 10
2322.6321726806681909
 20
131.5602501010575907
 30
0.0
 40
0.0155089395842239
 50
302.4163251351426993
 51
347.6288159930982147
  0
LINE
  5
709E
  8
0
 10
2322.6404865167401113
 20
131.5471578385794942
 30
0.0
 11
2322.5853120375400067
 21
131.5497758518795877
 31
0.0
  0
LINE
  5
709F
  8
0
 10
2322.6404865167401113
 20
131.5471578385794942
 30
0.0
 11
2322.6404865167401113
 21
131.556927402279598
 31
0.0
  0
LINE
  5
70A0
  8
0
 10
2322.5652996088388136
 20
131.5404535908795935
 30
0.0
 11
2322.5812361470398173
 21
131.5470821396795884
 31
0.0
  0
LINE
  5
70A1
  8
0
 10
2322.5812361470398173
 20
131.5470821396795884
 30
0.0
 11
2322.6364106262390123
 21
131.5444641264795962
 31
0.0
  0
LINE
  5
70A2
  8
0
 10
2322.6364106262390123
 20
131.5444641264795962
 30
0.0
 11
2322.6147454685387856
 21
131.5353982499794938
 31
0.0
  0
LINE
  5
70A3
  8
0
 10
2322.6147454685387856
 20
131.5353982499794938
 30
0.0
 11
2322.5652996089311273
 21
131.540453590870186
 31
0.0
  0
LINE
  5
70A4
  8
0
 10
2322.6147454685387856
 20
131.5353982499794938
 30
0.0
 11
2322.6147454685387856
 21
131.5454921319795858
 31
0.0
  0
LINE
  5
70A5
  8
0
 10
2322.536914233745847
 20
131.533487732678509
 30
0.0
 11
2322.5613626010399457
 21
131.5392460327796016
 31
0.0
  0
LINE
  5
70A6
  8
0
 10
2322.5613626010399457
 20
131.5392460327796016
 30
0.0
 11
2322.6108084606389639
 21
131.5341906918795871
 31
0.0
  0
LINE
  5
70A7
  8
0
 10
2322.6108084606389639
 20
131.5341906918795871
 30
0.0
 11
2322.5773047558400322
 21
131.526335187579491
 31
0.0
  0
LINE
  5
70A8
  8
0
 10
2322.5773047558400322
 20
131.526335187579491
 30
0.0
 11
2322.5369142337399353
 21
131.533487732679589
 31
0.0
  0
LINE
  5
70A9
  8
0
 10
2322.5773047558400322
 20
131.526335187579491
 30
0.0
 11
2322.5773047558400322
 21
131.5376161080795896
 31
0.0
  0
LINE
  5
70AA
  8
0
 10
2322.4932614933400146
 20
131.5271863657796132
 30
0.0
 11
2322.525778693940083
 21
131.5315157984794894
 31
0.0
  0
LINE
  5
70AB
  8
0
 10
2322.525778693940083
 20
131.5315157984794894
 30
0.0
 11
2322.5661692159401355
 21
131.5243632533795903
 31
0.0
  0
LINE
  5
70AC
  8
0
 10
2322.5661692159401355
 20
131.5243632533795903
 30
0.0
 11
2322.5218090736398153
 21
131.518430258579599
 31
0.0
  0
LINE
  5
70AD
  8
0
 10
2322.5218090736398153
 20
131.518430258579599
 30
0.0
 11
2322.4932614933400146
 21
131.5271863657794995
 31
0.0
  0
LINE
  5
70AE
  8
0
 10
2322.5218090736398153
 20
131.518430258579599
 30
0.0
 11
2322.5218090736398153
 21
131.5308848423796064
 31
0.0
  0
LINE
  5
70AF
  8
0
 10
2322.4490108882400818
 20
131.5236670639795875
 30
0.0
 11
2322.4864423956400969
 21
131.5264891817795956
 31
0.0
  0
LINE
  5
70B0
  8
0
 10
2322.4864423956400969
 20
131.5264891817795956
 30
0.0
 11
2322.5149899760399421
 21
131.5177330744795938
 31
0.0
  0
LINE
  5
70B1
  8
0
 10
2322.5149899760399421
 20
131.5177330744795938
 30
0.0
 11
2322.4637948453400895
 21
131.513896505679611
 31
0.0
  0
LINE
  5
70B2
  8
0
 10
2322.4637948453400895
 20
131.513896505679611
 30
0.0
 11
2322.4490108882400818
 21
131.5236670639795875
 31
0.0
  0
LINE
  5
70B3
  8
0
 10
2322.4637948453400895
 20
131.513896505679611
 30
0.0
 11
2322.4637868225208877
 21
131.5247810834258928
 31
0.0
  0
LINE
  5
70B4
  8
0
 10
2322.3934145524608539
 20
131.511964355607887
 30
0.0
 11
2322.3934145524608539
 21
131.5220750372737939
 31
0.0
  0
LINE
  5
70B5
  8
0
 10
2322.3934145524608539
 20
131.5220750372737939
 30
0.0
 11
2322.4337994578399957
 21
131.5229452859796027
 31
0.0
  0
LINE
  5
70B6
  8
0
 10
2322.4337994578399957
 20
131.5229452859796027
 30
0.0
 11
2322.4485834149340917
 21
131.5131747277492877
 31
0.0
  0
LINE
  5
70B7
  8
0
 10
2322.4485834149340917
 20
131.5131747277492877
 30
0.0
 11
2322.3934145524399355
 21
131.5119643555796074
 31
0.0
  0
LINE
  5
70B8
  8
0
 10
2322.3934145524399355
 20
131.5231210204796071
 30
0.0
 11
2322.3934145524399355
 21
131.5332331075796048
 31
0.0
  0
ARC
  5
70B9
  8
0
 10
2322.3911533549708111
 20
132.2306437154059893
 30
0.0
 40
0.6974142735295842
 50
270.1857680628116896
 51
275.2474933424318806
  0
LINE
  5
70BA
  8
0
 10
2322.4549375063397747
 20
131.5361523540796043
 30
0.0
 11
2322.4834890547390387
 21
131.5273950297795977
 31
0.0
  0
ARC
  5
70BB
  8
0
 10
2322.3921613387537946
 20
132.5008269321207024
 30
0.0
 40
0.9777067148192461
 50
270.0734411184549231
 51
275.3598203188653883
  0
ARC
  5
70BC
  8
0
 10
2322.4349644694198105
 20
131.8192977640736956
 30
0.0
 40
0.283716088461826
 50
275.4186809568096805
 51
284.6655227023347834
  0
LINE
  5
70BD
  8
0
 10
2322.5067945320402032
 20
131.5448250678796001
 30
0.0
 11
2322.5562472645401613
 21
131.5397690243796092
 31
0.0
  0
ARC
  5
70BE
  8
0
 10
2322.4547267685088627
 20
131.9210387319697872
 30
0.0
 40
0.394554180107473
 50
275.1740335908662018
 51
284.9101701025654165
  0
LINE
  5
70BF
  8
0
 10
2322.4903081524398658
 20
131.5280922137795869
 30
0.0
 11
2322.4617566039960366
 21
131.5368495380623983
 31
0.0
  0
ARC
  5
70C0
  8
0
 10
2322.5087233102958635
 20
131.5669905441820049
 30
0.0
 40
0.0210539146447658
 50
275.4734848333109767
 51
331.4470895716638097
  0
LINE
  5
70C1
  8
0
 10
2322.5272165657402184
 20
131.556927402279598
 30
0.0
 11
2322.5843196625401106
 21
131.556927402279598
 31
0.0
  0
ARC
  5
70C2
  8
0
 10
2322.5538911554949664
 20
131.576733972592109
 30
0.0
 40
0.0363069451833131
 50
279.9815437573518011
 51
326.939030541703687
  0
LINE
  5
70C3
  8
0
 10
2322.560184272439983
 20
131.5409765824796011
 30
0.0
 11
2322.5107315399618528
 21
131.5460326259772899
 31
0.0
  0
ARC
  5
70C4
  8
0
 10
2322.507231340117869
 20
131.5460011092208106
 30
0.0
 40
0.0234778179393045
 50
31.6533535471907292
 51
81.4260722603538909
  0
LINE
  5
70C5
  8
0
 10
2322.5272165657402184
 20
131.5583217704065078
 30
0.0
 11
2322.5843196625401106
 21
131.5583217703795924
 31
0.0
  0
ARC
  5
70C6
  8
0
 10
2322.5553455150197806
 20
131.5405331122670134
 30
0.0
 40
0.0340846878112146
 50
31.8682999346936313
 51
81.838559527630423
  0
LINE
  5
70C7
  8
0
 10
2322.560184272439983
 20
131.5742725901795893
 30
0.0
 11
2322.510731539940025
 21
131.5692165466795984
 31
0.0
  0
ARC
  5
70C8
  8
0
 10
2322.4354117674920417
 20
131.2984773070313906
 30
0.0
 40
0.2811593140552216
 50
75.2923406102736124
 51
84.6234557306312638
  0
LINE
  5
70C9
  8
0
 10
2322.5067945320402032
 20
131.5704241047795904
 30
0.0
 11
2322.5562472645401613
 21
131.5754801483795973
 31
0.0
  0
ARC
  5
70CA
  8
0
 10
2322.4561920838359583
 20
131.2024850935561915
 30
0.0
 40
0.386181757865777
 50
74.9840271672513978
 51
84.9317693078132407
  0
LINE
  5
70CB
  8
0
 10
2322.4903081524398658
 20
131.5871569588794898
 30
0.0
 11
2322.4617566039401027
 21
131.578399634579597
 31
0.0
  0
LINE
  5
70CC
  8
0
 10
2322.3934145524399355
 20
131.5820160651796016
 30
0.0
 11
2322.3934145524399355
 21
131.5921281521794981
 31
0.0
  0
ARC
  5
70CD
  8
0
 10
2322.3922969724408176
 20
130.6172807127551891
 30
0.0
 40
0.9748480800295467
 50
84.6324232909283438
 51
89.9343152717565459
  0
ARC
  5
70CE
  8
0
 10
2322.3912634771991179
 20
130.8869263007468078
 30
0.0
 40
0.6950930928616014
 50
84.7440495211857012
 51
89.8226888877308625
  0
LINE
  5
70CF
  8
0
 10
2322.4549375063397747
 20
131.5790968185795862
 30
0.0
 11
2322.4834890547390387
 21
131.5878541428795927
 31
0.0
  0
ARC
  5
70D0
  8
0
 10
2322.3894775445892265
 20
130.8792788116938084
 30
0.0
 40
0.701701439185765
 50
84.8894502849491346
 51
90.0
  0
LINE
  5
70D1
  8
0
 10
2322.4519834904399431
 20
131.5781907635796131
 30
0.0
 11
2322.4204605257391449
 21
131.5685220471796129
 31
0.0
  0
ARC
  5
70D2
  8
0
 10
2322.3894775445892265
 20
131.2008874219885968
 30
0.0
 40
0.368937884690939
 50
85.1826923783050063
 51
90.0
  0
LINE
  5
70D3
  8
0
 10
2322.4272796233422014
 20
131.5678248630802898
 30
0.0
 11
2322.4588025881398607
 21
131.5774935795795955
 31
0.0
  0
LINE
  5
70D4
  8
0
 10
2322.5213085339401005
 20
131.5583217703795924
 30
0.0
 11
2322.4582626044398239
 21
131.5583217703795924
 31
0.0
  0
ARC
  5
70D5
  8
0
 10
2322.4281921095412144
 20
131.5155413152589858
 30
0.0
 40
0.0522915098632435
 50
54.8965151004323317
 51
90.9998613926039468
  0
ARC
  5
70D6
  8
0
 10
2322.4322615771188794
 20
131.3021046123388089
 30
0.0
 40
0.276664975275025
 50
75.6197133843584623
 51
84.4950382925885748
  0
ARC
  5
70D7
  8
0
 10
2322.4897815202070888
 20
131.5273382705910876
 30
0.0
 40
0.0442032787701595
 50
44.50183947247465
 51
75.3338987549841193
  0
ARC
  5
70D8
  8
0
 10
2322.3894775445892265
 20
131.2310513256551019
 30
0.0
 40
0.337728204924427
 50
85.2400801557436267
 51
90.0
  0
LINE
  5
70D9
  8
0
 10
2322.4175024828400637
 20
131.5676147568796068
 30
0.0
 11
2322.399706191039968
 21
131.5621562824796058
 31
0.0
  0
ARC
  5
70DA
  8
0
 10
2322.3894775445401137
 20
131.4122622898590862
 30
0.0
 40
0.150242584618808
 50
86.0962336110472251
 51
89.9999999809276545
  0
LINE
  5
70DB
  8
0
 10
2322.4065252887398856
 20
131.5614590984795882
 30
0.0
 11
2322.424321580439937
 21
131.5669175728795892
 31
0.0
  0
ARC
  5
70DC
  8
0
 10
2322.4094254999890836
 20
131.4305468949465023
 30
0.0
 40
0.1371818319338443
 50
76.7881317734624105
 51
83.7661662079299418
  0
ARC
  5
70DD
  8
0
 10
2322.4378796149981099
 20
131.5438199250604896
 30
0.0
 40
0.0204840138040599
 50
45.069109092107162
 51
81.8635034772774191
  0
LINE
  5
70DE
  8
0
 10
2322.452346518739887
 20
131.5583217703795924
 30
0.0
 11
2322.4167539352401946
 21
131.5583217703795924
 31
0.0
  0
ARC
  5
70DF
  8
0
 10
2322.4061924383099722
 20
131.5421309867161881
 30
0.0
 40
0.0193309775682337
 50
56.8829723871028676
 51
89.0134038879549934
  0
LINE
  5
70E0
  8
0
 10
2322.4065252887398856
 20
131.5537900741794886
 30
0.0
 11
2322.424321580439937
 21
131.5483315997796012
 31
0.0
  0
ARC
  5
70E1
  8
0
 10
2322.4094254999890836
 20
131.6847022777126028
 30
0.0
 40
0.1371818319338443
 50
276.2338337920700724
 51
283.2118682265376037
  0
ARC
  5
70E2
  8
0
 10
2322.4378796149981099
 20
131.5714292475985872
 30
0.0
 40
0.0204840138040599
 50
278.1364965227226094
 51
314.9308909078928878
  0
LINE
  5
70E3
  8
0
 10
2322.452346518739887
 20
131.556927402279598
 30
0.0
 11
2322.4167539352401946
 21
131.556927402279598
 31
0.0
  0
ARC
  5
70E4
  8
0
 10
2322.4061924383099722
 20
131.5731181859428887
 30
0.0
 40
0.0193309775682337
 50
270.9865961120449924
 51
303.1170276128971182
  0
ARC
  5
70E5
  8
0
 10
2322.3894775445892265
 20
132.2359703609652968
 30
0.0
 40
0.701701439185765
 50
270.0
 51
275.1105497150509223
  0
LINE
  5
70E6
  8
0
 10
2322.4519834904399431
 20
131.5370584090796058
 30
0.0
 11
2322.4204605257391449
 21
131.546727125479606
 31
0.0
  0
ARC
  5
70E7
  8
0
 10
2322.3894775445892265
 20
131.9143617506705084
 30
0.0
 40
0.368937884690939
 50
270.0
 51
274.8173076216950221
  0
LINE
  5
70E8
  8
0
 10
2322.4272796233422014
 20
131.547424309578787
 30
0.0
 11
2322.4588025881398607
 21
131.537755593079595
 31
0.0
  0
LINE
  5
70E9
  8
0
 10
2322.5213085339401005
 20
131.556927402279598
 30
0.0
 11
2322.4582626044398239
 21
131.556927402279598
 31
0.0
  0
ARC
  5
70EA
  8
0
 10
2322.4281921095412144
 20
131.5997078574002046
 30
0.0
 40
0.0522915098632435
 50
269.0001386073960816
 51
305.103484899567718
  0
ARC
  5
70EB
  8
0
 10
2322.4322615771188794
 20
131.8131445603202963
 30
0.0
 40
0.276664975275025
 50
275.5049617074113826
 51
284.3802866156415234
  0
ARC
  5
70EC
  8
0
 10
2322.4897815202070888
 20
131.5879109020679891
 30
0.0
 40
0.0442032787701595
 50
284.6661012450159092
 51
315.4981605275252718
  0
ARC
  5
70ED
  8
0
 10
2322.3894775445892265
 20
131.8841978470040033
 30
0.0
 40
0.337728204924427
 50
270.0
 51
274.7599198442563875
  0
LINE
  5
70EE
  8
0
 10
2322.4175024828400637
 20
131.547634415779612
 30
0.0
 11
2322.399706191039968
 21
131.5530928901796131
 31
0.0
  0
ARC
  5
70EF
  8
0
 10
2322.3894775445401137
 20
131.7029868828001042
 30
0.0
 40
0.150242584618808
 50
270.0000000190722744
 51
273.9037663889527039
  0
LINE
  5
70F0
  8
0
 10
2322.4582626044398239
 20
131.5583217703795924
 30
0.0
 11
2322.4582626044398239
 21
131.5773279559035132
 31
0.0
  0
LINE
  5
70F1
  8
0
 10
2322.4204605257391449
 20
131.5685220471796129
 30
0.0
 11
2322.4204605257391449
 21
131.5802959046625915
 31
0.0
  0
LINE
  5
70F2
  8
0
 10
2322.399706191039968
 20
131.5621562824796058
 30
0.0
 11
2322.399706191039968
 21
131.5686245994687908
 31
0.0
  0
LINE
  5
70F3
  8
0
 10
2322.4167539352401946
 20
131.5583217704015908
 30
0.0
 11
2322.4167539352401946
 21
131.5645964265256964
 31
0.0
  0
LINE
  5
70F4
  8
0
 10
2322.424321580439937
 20
131.5483315997796012
 30
0.0
 11
2322.424321580439937
 21
131.556927402279598
 31
0.0
  0
LINE
  5
70F5
  8
0
 10
2322.4588025881398607
 20
131.537755593079595
 30
0.0
 11
2322.4588025881398607
 21
131.556927402279598
 31
0.0
  0
LINE
  5
70F6
  8
0
 10
2322.560184272439983
 20
131.5409765824796011
 30
0.0
 11
2322.560184272439983
 21
131.556927402279598
 31
0.0
  0
LINE
  5
70F7
  8
0
 10
2322.4903081524398658
 20
131.5280922137795869
 30
0.0
 11
2322.4903081524398658
 21
131.541031891926508
 31
0.0
  0
LINE
  5
70F8
  8
0
 10
2322.5272165657402184
 20
131.5583217704065078
 30
0.0
 11
2322.5272165657402184
 21
131.5709019744269881
 31
0.0
  0
LINE
  5
70F9
  8
0
 10
2322.5067945320402032
 20
131.5704241047795904
 30
0.0
 11
2322.5067945320402032
 21
131.5853372090579114
 31
0.0
  0
LINE
  5
70FA
  8
0
 10
2322.4549375063397747
 20
131.5790968185795862
 30
0.0
 11
2322.4549375063397747
 21
131.5901141736570139
 31
0.0
  0
LINE
  5
70FB
  8
0
 10
2327.0213102513389458
 20
128.1696705511205039
 30
0.0
 11
2325.7576448377390079
 21
128.1696705511205039
 31
0.0
  0
ARC
  5
70FC
  8
0
 10
2325.7812259412530693
 20
128.4921351429229048
 30
0.0
 40
0.3233256584454448
 50
183.9017508638279992
 51
265.8175345939532122
  0
LINE
  5
70FD
  8
0
 10
2325.4586496870401788
 20
128.4701341968795987
 30
0.0
 11
2325.4596541203359266
 21
131.6356598626497032
 31
0.0
  0
ARC
  5
70FE
  8
0
 10
2325.5547748054109434
 20
131.6749257976298111
 30
0.0
 40
0.1029065516807339
 50
181.0467857299566958
 51
202.4308949823598027
  0
LINE
  5
70FF
  8
0
 10
2325.451885427722118
 20
131.6730458141796021
 30
0.0
 11
2325.451885427722118
 21
132.2478367493091014
 31
0.0
  0
ARC
  5
7100
  8
0
 10
2325.6468996750568294
 20
132.2202491923731884
 30
0.0
 40
0.1969559086730954
 50
164.1316224754220912
 51
171.9481199387502102
  0
ARC
  5
7101
  8
0
 10
2326.3895025628407893
 20
131.9588059044286865
 30
0.0
 40
0.9839386480652276
 50
18.6282845449130789
 51
161.3102594963015122
  0
ARC
  5
7102
  8
0
 10
2326.3894776612009991
 20
131.9584926443646964
 30
0.0
 40
1.021653668807853
 50
198.976474749899495
 51
204.4742743196048025
  0
ARC
  5
7103
  8
0
 10
2325.5331783265269223
 20
131.6640383583059872
 30
0.0
 40
0.1161417267877415
 50
179.9999994124395073
 51
198.976474749899495
  0
LINE
  5
7104
  8
0
 10
2325.4170365997388217
 20
131.664038359496999
 30
0.0
 11
2325.417036605778776
 21
132.2529468358796123
 31
0.0
  0
ARC
  5
7105
  8
0
 10
2325.5331784499530841
 20
132.2529468346886006
 30
0.0
 40
0.1161418441745541
 50
161.023543993591602
 51
179.9999994124395073
  0
ARC
  5
7106
  8
0
 10
2326.3894775446401582
 20
131.9584929444033889
 30
0.0
 40
1.021653430552437
 50
18.9764560117121306
 51
161.023543993591602
  0
ARC
  5
7107
  8
0
 10
2326.9970936086588154
 20
128.4927675759371084
 30
0.0
 40
0.3240032920018647
 50
274.2863963698779912
 51
355.9943181723272119
  0
LINE
  5
7108
  8
0
 10
2327.3203054020391392
 20
128.4701341968795987
 30
0.0
 11
2327.3193009687429367
 21
131.6356598626497032
 31
0.0
  0
ARC
  5
7109
  8
0
 10
2327.224180280903056
 20
131.6749257984799044
 30
0.0
 40
0.1029065545620813
 50
337.5691051678506938
 51
358.9532138259939984
  0
LINE
  5
710A
  8
0
 10
2327.3270696614567896
 20
131.6730458141796021
 30
0.0
 11
2327.3270696614567896
 21
132.2488774443733917
 31
0.0
  0
ARC
  5
710B
  8
0
 10
2327.007391343332074
 20
132.1932376280904862
 30
0.0
 40
0.3244842311045306
 50
9.8733895062440542
 51
14.2485656649030101
  0
ARC
  5
710C
  8
0
 10
2326.3894774278778641
 20
131.9584926443646964
 30
0.0
 40
1.021653668807853
 50
335.5257256803952828
 51
341.0235252501005903
  0
ARC
  5
710D
  8
0
 10
2327.2457767625519409
 20
131.6640383583059872
 30
0.0
 40
0.1161417267877415
 50
341.0235252501005903
 51
0.000000587560507
  0
LINE
  5
710E
  8
0
 10
2327.3619184893391321
 20
131.664038359496999
 30
0.0
 11
2327.3619184833009967
 21
132.2529468358796123
 31
0.0
  0
ARC
  5
710F
  8
0
 10
2327.2457766391257792
 20
132.2529468346886006
 30
0.0
 40
0.1161418441745541
 50
0.000000587560507
 51
18.9764560064083803
  0
ENDSEC
  0
EOF
