  0
SECTION
  2
HEADER
  9
$ACADVER
  1
AC1009
  9
$INSBASE
 10
483.9176458618458128
 20
-21.2694654198977418
 30
0.0
  9
$EXTMIN
 10
476.6753715456836176
 20
-25.0606702860436314
 30
-0.0000000349181948
  9
$EXTMAX
 10
483.9488554038343864
 20
-19.6930801614422215
 30
0.0000000814935746
  9
$LIMMIN
 10
0.0
 20
0.0
  9
$LIMMAX
 10
11.6929133858000007
 20
8.2677165353999982
  9
$ORTHOMODE
 70
     0
  9
$REGENMODE
 70
     1
  9
$FILLMODE
 70
     1
  9
$QTEXTMODE
 70
     0
  9
$MIRRTEXT
 70
     0
  9
$DRAGMODE
 70
     2
  9
$LTSCALE
 40
0.6431102362
  9
$OSMODE
 70
  4095
  9
$ATTMODE
 70
     1
  9
$TEXTSIZE
 40
0.2
  9
$TRACEWID
 40
0.05
  9
$TEXTSTYLE
  7
STANDARD
  9
$CLAYER
  8
0
  9
$CELTYPE
  6
BYLAYER
  9
$CECOLOR
 62
   256
  9
$DIMSCALE
 40
1.0
  9
$DIMASZ
 40
0.1875
  9
$DIMEXO
 40
0.0625
  9
$DIMDLI
 40
0.4443307087
  9
$DIMRND
 40
0.0
  9
$DIMDLE
 40
0.0
  9
$DIMEXE
 40
0.125
  9
$DIMTP
 40
0.01
  9
$DIMTM
 40
0.01
  9
$DIMTXT
 40
1.0
  9
$DIMCEN
 40
0.1052362205
  9
$DIMTSZ
 40
0.0
  9
$DIMTOL
 70
     1
  9
$DIMLIM
 70
     0
  9
$DIMTIH
 70
     1
  9
$DIMTOH
 70
     1
  9
$DIMSE1
 70
     0
  9
$DIMSE2
 70
     0
  9
$DIMTAD
 70
     0
  9
$DIMZIN
 70
     0
  9
$DIMBLK
  1

  9
$DIMASO
 70
     1
  9
$DIMSHO
 70
     1
  9
$DIMPOST
  1
\X
  9
$DIMAPOST
  1

  9
$DIMALT
 70
     1
  9
$DIMALTD
 70
     2
  9
$DIMALTF
 40
25.3999999999999986
  9
$DIMLFAC
 40
1.0
  9
$DIMTOFL
 70
     0
  9
$DIMTVP
 40
0.0
  9
$DIMTIX
 70
     0
  9
$DIMSOXD
 70
     0
  9
$DIMSAH
 70
     0
  9
$DIMBLK1
  1

  9
$DIMBLK2
  1

  9
$DIMSTYLE
  2
STANDARD
  9
$DIMCLRD
 70
     0
  9
$DIMCLRE
 70
     0
  9
$DIMCLRT
 70
     0
  9
$DIMTFAC
 40
1.0
  9
$DIMGAP
 40
0.09
  9
$LUNITS
 70
     2
  9
$LUPREC
 70
     4
  9
$SKETCHINC
 40
0.1
  9
$FILLETRAD
 40
0.0
  9
$AUNITS
 70
     0
  9
$AUPREC
 70
     0
  9
$MENU
  1
.
  9
$ELEVATION
 40
0.0
  9
$PELEVATION
 40
0.0
  9
$THICKNESS
 40
0.0
  9
$LIMCHECK
 70
     0
  9
$BLIPMODE
 70
     0
  9
$CHAMFERA
 40
0.0
  9
$CHAMFERB
 40
0.0
  9
$SKPOLY
 70
     0
  9
$TDCREATE
 40
2458228.42023148201406
  9
$TDUPDATE
 40
2460160.5295254630036652
  9
$TDINDWG
 40
0.1005844444
  9
$TDUSRTIMER
 40
0.1005844444
  9
$USRTIMER
 70
     1
  9
$ANGBASE
 50
0.0
  9
$ANGDIR
 70
     0
  9
$PDMODE
 70
     0
  9
$PDSIZE
 40
0.3125
  9
$PLINEWID
 40
0.0
  9
$COORDS
 70
     1
  9
$SPLFRAME
 70
     0
  9
$SPLINETYPE
 70
     6
  9
$SPLINESEGS
 70
     8
  9
$ATTDIA
 70
     1
  9
$ATTREQ
 70
     1
  9
$HANDLING
 70
     1
  9
$HANDSEED
  5
4187
  9
$SURFTAB1
 70
     6
  9
$SURFTAB2
 70
     6
  9
$SURFTYPE
 70
     6
  9
$SURFU
 70
     6
  9
$SURFV
 70
     6
  9
$UCSNAME
  2

  9
$UCSORG
 10
0.0
 20
0.0
 30
0.0
  9
$UCSXDIR
 10
1.0
 20
0.0
 30
0.0
  9
$UCSYDIR
 10
0.0
 20
1.0
 30
0.0
  9
$PUCSNAME
  2

  9
$PUCSORG
 10
0.0
 20
0.0
 30
0.0
  9
$PUCSXDIR
 10
1.0
 20
0.0
 30
0.0
  9
$PUCSYDIR
 10
0.0
 20
1.0
 30
0.0
  9
$USERI1
 70
     0
  9
$USERI2
 70
     0
  9
$USERI3
 70
     0
  9
$USERI4
 70
     0
  9
$USERI5
 70
     0
  9
$USERR1
 40
0.0
  9
$USERR2
 40
0.0
  9
$USERR3
 40
0.0
  9
$USERR4
 40
0.0
  9
$USERR5
 40
0.0
  9
$WORLDVIEW
 70
     1
  9
$SHADEDGE
 70
     3
  9
$SHADEDIF
 70
    70
  9
$TILEMODE
 70
     1
  9
$MAXACTVP
 70
    64
  9
$PLIMCHECK
 70
     0
  9
$PEXTMIN
 10
1.0000000000000000E+20
 20
1.0000000000000000E+20
 30
1.0000000000000000E+20
  9
$PEXTMAX
 10
-1.0000000000000000E+20
 20
-1.0000000000000000E+20
 30
-1.0000000000000000E+20
  9
$PLIMMIN
 10
0.0
 20
0.0
  9
$PLIMMAX
 10
12.0
 20
9.0
  9
$UNITMODE
 70
     0
  9
$VISRETAIN
 70
     1
  9
$PLINEGEN
 70
     0
  9
$PSLTSCALE
 70
     1
  0
ENDSEC
  0
SECTION
  2
TABLES
  0
TABLE
  2
VPORT
 70
     1
  0
VPORT
  2
*ACTIVE
 70
     0
 10
0.0
 20
0.0
 11
1.0
 21
1.0
 12
141.2685621347575022
 22
-23.1330295251678493
 13
0.0
 23
0.0
 14
1.0
 24
1.0
 15
0.0
 25
0.0
 16
-0.0000000000000568
 26
0.0
 36
178.0733968168455874
 17
339.0435513400014997
 27
0.7561543014249166
 37
0.0
 40
5.4088264123704297
 41
1.4307692307692299
 42
50.0
 43
0.0
 44
0.0
 50
0.0
 51
0.0
 71
     0
 72
   100
 73
     1
 74
     1
 75
     0
 76
     0
 77
     0
 78
     0
  0
ENDTAB
  0
TABLE
  2
LTYPE
 70
     2
  0
LTYPE
  2
CONTINUOUS
 70
     0
  3
Solid line
 72
    65
 73
     0
 40
0.0
  0
LTYPE
  2
PHANTOM2
 70
     0
  3
___ _ _ ___ _ _ ___ _ _ ___ _ _
 72
    65
 73
     6
 40
1.25
 49
0.625
 49
-0.125
 49
0.125
 49
-0.125
 49
0.125
 49
-0.125
  0
ENDTAB
  0
TABLE
  2
LAYER
 70
     2
  0
LAYER
  2
0
 70
     0
 62
   255
  6
CONTINUOUS
  0
LAYER
  2
DEFPOINTS
 70
     0
 62
     7
  6
CONTINUOUS
  0
ENDTAB
  0
TABLE
  2
STYLE
 70
     1
  0
STYLE
  2
STANDARD
 70
     0
 40
0.0
 41
0.8
 50
0.0
 71
     0
 42
0.2
  3
txt
  4

  0
ENDTAB
  0
TABLE
  2
VIEW
 70
     0
  0
ENDTAB
  0
TABLE
  2
UCS
 70
     0
  0
ENDTAB
  0
TABLE
  2
APPID
 70
     9
  0
APPID
  2
ACAD
 70
     0
  0
APPID
  2
ACAD_MLEADERVER
 70
     0
  0
APPID
  2
ACAD_EXEMPT_FROM_CAD_STANDARDS
 70
     0
  0
APPID
  2
ACAD_NAV_VCDISPLAY
 70
     0
  0
APPID
  2
ACAD_DSTYLE_DIMJAG
 70
     0
  0
APPID
  2
ACAD_DSTYLE_DIMTALN
 70
     0
  0
APPID
  2
ACAECLAYERSTANDARD
 70
     0
  0
APPID
  2
ACCMTRANSPARENCY
 70
     0
  0
APPID
  2
ACDBATTR
 70
     0
  0
ENDTAB
  0
TABLE
  2
DIMSTYLE
 70
     1
  0
DIMSTYLE
  2
STANDARD
 70
     0
  3

  4

  5

  6

  7

 40
1.0
 41
0.1875
 42
0.0625
 43
0.38
 44
0.125
 45
0.0
 46
0.0
 47
0.01
 48
0.01
140
0.15625
141
0.09
142
0.0
143
25.3999999999999986
144
1.0
145
0.0
146
1.0
147
0.09
 71
     1
 72
     0
 73
     1
 74
     1
 75
     0
 76
     0
 77
     0
 78
     4
170
     0
171
     2
172
     0
173
     0
174
     0
175
     0
176
     0
177
     0
178
     0
  0
ENDTAB
  0
ENDSEC
  0
SECTION
  2
BLOCKS
  0
BLOCK
  8
0
  2
$MODEL_SPACE
 70
     0
 10
0.0
 20
0.0
 30
0.0
  3
$MODEL_SPACE
  1

  0
ENDBLK
  5
21
  8
0
  0
BLOCK
 67
     1
  8
0
  2
$PAPER_SPACE
 70
     0
 10
0.0
 20
0.0
 30
0.0
  3
$PAPER_SPACE
  1

  0
ENDBLK
  5
1D
 67
     1
  8
0
  0
ENDSEC
  0
SECTION
  2
ENTITIES
  0
ATTDEF
  5
13E8
  8
DEFPOINTS
 10
483.9176680285198131
 20
-21.2661093168721109
 30
0.0
 40
0.001
  1
K-23485T-B4
  3

  2
MODELNUMBER
 70
     0
1001
ACDBATTR
1070
     0
1070
     1
  0
ATTDEF
  5
13E9
  8
DEFPOINTS
 10
483.9176680285198131
 20
-21.267775983538769
 30
0.0
 40
0.001
  1
PARALLEL
  3

  2
TRADENAME
 70
     0
1001
ACDBATTR
1070
     0
1070
     1
  0
ATTDEF
  5
13EA
  8
DEFPOINTS
 10
483.9176680285198131
 20
-21.2694426502054412
 30
0.0
 40
0.001
  1
BATHROOM SINK FAUCET
  3

  2
PRODUCT
 70
     0
1001
ACDBATTR
1070
     0
1070
     1
  0
LINE
  5
4040
  8
0
 10
483.8192505862456869
 20
-19.6946622702977301
 30
0.0
 11
483.9078458618457148
 21
-19.6946622702977301
 31
0.0
  0
LINE
  5
4041
  8
0
 10
483.8192505862456869
 20
-22.8442685694977392
 30
0.0
 11
483.9078458618457148
 21
-22.8442685694977392
 31
0.0
  0
LINE
  5
4042
  8
0
 10
481.6892994051456753
 20
-25.0084177882331105
 30
0.0
 11
481.6892994051456753
 21
-20.3334411103886801
 31
0.0
  0
LINE
  5
4043
  8
0
 10
481.8664647594458188
 20
-25.0287883446233685
 30
0.0
 11
481.8664647594458188
 21
-22.023878885850479
 31
0.0
  0
LINE
  5
4044
  8
0
 10
481.8341373097370024
 20
-25.0581525324743097
 30
0.0
 11
481.724923082483997
 21
-25.047636398447569
 31
0.0
  0
LINE
  5
4045
  8
0
 10
482.9193976164600031
 20
-22.2534710483814884
 30
0.0
 11
482.0648945862354822
 21
-22.2463941190500485
 31
0.0
  0
LINE
  5
4046
  8
0
 10
482.949141924845776
 20
-22.2239720600359085
 30
0.0
 11
482.949141924845776
 21
-21.2760054125646896
 31
0.0
  0
LINE
  5
4047
  8
0
 10
483.035756098045681
 20
-20.3147134513977399
 30
0.0
 11
483.035756098045681
 21
-22.2242173883977401
 31
0.0
  0
LINE
  5
4048
  8
0
 10
483.7798505862456864
 20
-22.8048685694977387
 30
0.0
 11
483.7798505862456864
 21
-19.7340622702977306
 31
0.0
  0
LINE
  5
4049
  8
0
 10
483.9176458618458128
 20
-19.7044622702977392
 30
0.0
 11
483.9176458618458128
 21
-22.8344685694977407
 31
0.0
  0
LINE
  5
404A
  8
0
 10
476.6932364129456801
 20
-20.8939536088977391
 30
0.0
 11
476.6932364129456801
 21
-21.4481268372977389
 31
0.0
  0
ARC
  5
404B
  8
0
 10
483.8192505862456869
 20
-22.8048685694977387
 30
0.0
 40
0.0394
 50
179.9999999999922125
 51
270.0000000000097771
  0
ARC
  5
404C
  8
0
 10
483.8192505862456869
 20
-19.7340622702977306
 30
0.0
 40
0.0394
 50
89.9999999999837144
 51
180.0000000000023874
  0
ARC
  5
404D
  8
0
 10
483.9078458618457148
 20
-19.7044622702977286
 30
0.0
 40
0.0098
 50
359.9999999999894271
 51
90.0
  0
ARC
  5
404E
  8
0
 10
483.9078458618457148
 20
-22.8344685694977407
 30
0.0
 40
0.0098
 50
270.000000000019611
 51
0.0000000000207627
  0
LINE
  5
404F
  8
0
 10
482.5554410569814081
 20
-20.3815189588812693
 30
0.0
 11
482.5554412414267063
 21
-20.3150301234846289
 31
0.0
  0
LINE
  5
4050
  8
0
 10
482.9463780045638828
 20
-21.2635381738445908
 30
0.0
 11
482.5738890537091947
 21
-20.4647330408259691
 31
0.0
  0
ARC
  5
4051
  8
0
 10
481.8369647594457206
 20
-25.0287883446233614
 30
0.0
 40
0.0295
 50
264.4999999818530796
 51
359.9999999999914735
  0
ARC
  5
4052
  8
0
 10
481.7286994051456759
 20
-25.0084177882331105
 30
0.0
 40
0.0394
 50
179.9999999999988063
 51
264.4999999818530796
  0
ARC
  5
4053
  8
0
 10
482.9196419248456777
 20
-22.2239720600359085
 30
0.0
 40
0.0295
 50
269.5254915453479043
 51
0.0000000000069209
  0
ARC
  5
4054
  8
0
 10
482.9196419248456777
 20
-21.2760054125646896
 30
0.0
 40
0.0295
 50
359.9999999999931219
 51
24.9999999973245295
  0
ARC
  5
4055
  8
0
 10
482.7523410569805833
 20
-20.3815195050975788
 30
0.0
 40
0.1969
 50
179.9998410569376972
 51
204.9999999973165075
  0
LINE
  5
4056
  8
0
 10
482.525626348789217
 20
-20.2852134513977411
 30
0.0
 11
481.7282788366737236
 21
-20.2940433550952584
 31
0.0
  0
ARC
  5
4057
  8
0
 10
482.5253978637736054
 20
-20.3152568154681106
 30
0.0
 40
0.0300442328919803
 50
0.4323164846355703
 51
89.5642640197015112
  0
ARC
  5
4058
  8
0
 10
481.7286994051456759
 20
-20.3334411103886801
 30
0.0
 40
0.0394
 50
90.611605483959778
 51
180.0
  0
ARC
  5
4059
  8
0
 10
482.0632647594457012
 20
-22.4431873701147993
 30
0.0
 40
0.1968
 50
89.5254915453512297
 51
179.9999999999988063
  0
LINE
  5
405A
  8
0
 10
482.0356056499164765
 20
-21.5798547505989085
 30
0.0
 11
482.949141924845776
 21
-21.5798547505989085
 31
0.0
  0
LINE
  5
405B
  8
0
 10
483.035756098045681
 20
-21.5798547505989085
 30
0.0
 11
483.7798505862456864
 21
-21.5798547505989085
 31
0.0
  0
ARC
  5
405C
  8
0
 10
482.6401558974063164
 20
-22.0402408812865112
 30
0.0
 40
0.7738641300986571
 50
159.4405051149647932
 51
178.788491276481011
  0
ARC
  5
405D
  8
0
 10
482.4227286826658769
 20
-21.9586907436571117
 30
0.0
 40
0.5416465195324159
 50
135.6198685020725065
 51
159.4405051149647932
  0
LINE
  5
405E
  8
0
 10
483.0652560980457224
 20
-22.2537173883977388
 30
0.0
 11
483.7798505862456864
 21
-22.2537173883977388
 31
0.0
  0
LINE
  5
405F
  8
0
 10
483.0652560980457224
 20
-20.2852134513977411
 30
0.0
 11
483.7798505862456864
 21
-20.2852134513977411
 31
0.0
  0
ARC
  5
4060
  8
0
 10
483.0652560980457224
 20
-22.2242173883977401
 30
0.0
 40
0.0295
 50
180.0000000000032117
 51
269.9999999999935199
  0
ARC
  5
4061
  8
0
 10
483.0652560980457224
 20
-20.3147134513977399
 30
0.0
 40
0.0295
 50
89.9999999999934914
 51
179.9999999999930083
  0
LINE
  5
4062
  8
0
 10
476.7232364129457096
 20
-21.4781268372977401
 30
0.0
 11
481.6892994051456753
 21
-21.4781268372977401
 31
0.0
  0
LINE
  5
4063
  8
0
 10
476.7232364129457096
 20
-20.8639536088977415
 30
0.0
 11
481.6892994051456753
 21
-20.8639536088977415
 31
0.0
  0
ARC
  5
4064
  8
0
 10
476.7232364129457096
 20
-21.4481268372977389
 30
0.0
 40
0.03
 50
180.0000000000065086
 51
269.9999999999935199
  0
ARC
  5
4065
  8
0
 10
476.7232364129457096
 20
-20.8939536088977391
 30
0.0
 40
0.03
 50
90.0000000000065086
 51
179.9999999999963052
  0
LINE
  5
4066
  8
0
 10
483.7798505862456864
 20
-20.9537666301690386
 30
0.0
 11
483.035756098045681
 21
-20.9537666301690386
 31
0.0
  0
LINE
  5
4067
  8
0
 10
482.8019291614871236
 20
-20.9537666301690386
 30
0.0
 11
481.6892994051456753
 21
-20.9537666301690386
 31
0.0
  0
LINE
  5
4068
  8
0
 10
477.9609604594774055
 20
-21.6782702426608083
 30
0.0
 11
476.8486101794115939
 21
-21.4781268372977401
 31
0.0
  0
LINE
  5
4069
  8
0
 10
477.7740222356338791
 20
-21.6478349304794513
 30
0.0
 11
477.7754747248350782
 21
-21.6448960913319794
 31
0.0
  0
LINE
  5
406A
  8
0
 10
477.7740222356338791
 20
-21.6478349304794513
 30
0.0
 11
477.0765595227007907
 21
-21.5223415809522898
 31
0.0
  0
LINE
  5
406B
  8
0
 10
477.1329050118454802
 20
-21.6204847739976991
 30
0.0
 11
477.6869993896037272
 21
-21.7201820885081709
 31
0.0
  0
ARC
  5
406C
  8
0
 10
478.8057487698729915
 20
-22.6461450311118107
 30
0.0
 40
1.270071454265195
 50
120.7910599500044952
 51
129.7496665204079989
  0
ARC
  5
406D
  8
0
 10
478.444211629654319
 20
-22.0477974971735406
 30
0.0
 40
0.5710090698750078
 50
93.9236980589257655
 51
120.3620569644367038
  0
ARC
  5
406E
  8
0
 10
477.968043849091373
 20
-21.6389024183422087
 30
0.0
 40
0.04
 50
259.7999999983528028
 51
309.7496665203698853
  0
LINE
  5
406F
  8
0
 10
477.0765595227007907
 20
-21.5223415809522898
 30
0.0
 11
477.0762224736729991
 21
-21.5190807530672288
 31
0.0
  0
ARC
  5
4070
  8
0
 10
477.2648968400476974
 20
-21.534588285459801
 30
0.0
 40
0.1574803145007651
 50
177.5728192366269127
 51
213.0549216525778036
  0
ARC
  5
4071
  8
0
 10
477.5932269406457067
 20
-21.5936641947977286
 30
0.0
 40
0.1574803150000162
 50
306.5450784353981817
 51
342.0271807422071788
  0
ARC
  5
4072
  8
0
 10
482.2531826439378051
 20
-16.3409504218759594
 30
0.0
 40
5.4914392180897771
 50
257.5045156671524182
 51
264.1062486965417975
  0
ARC
  5
4073
  8
0
 10
472.8938414760809792
 20
-62.5735760500071976
 30
0.0
 40
41.6800735217784535
 50
78.6941837032955931
 51
79.4362907321562801
  0
ARC
  5
4074
  8
0
 10
479.4309419430319963
 20
-27.5201094465466412
 30
0.0
 40
6.022266474303767
 50
79.4362907321562801
 51
85.9666177017792847
  0
ARC
  5
4075
  8
0
 10
478.8101547658802133
 20
-36.3240633383299212
 30
0.0
 40
14.8480797993159293
 50
85.9666177017792847
 51
89.0264707240376936
  0
LINE
  5
4076
  8
0
 10
483.035756098045681
 20
-20.4899378608477285
 30
0.0
 11
482.9885120035456794
 21
-20.4899378608477285
 31
0.0
  0
ARC
  5
4077
  8
0
 10
482.9885120035456794
 20
-22.5775362860476889
 30
0.0
 40
2.0875984251999542
 50
90.0
 51
100.6575540840564003
  0
LINE
  5
4078
  8
0
 10
483.035756098045681
 20
-22.0489929789477408
 30
0.0
 11
482.9885120035456794
 21
-22.0489929789477408
 31
0.0
  0
ARC
  5
4079
  8
0
 10
482.9885120035456794
 20
-19.9613945537529496
 30
0.0
 40
2.0875984251947779
 50
268.9193931856767108
 51
270.0
  0
ENDSEC
  0
EOF
