  0
SECTION
  2
HEADER
  9
$ACADVER
  1
AC1009
  9
$INSBASE
 10
3599.4098079006948865
 20
160.117229618924398
 30
0.0
  9
$EXTMIN
 10
3597.5897186513461747
 20
152.8928209652301859
 30
0.0
  9
$EXTMAX
 10
3605.2298949553451166
 20
160.1220895247309954
 30
0.0
  9
$LIMMIN
 10
0.0
 20
0.0
  9
$LIMMAX
 10
11.6929133858000007
 20
8.2677165353999982
  9
$ORTHOMODE
 70
     0
  9
$REGENMODE
 70
     1
  9
$FILLMODE
 70
     1
  9
$QTEXTMODE
 70
     0
  9
$MIRRTEXT
 70
     0
  9
$DRAGMODE
 70
     2
  9
$LTSCALE
 40
0.6431102362
  9
$OSMODE
 70
  3839
  9
$ATTMODE
 70
     1
  9
$TEXTSIZE
 40
0.2
  9
$TRACEWID
 40
0.05
  9
$TEXTSTYLE
  7
STANDARD
  9
$CLAYER
  8
0
  9
$CELTYPE
  6
BYLAYER
  9
$CECOLOR
 62
   256
  9
$DIMSCALE
 40
1.0
  9
$DIMASZ
 40
0.1875
  9
$DIMEXO
 40
0.0625
  9
$DIMDLI
 40
0.4443307087
  9
$DIMRND
 40
0.0
  9
$DIMDLE
 40
0.0
  9
$DIMEXE
 40
0.125
  9
$DIMTP
 40
0.01
  9
$DIMTM
 40
0.01
  9
$DIMTXT
 40
2.0
  9
$DIMCEN
 40
0.1052362205
  9
$DIMTSZ
 40
0.0
  9
$DIMTOL
 70
     1
  9
$DIMLIM
 70
     0
  9
$DIMTIH
 70
     1
  9
$DIMTOH
 70
     1
  9
$DIMSE1
 70
     0
  9
$DIMSE2
 70
     0
  9
$DIMTAD
 70
     0
  9
$DIMZIN
 70
     0
  9
$DIMBLK
  1

  9
$DIMASO
 70
     1
  9
$DIMSHO
 70
     1
  9
$DIMPOST
  1
\X
  9
$DIMAPOST
  1

  9
$DIMALT
 70
     1
  9
$DIMALTD
 70
     2
  9
$DIMALTF
 40
25.3999999999999986
  9
$DIMLFAC
 40
1.0
  9
$DIMTOFL
 70
     0
  9
$DIMTVP
 40
0.0
  9
$DIMTIX
 70
     0
  9
$DIMSOXD
 70
     0
  9
$DIMSAH
 70
     0
  9
$DIMBLK1
  1

  9
$DIMBLK2
  1

  9
$DIMSTYLE
  2
STANDARD
  9
$DIMCLRD
 70
     0
  9
$DIMCLRE
 70
     0
  9
$DIMCLRT
 70
     0
  9
$DIMTFAC
 40
1.0
  9
$DIMGAP
 40
0.09
  9
$LUNITS
 70
     2
  9
$LUPREC
 70
     4
  9
$SKETCHINC
 40
0.1
  9
$FILLETRAD
 40
0.0
  9
$AUNITS
 70
     0
  9
$AUPREC
 70
     0
  9
$MENU
  1
.
  9
$ELEVATION
 40
0.0
  9
$PELEVATION
 40
0.0
  9
$THICKNESS
 40
0.0
  9
$LIMCHECK
 70
     0
  9
$BLIPMODE
 70
     0
  9
$CHAMFERA
 40
0.0
  9
$CHAMFERB
 40
0.0
  9
$SKPOLY
 70
     0
  9
$TDCREATE
 40
2458060.468368056230247
  9
$TDUPDATE
 40
2459132.5147453709505498
  9
$TDINDWG
 40
0.725759375
  9
$TDUSRTIMER
 40
0.725759375
  9
$USRTIMER
 70
     1
  9
$ANGBASE
 50
0.0
  9
$ANGDIR
 70
     0
  9
$PDMODE
 70
     0
  9
$PDSIZE
 40
0.3125
  9
$PLINEWID
 40
0.0
  9
$COORDS
 70
     1
  9
$SPLFRAME
 70
     0
  9
$SPLINETYPE
 70
     6
  9
$SPLINESEGS
 70
     8
  9
$ATTDIA
 70
     1
  9
$ATTREQ
 70
     1
  9
$HANDLING
 70
     1
  9
$HANDSEED
  5
10DE2
  9
$SURFTAB1
 70
     6
  9
$SURFTAB2
 70
     6
  9
$SURFTYPE
 70
     6
  9
$SURFU
 70
     6
  9
$SURFV
 70
     6
  9
$UCSNAME
  2

  9
$UCSORG
 10
0.0
 20
0.0
 30
0.0
  9
$UCSXDIR
 10
1.0
 20
0.0
 30
0.0
  9
$UCSYDIR
 10
0.0
 20
1.0
 30
0.0
  9
$PUCSNAME
  2

  9
$PUCSORG
 10
0.0
 20
0.0
 30
0.0
  9
$PUCSXDIR
 10
1.0
 20
0.0
 30
0.0
  9
$PUCSYDIR
 10
0.0
 20
1.0
 30
0.0
  9
$USERI1
 70
     0
  9
$USERI2
 70
     0
  9
$USERI3
 70
     0
  9
$USERI4
 70
     0
  9
$USERI5
 70
     0
  9
$USERR1
 40
0.0
  9
$USERR2
 40
0.0
  9
$USERR3
 40
0.0
  9
$USERR4
 40
0.0
  9
$USERR5
 40
0.0
  9
$WORLDVIEW
 70
     1
  9
$SHADEDGE
 70
     3
  9
$SHADEDIF
 70
    70
  9
$TILEMODE
 70
     1
  9
$MAXACTVP
 70
    64
  9
$PLIMCHECK
 70
     0
  9
$PEXTMIN
 10
1.0000000000000000E+20
 20
1.0000000000000000E+20
 30
1.0000000000000000E+20
  9
$PEXTMAX
 10
-1.0000000000000000E+20
 20
-1.0000000000000000E+20
 30
-1.0000000000000000E+20
  9
$PLIMMIN
 10
0.0
 20
0.0
  9
$PLIMMAX
 10
12.0
 20
9.0
  9
$UNITMODE
 70
     0
  9
$VISRETAIN
 70
     1
  9
$PLINEGEN
 70
     0
  9
$PSLTSCALE
 70
     1
  0
ENDSEC
  0
SECTION
  2
TABLES
  0
TABLE
  2
VPORT
 70
     1
  0
VPORT
  2
*ACTIVE
 70
     0
 10
0.0
 20
0.0
 11
1.0
 21
1.0
 12
0.0
 22
0.0
 13
0.0
 23
0.0
 14
1.0
 24
1.0
 15
0.0
 25
0.0
 16
0.0
 26
0.0
 36
41.5940043411586515
 17
3601.4097900390620453
 27
156.5074558951779977
 37
0.0
 40
10.5184468805943503
 41
3.1396160558464219
 42
50.0
 43
0.0
 44
0.0
 50
0.0
 51
0.0
 71
     0
 72
   100
 73
     1
 74
     1
 75
     0
 76
     0
 77
     0
 78
     0
  0
ENDTAB
  0
TABLE
  2
LTYPE
 70
     2
  0
LTYPE
  2
CONTINUOUS
 70
     0
  3
Solid line
 72
    65
 73
     0
 40
0.0
  0
LTYPE
  2
PHANTOM2
 70
     0
  3
___ _ _ ___ _ _ ___ _ _ ___ _ _
 72
    65
 73
     6
 40
1.25
 49
0.625
 49
-0.125
 49
0.125
 49
-0.125
 49
0.125
 49
-0.125
  0
ENDTAB
  0
TABLE
  2
LAYER
 70
     2
  0
LAYER
  2
0
 70
     0
 62
   255
  6
CONTINUOUS
  0
LAYER
  2
DEFPOINTS
 70
     0
 62
     7
  6
CONTINUOUS
  0
ENDTAB
  0
TABLE
  2
STYLE
 70
     1
  0
STYLE
  2
STANDARD
 70
     0
 40
0.0
 41
0.8
 50
0.0
 71
     0
 42
0.2
  3
txt
  4

  0
ENDTAB
  0
TABLE
  2
VIEW
 70
     0
  0
ENDTAB
  0
TABLE
  2
UCS
 70
     0
  0
ENDTAB
  0
TABLE
  2
APPID
 70
    10
  0
APPID
  2
ACAD
 70
     0
  0
APPID
  2
ACAD_MLEADERVER
 70
     0
  0
APPID
  2
ACAD_EXEMPT_FROM_CAD_STANDARDS
 70
     0
  0
APPID
  2
ACAD_NAV_VCDISPLAY
 70
     0
  0
APPID
  2
ACAECLAYERSTANDARD
 70
     0
  0
APPID
  2
ACCMTRANSPARENCY
 70
     0
  0
APPID
  2
ACAD_DSTYLE_DIMJAG
 70
     0
  0
APPID
  2
ACAD_DSTYLE_DIMTALN
 70
     0
  0
APPID
  2
ACDBATTR
 70
     0
  0
APPID
  2
ACAD_PSEXT
 70
     0
  0
ENDTAB
  0
TABLE
  2
DIMSTYLE
 70
     1
  0
DIMSTYLE
  2
STANDARD
 70
     0
  3

  4

  5

  6

  7

 40
1.0
 41
0.1875
 42
0.0625
 43
0.38
 44
0.125
 45
0.0
 46
0.0
 47
0.01
 48
0.01
140
0.15625
141
0.09
142
0.0
143
25.3999999999999986
144
1.0
145
0.0
146
1.0
147
0.09
 71
     1
 72
     0
 73
     1
 74
     1
 75
     0
 76
     0
 77
     0
 78
     4
170
     0
171
     2
172
     0
173
     0
174
     0
175
     0
176
     0
177
     0
178
     0
  0
ENDTAB
  0
ENDSEC
  0
SECTION
  2
BLOCKS
  0
BLOCK
  8
0
  2
$MODEL_SPACE
 70
     0
 10
0.0
 20
0.0
 30
0.0
  3
$MODEL_SPACE
  1

  0
ENDBLK
  5
21
  8
0
  0
BLOCK
 67
     1
  8
0
  2
$PAPER_SPACE
 70
     0
 10
0.0
 20
0.0
 30
0.0
  3
$PAPER_SPACE
  1

  0
ENDBLK
  5
1D
 67
     1
  8
0
  0
BLOCK
  8
0
  2
_FILLED
 70
     0
 10
0.0
 20
0.0
 30
0.0
  3
_FILLED
  1

  0
SOLID
  5
B630
  8
0
  6
BYBLOCK
 62
     0
 10
0.0
 20
0.0
 30
0.0
 11
-1.0
 21
0.1666666667
 31
0.0
 12
-1.0
 22
-0.1666666667
 32
0.0
 13
-1.0
 23
-0.1666666667
 33
0.0
  0
ENDBLK
  5
B631
  8
0
  6
BYBLOCK
 62
     0
  0
ENDSEC
  0
SECTION
  2
ENTITIES
  0
ATTDEF
  5
AA11
  8
DEFPOINTS
 10
3599.410559937799917
 20
160.1210895247309054
 30
0.0
 40
0.001
  1
K-23486IN-4ND
  3

  2
MODELNUMBER
 70
     0
1001
ACDBATTR
1070
     0
1070
     1
  0
ATTDEF
  5
AA12
  8
DEFPOINTS
 10
3599.410559937799917
 20
160.1194228580642118
 30
0.0
 40
0.001
  1
PARALLEL
  3

  2
TRADENAME
 70
     0
1001
ACDBATTR
1070
     0
1070
     1
  0
ATTDEF
  5
AA13
  8
DEFPOINTS
 10
3599.410559937799917
 20
160.1177561913976035
 30
0.0
 40
0.001
  1
BATHROOM SINK FAUCET
  3

  2
PRODUCT
 70
     0
1001
ACDBATTR
1070
     0
1070
     1
  0
LINE
  5
10B5A
  8
0
 10
3605.2298949553451166
 20
160.117229618924398
 30
0.0
 11
3597.5897186513461747
 21
160.117229618924398
 31
0.0
  0
LINE
  5
10B5B
  8
0
 10
3605.2298949553451166
 20
160.0194343534244013
 30
0.0
 11
3605.2298949553451166
 21
160.117229618924398
 31
0.0
  0
LINE
  5
10B5C
  8
0
 10
3605.1915740221111264
 20
159.9794342810243961
 30
0.0
 11
3597.6280395845810745
 21
159.9794342810243961
 31
0.0
  0
ARC
  5
10B5D
  8
0
 10
3605.1898286593827834
 20
160.0194625532371901
 30
0.0
 40
0.0400663058864599
 50
272.4967006742638773
 51
359.9596735873187185
  0
LINE
  5
10B5E
  8
0
 10
3600.4727989309449185
 20
153.1731622970669946
 30
0.0
 11
3600.4727989309449185
 21
159.9794342810243961
 31
0.0
  0
LINE
  5
10B5F
  8
0
 10
3600.1728008012460123
 20
152.8928209652302996
 30
0.0
 11
3598.6468150001460344
 21
152.8928209652302996
 31
0.0
  0
ARC
  5
10B60
  8
0
 10
3600.1722877523920943
 20
153.1940572589408021
 30
0.0
 40
0.3012367306083601
 50
270.097582881630899
 51
356.0225460203348007
  0
LINE
  5
10B61
  8
0
 10
3597.5897186513461747
 20
160.0194343534244013
 30
0.0
 11
3597.5897186513461747
 21
160.117229618924398
 31
0.0
  0
ARC
  5
10B62
  8
0
 10
3597.6297849473080532
 20
160.0194625532371901
 30
0.0
 40
0.0400663058864599
 50
180.0403264126813099
 51
267.5032993257361227
  0
LINE
  5
10B63
  8
0
 10
3604.3037591805100419
 20
157.9006559534863925
 30
0.0
 11
3602.5158315761818812
 21
157.9006559534863925
 31
0.0
  0
ARC
  5
10B64
  8
0
 10
3604.3030553798448636
 20
157.9400197409244129
 30
0.0
 40
0.0393700786999929
 50
271.0243046772192201
 51
359.5010567699134185
  0
LINE
  5
10B65
  8
0
 10
3604.3842277903459035
 20
159.4479326759243918
 30
0.0
 11
3602.4353629663460197
 21
159.4479326759243918
 31
0.0
  0
LINE
  5
10B66
  8
0
 10
3604.3842277903459035
 20
159.9794342810243961
 30
0.0
 11
3604.3842277903459035
 21
159.4479326759243918
 31
0.0
  0
LINE
  5
10B67
  8
0
 10
3604.354677268046089
 20
159.4479326759243918
 30
0.0
 11
3604.354677268046089
 21
159.4399609290244086
 31
0.0
  0
ARC
  5
10B68
  8
0
 10
3604.275937088792034
 20
159.4399609290244086
 30
0.0
 40
0.0787401792536251
 50
295.7913233076791926
 51
0.0
  0
ARC
  5
10B69
  8
0
 10
3604.3444559556601234
 20
159.2981680505945121
 30
0.0
 40
0.0787401544085907
 50
115.7913233076792068
 51
165.0000039514532091
  0
LINE
  5
10B6A
  8
0
 10
3604.2683988055459849
 20
159.3185474969243955
 30
0.0
 11
3604.161015103175032
 21
158.9177859532200898
 31
0.0
  0
LINE
  5
10B6B
  8
0
 10
3604.3201461628891593
 20
159.1605118806714927
 30
0.0
 11
3604.2260534999932133
 21
159.1605126215422956
 31
0.0
  0
ARC
  5
10B6C
  8
0
 10
3604.3196179229557856
 20
159.1305089298843995
 30
0.0
 40
0.0300076005931538
 50
0.4168324695034824
 51
88.9913394771206896
  0
LINE
  5
10B6D
  8
0
 10
3604.3496247294460773
 20
159.1307272362244021
 30
0.0
 11
3604.3424239657829276
 21
157.9396769026537015
 31
0.0
  0
ARC
  5
10B6E
  8
0
 10
3604.2871982889769242
 20
159.140769364168591
 30
0.0
 40
0.0198213006741613
 50
95.067151178420886
 51
177.8141831169122895
  0
LINE
  5
10B6F
  8
0
 10
3604.2673914105121185
 20
159.1415253574618873
 30
0.0
 11
3604.2631054111839148
 21
159.0205719400549924
 31
0.0
  0
ARC
  5
10B70
  8
0
 10
3604.2184117006017914
 20
159.0242979431777997
 30
0.0
 40
0.0448487554438641
 50
312.0213478263938214
 51
355.2344139476890064
  0
ARC
  5
10B71
  8
0
 10
3603.6818147573408169
 20
159.6046461500355065
 30
0.0
 40
0.8352504210923747
 50
281.6162746226432887
 51
312.7173529225178754
  0
ARC
  5
10B72
  8
0
 10
3603.6638596938450974
 20
159.6415056651522946
 30
0.0
 40
0.8750293947094618
 50
271.6241524966886232
 51
282.2819079444241765
  0
LINE
  5
10B73
  8
0
 10
3603.6886606628881964
 20
158.7668278081443134
 30
0.0
 11
3603.1309300938028173
 21
158.7668278081443134
 31
0.0
  0
ARC
  5
10B74
  8
0
 10
3602.5165353768447858
 20
157.9400197409244129
 30
0.0
 40
0.0393700786999929
 50
180.4989432300866099
 51
268.9756953227807799
  0
LINE
  5
10B75
  8
0
 10
3602.4353629663460197
 20
159.9794342810243961
 30
0.0
 11
3602.4353629663460197
 21
159.4479326759243918
 31
0.0
  0
LINE
  5
10B76
  8
0
 10
3602.4649134886449247
 20
159.4479326759243918
 30
0.0
 11
3602.4649134886449247
 21
159.4399609290244086
 31
0.0
  0
ARC
  5
10B77
  8
0
 10
3602.5436536678989796
 20
159.4399609290244086
 30
0.0
 40
0.0787401792536251
 50
180.0
 51
244.2086766923206937
  0
ARC
  5
10B78
  8
0
 10
3602.4751348010308902
 20
159.2981680505945121
 30
0.0
 40
0.0787401544085907
 50
14.9999960485467501
 51
64.2086766923207648
  0
LINE
  5
10B79
  8
0
 10
3602.5511919511459382
 20
159.3185474969243955
 30
0.0
 11
3602.6585756535150722
 21
158.9177859532200898
 31
0.0
  0
LINE
  5
10B7A
  8
0
 10
3602.4994445938018544
 20
159.1605118806714927
 30
0.0
 11
3602.5935372566991646
 21
159.1605126215422956
 31
0.0
  0
ARC
  5
10B7B
  8
0
 10
3602.4999728337347733
 20
159.1305089298843995
 30
0.0
 40
0.0300076005931538
 50
91.0086605228793246
 51
179.5831675304949044
  0
LINE
  5
10B7C
  8
0
 10
3602.4699660272449364
 20
159.1307272362244021
 30
0.0
 11
3602.4771667909071766
 21
157.9396769026537015
 31
0.0
  0
ARC
  5
10B7D
  8
0
 10
3602.5323924677131799
 20
159.140769364168591
 30
0.0
 40
0.0198213006741613
 50
2.1858168830877052
 51
84.932848821579114
  0
LINE
  5
10B7E
  8
0
 10
3602.5521993461788952
 20
159.1415253574618873
 30
0.0
 11
3602.5564853455080083
 21
159.0205719400549924
 31
0.0
  0
ARC
  5
10B7F
  8
0
 10
3602.6011790560892223
 20
159.0242979431777997
 30
0.0
 40
0.0448487554438641
 50
184.7655860523109936
 51
227.9786521736062923
  0
ARC
  5
10B80
  8
0
 10
3603.1377759993501968
 20
159.6046461500355065
 30
0.0
 40
0.8352504210923747
 50
227.2826470774820962
 51
258.3837253773565976
  0
ARC
  5
10B81
  8
0
 10
3603.1557310628468258
 20
159.6415056651522946
 30
0.0
 40
0.8750293947094618
 50
257.7180920555758235
 51
268.3758475033113768
  0
LINE
  5
10B82
  8
0
 10
3598.3468168704462187
 20
153.1731622970669946
 30
0.0
 11
3598.3468168704462187
 21
159.9794342810243961
 31
0.0
  0
ARC
  5
10B83
  8
0
 10
3598.6473280489999524
 20
153.1940572589408021
 30
0.0
 40
0.3012367306083601
 50
183.977453979665114
 51
269.902417118369101
  0
ENDSEC
  0
EOF
