  0
SECTION
  2
HEADER
  9
$ACADVER
  1
AC1009
  9
$INSBASE
 10
3606.6417546283610136
 20
165.6982817860744888
 30
0.0
  9
$EXTMIN
 10
3599.4173350180658417
 20
161.9313934933919938
 30
0.0
  9
$EXTMAX
 10
3606.6417546283610136
 20
167.273085692374508
 30
0.0
  9
$LIMMIN
 10
0.0
 20
0.0
  9
$LIMMAX
 10
11.6929133858000007
 20
8.2677165353999982
  9
$ORTHOMODE
 70
     0
  9
$REGENMODE
 70
     1
  9
$FILLMODE
 70
     1
  9
$QTEXTMODE
 70
     0
  9
$MIRRTEXT
 70
     0
  9
$DRAGMODE
 70
     2
  9
$LTSCALE
 40
0.6431102362
  9
$OSMODE
 70
  3839
  9
$ATTMODE
 70
     1
  9
$TEXTSIZE
 40
0.2
  9
$TRACEWID
 40
0.05
  9
$TEXTSTYLE
  7
STANDARD
  9
$CLAYER
  8
0
  9
$CELTYPE
  6
BYLAYER
  9
$CECOLOR
 62
   256
  9
$DIMSCALE
 40
1.0
  9
$DIMASZ
 40
0.1875
  9
$DIMEXO
 40
0.0625
  9
$DIMDLI
 40
0.4443307087
  9
$DIMRND
 40
0.0
  9
$DIMDLE
 40
0.0
  9
$DIMEXE
 40
0.125
  9
$DIMTP
 40
0.01
  9
$DIMTM
 40
0.01
  9
$DIMTXT
 40
2.0
  9
$DIMCEN
 40
0.1052362205
  9
$DIMTSZ
 40
0.0
  9
$DIMTOL
 70
     1
  9
$DIMLIM
 70
     0
  9
$DIMTIH
 70
     1
  9
$DIMTOH
 70
     1
  9
$DIMSE1
 70
     0
  9
$DIMSE2
 70
     0
  9
$DIMTAD
 70
     0
  9
$DIMZIN
 70
     0
  9
$DIMBLK
  1

  9
$DIMASO
 70
     1
  9
$DIMSHO
 70
     1
  9
$DIMPOST
  1
\X
  9
$DIMAPOST
  1

  9
$DIMALT
 70
     1
  9
$DIMALTD
 70
     2
  9
$DIMALTF
 40
25.3999999999999986
  9
$DIMLFAC
 40
1.0
  9
$DIMTOFL
 70
     0
  9
$DIMTVP
 40
0.0
  9
$DIMTIX
 70
     0
  9
$DIMSOXD
 70
     0
  9
$DIMSAH
 70
     0
  9
$DIMBLK1
  1

  9
$DIMBLK2
  1

  9
$DIMSTYLE
  2
STANDARD
  9
$DIMCLRD
 70
     0
  9
$DIMCLRE
 70
     0
  9
$DIMCLRT
 70
     0
  9
$DIMTFAC
 40
1.0
  9
$DIMGAP
 40
0.09
  9
$LUNITS
 70
     2
  9
$LUPREC
 70
     4
  9
$SKETCHINC
 40
0.1
  9
$FILLETRAD
 40
0.0
  9
$AUNITS
 70
     0
  9
$AUPREC
 70
     0
  9
$MENU
  1
.
  9
$ELEVATION
 40
0.0
  9
$PELEVATION
 40
0.0
  9
$THICKNESS
 40
0.0
  9
$LIMCHECK
 70
     0
  9
$BLIPMODE
 70
     0
  9
$CHAMFERA
 40
0.0
  9
$CHAMFERB
 40
0.0
  9
$SKPOLY
 70
     0
  9
$TDCREATE
 40
2458060.468368056230247
  9
$TDUPDATE
 40
2459132.5153935179114342
  9
$TDINDWG
 40
0.7282825231
  9
$TDUSRTIMER
 40
0.7282825231
  9
$USRTIMER
 70
     1
  9
$ANGBASE
 50
0.0
  9
$ANGDIR
 70
     0
  9
$PDMODE
 70
     0
  9
$PDSIZE
 40
0.3125
  9
$PLINEWID
 40
0.0
  9
$COORDS
 70
     1
  9
$SPLFRAME
 70
     0
  9
$SPLINETYPE
 70
     6
  9
$SPLINESEGS
 70
     8
  9
$ATTDIA
 70
     1
  9
$ATTREQ
 70
     1
  9
$HANDLING
 70
     1
  9
$HANDSEED
  5
1119C
  9
$SURFTAB1
 70
     6
  9
$SURFTAB2
 70
     6
  9
$SURFTYPE
 70
     6
  9
$SURFU
 70
     6
  9
$SURFV
 70
     6
  9
$UCSNAME
  2

  9
$UCSORG
 10
0.0
 20
0.0
 30
0.0
  9
$UCSXDIR
 10
1.0
 20
0.0
 30
0.0
  9
$UCSYDIR
 10
0.0
 20
1.0
 30
0.0
  9
$PUCSNAME
  2

  9
$PUCSORG
 10
0.0
 20
0.0
 30
0.0
  9
$PUCSXDIR
 10
1.0
 20
0.0
 30
0.0
  9
$PUCSYDIR
 10
0.0
 20
1.0
 30
0.0
  9
$USERI1
 70
     0
  9
$USERI2
 70
     0
  9
$USERI3
 70
     0
  9
$USERI4
 70
     0
  9
$USERI5
 70
     0
  9
$USERR1
 40
0.0
  9
$USERR2
 40
0.0
  9
$USERR3
 40
0.0
  9
$USERR4
 40
0.0
  9
$USERR5
 40
0.0
  9
$WORLDVIEW
 70
     1
  9
$SHADEDGE
 70
     3
  9
$SHADEDIF
 70
    70
  9
$TILEMODE
 70
     1
  9
$MAXACTVP
 70
    64
  9
$PLIMCHECK
 70
     0
  9
$PEXTMIN
 10
1.0000000000000000E+20
 20
1.0000000000000000E+20
 30
1.0000000000000000E+20
  9
$PEXTMAX
 10
-1.0000000000000000E+20
 20
-1.0000000000000000E+20
 30
-1.0000000000000000E+20
  9
$PLIMMIN
 10
0.0
 20
0.0
  9
$PLIMMAX
 10
12.0
 20
9.0
  9
$UNITMODE
 70
     0
  9
$VISRETAIN
 70
     1
  9
$PLINEGEN
 70
     0
  9
$PSLTSCALE
 70
     1
  0
ENDSEC
  0
SECTION
  2
TABLES
  0
TABLE
  2
VPORT
 70
     1
  0
VPORT
  2
*ACTIVE
 70
     0
 10
0.0
 20
0.0
 11
1.0
 21
1.0
 12
0.0
 22
0.0
 13
0.0
 23
0.0
 14
1.0
 24
1.0
 15
0.0
 25
0.0
 16
0.0
 26
0.0
 36
35.5297765751731518
 17
3603.029541015625
 27
164.6022491455078125
 37
0.0
 40
8.9849023556392158
 41
3.1396160558464219
 42
50.0
 43
0.0
 44
0.0
 50
0.0
 51
0.0
 71
     0
 72
   100
 73
     1
 74
     1
 75
     0
 76
     0
 77
     0
 78
     0
  0
ENDTAB
  0
TABLE
  2
LTYPE
 70
     2
  0
LTYPE
  2
CONTINUOUS
 70
     0
  3
Solid line
 72
    65
 73
     0
 40
0.0
  0
LTYPE
  2
PHANTOM2
 70
     0
  3
___ _ _ ___ _ _ ___ _ _ ___ _ _
 72
    65
 73
     6
 40
1.25
 49
0.625
 49
-0.125
 49
0.125
 49
-0.125
 49
0.125
 49
-0.125
  0
ENDTAB
  0
TABLE
  2
LAYER
 70
     2
  0
LAYER
  2
0
 70
     0
 62
   255
  6
CONTINUOUS
  0
LAYER
  2
DEFPOINTS
 70
     0
 62
     7
  6
CONTINUOUS
  0
ENDTAB
  0
TABLE
  2
STYLE
 70
     1
  0
STYLE
  2
STANDARD
 70
     0
 40
0.0
 41
0.8
 50
0.0
 71
     0
 42
0.2
  3
txt
  4

  0
ENDTAB
  0
TABLE
  2
VIEW
 70
     0
  0
ENDTAB
  0
TABLE
  2
UCS
 70
     0
  0
ENDTAB
  0
TABLE
  2
APPID
 70
    10
  0
APPID
  2
ACAD
 70
     0
  0
APPID
  2
ACAD_MLEADERVER
 70
     0
  0
APPID
  2
ACAD_EXEMPT_FROM_CAD_STANDARDS
 70
     0
  0
APPID
  2
ACAD_NAV_VCDISPLAY
 70
     0
  0
APPID
  2
ACAECLAYERSTANDARD
 70
     0
  0
APPID
  2
ACCMTRANSPARENCY
 70
     0
  0
APPID
  2
ACAD_DSTYLE_DIMJAG
 70
     0
  0
APPID
  2
ACAD_DSTYLE_DIMTALN
 70
     0
  0
APPID
  2
ACDBATTR
 70
     0
  0
APPID
  2
ACAD_PSEXT
 70
     0
  0
ENDTAB
  0
TABLE
  2
DIMSTYLE
 70
     1
  0
DIMSTYLE
  2
STANDARD
 70
     0
  3

  4

  5

  6

  7

 40
1.0
 41
0.1875
 42
0.0625
 43
0.38
 44
0.125
 45
0.0
 46
0.0
 47
0.01
 48
0.01
140
0.15625
141
0.09
142
0.0
143
25.3999999999999986
144
1.0
145
0.0
146
1.0
147
0.09
 71
     1
 72
     0
 73
     1
 74
     1
 75
     0
 76
     0
 77
     0
 78
     4
170
     0
171
     2
172
     0
173
     0
174
     0
175
     0
176
     0
177
     0
178
     0
  0
ENDTAB
  0
ENDSEC
  0
SECTION
  2
BLOCKS
  0
BLOCK
  8
0
  2
$MODEL_SPACE
 70
     0
 10
0.0
 20
0.0
 30
0.0
  3
$MODEL_SPACE
  1

  0
ENDBLK
  5
21
  8
0
  0
BLOCK
 67
     1
  8
0
  2
$PAPER_SPACE
 70
     0
 10
0.0
 20
0.0
 30
0.0
  3
$PAPER_SPACE
  1

  0
ENDBLK
  5
1D
 67
     1
  8
0
  0
BLOCK
  8
0
  2
_FILLED
 70
     0
 10
0.0
 20
0.0
 30
0.0
  3
_FILLED
  1

  0
SOLID
  5
B630
  8
0
  6
BYBLOCK
 62
     0
 10
0.0
 20
0.0
 30
0.0
 11
-1.0
 21
0.1666666667
 31
0.0
 12
-1.0
 22
-0.1666666667
 32
0.0
 13
-1.0
 23
-0.1666666667
 33
0.0
  0
ENDBLK
  5
B631
  8
0
  6
BYBLOCK
 62
     0
  0
ENDSEC
  0
SECTION
  2
ENTITIES
  0
ATTDEF
  5
AA11
  8
DEFPOINTS
 10
3606.6305420750418307
 20
165.6968140774552012
 30
0.0
 40
0.001
  1
K-23486IN-4ND
  3

  2
MODELNUMBER
 70
     0
1001
ACDBATTR
1070
     0
1070
     1
  0
ATTDEF
  5
AA12
  8
DEFPOINTS
 10
3606.6305420750418307
 20
165.6951474107885929
 30
0.0
 40
0.001
  1
PARALLEL
  3

  2
TRADENAME
 70
     0
1001
ACDBATTR
1070
     0
1070
     1
  0
ATTDEF
  5
AA13
  8
DEFPOINTS
 10
3606.6305420750418307
 20
165.6934807441218993
 30
0.0
 40
0.001
  1
BATHROOM SINK FAUCET
  3

  2
PRODUCT
 70
     0
1001
ACDBATTR
1070
     0
1070
     1
  0
LINE
  5
10EC8
  8
0
 10
3606.5439593628611874
 20
167.273085692374508
 30
0.0
 11
3606.6417546283610136
 21
167.273085692374508
 31
0.0
  0
LINE
  5
10EC9
  8
0
 10
3599.4572068091238179
 20
166.1071560426744895
 30
0.0
 11
3604.4252088446492053
 21
166.1071560426744895
 31
0.0
  0
LINE
  5
10ECA
  8
0
 10
3599.4473235370510338
 20
165.4772181047746074
 30
0.0
 11
3604.4252088446492053
 21
165.4772181047746926
 31
0.0
  0
LINE
  5
10ECB
  8
0
 10
3600.1390292585952011
 20
165.2772910138671989
 30
0.0
 11
3600.1303496259670283
 21
165.2251080187118077
 31
0.0
  0
ARC
  5
10ECC
  8
0
 10
3600.2821156629979669
 20
165.807096447014402
 30
0.0
 40
0.6014511290820135
 50
235.1793013368622951
 51
255.3843830187070978
  0
LINE
  5
10ECD
  8
0
 10
3600.0858708353462134
 20
165.2586728124854858
 30
0.0
 11
3600.0850750428021456
 21
165.2538884116355007
 31
0.0
  0
LINE
  5
10ECE
  8
0
 10
3600.0850750428021456
 20
165.2538884116355007
 30
0.0
 11
3600.101083931922858
 21
165.2462345820655116
 31
0.0
  0
LINE
  5
10ECF
  8
0
 10
3600.101083931922858
 20
165.2462345820655116
 30
0.0
 11
3600.1019119399161355
 21
165.2460968589410868
 31
0.0
  0
LINE
  5
10ED0
  8
0
 10
3600.1019119399161355
 20
165.2460968589410868
 30
0.0
 11
3600.1034571225181935
 21
165.2553866823361091
 31
0.0
  0
LINE
  5
10ED1
  8
0
 10
3600.1026718662960775
 20
165.2557814346722012
 30
0.0
 11
3600.0858708353462134
 21
165.2586728124854858
 31
0.0
  0
LINE
  5
10ED2
  8
0
 10
3600.1026718663529209
 20
165.2557814347075862
 30
0.0
 11
3600.1010839319969818
 21
165.246234582081911
 31
0.0
  0
LINE
  5
10ED3
  8
0
 10
3600.1026718663460997
 20
165.2557814346666021
 30
0.0
 11
3600.1034571225181935
 21
165.2553866823361091
 31
0.0
  0
LINE
  5
10ED4
  8
0
 10
3600.0828867329378227
 20
165.2407320295691022
 30
0.0
 11
3600.0827320201001385
 21
165.2398018773515957
 31
0.0
  0
LINE
  5
10ED5
  8
0
 10
3600.0827320201001385
 20
165.2398018773488957
 30
0.0
 11
3600.0884601179732272
 21
165.2376748189082889
 31
0.0
  0
LINE
  5
10ED6
  8
0
 10
3600.0828867329378227
 20
165.2407320295691022
 30
0.0
 11
3600.0993791284649888
 21
165.235985099237098
 31
0.0
  0
LINE
  5
10ED7
  8
0
 10
3600.0993791284649888
 20
165.235985099237098
 30
0.0
 11
3600.1001810470720557
 21
165.2356905229104029
 31
0.0
  0
LINE
  5
10ED8
  8
0
 10
3600.1001810470720557
 20
165.2356905229104029
 30
0.0
 11
3600.0998858969710454
 21
165.2339160451791997
 31
0.0
  0
LINE
  5
10ED9
  8
0
 10
3600.0993791284649888
 20
165.235985099237098
 30
0.0
 11
3600.0990778179721019
 21
165.2341735831292056
 31
0.0
  0
LINE
  5
10EDA
  8
0
 10
3600.1013619740938339
 20
165.2427903981059956
 30
0.0
 11
3600.1004522280618403
 21
165.2373208956057056
 31
0.0
  0
LINE
  5
10EDB
  8
0
 10
3600.1004522280618403
 20
165.2373208956057056
 30
0.0
 11
3600.0996242200822053
 21
165.2374586187260093
 31
0.0
  0
LINE
  5
10EDC
  8
0
 10
3600.0996242200822053
 20
165.2374586187260093
 30
0.0
 11
3600.083454685705874
 21
165.2441466302763899
 31
0.0
  0
LINE
  5
10EDD
  8
0
 10
3600.083454685705874
 20
165.2441466302763899
 30
0.0
 11
3600.0839231062877843
 21
165.246962830816102
 31
0.0
  0
LINE
  5
10EDE
  8
0
 10
3600.0839231062877843
 20
165.246962830816102
 30
0.0
 11
3600.1005680749540261
 21
165.2431331893884874
 31
0.0
  0
LINE
  5
10EDF
  8
0
 10
3600.1005680749540261
 20
165.2431331893884874
 30
0.0
 11
3600.1013619740938339
 21
165.2427903981059956
 31
0.0
  0
LINE
  5
10EE0
  8
0
 10
3600.1005680749540261
 20
165.2431331893884874
 30
0.0
 11
3600.0996242198330037
 21
165.237458618767306
 31
0.0
  0
LINE
  5
10EE1
  8
0
 10
3600.0889825668700723
 20
165.2392484666125938
 30
0.0
 11
3600.0892925005350662
 21
165.2411118253957056
 31
0.0
  0
LINE
  5
10EE2
  8
0
 10
3600.0892925005350662
 20
165.2411118253957056
 30
0.0
 11
3600.0731712540668923
 21
165.248090149293688
 31
0.0
  0
LINE
  5
10EE3
  8
0
 10
3600.0731712540668923
 20
165.248090149293688
 30
0.0
 11
3600.0567406332320388
 21
165.2532084779437866
 31
0.0
  0
LINE
  5
10EE4
  8
0
 10
3600.0567406332320388
 20
165.2532084779437866
 30
0.0
 11
3600.0564271439411641
 21
165.2513237426331045
 31
0.0
  0
LINE
  5
10EE5
  8
0
 10
3600.0564271439411641
 20
165.2513237426331045
 30
0.0
 11
3600.0725478588788064
 21
165.2443422226141934
 31
0.0
  0
LINE
  5
10EE6
  8
0
 10
3600.0725478588788064
 20
165.2443422226141934
 30
0.0
 11
3600.0889825668700723
 21
165.2392484666125938
 31
0.0
  0
LINE
  5
10EE7
  8
0
 10
3600.0731712540309672
 20
165.2480901492193084
 30
0.0
 11
3600.0725478588319675
 21
165.2443422226344865
 31
0.0
  0
LINE
  5
10EE8
  8
0
 10
3600.0901477714401153
 20
165.2462538165453054
 30
0.0
 11
3600.0907763847631031
 21
165.2500331160750875
 31
0.0
  0
LINE
  5
10EE9
  8
0
 10
3600.0907763847631031
 20
165.2500331160750875
 30
0.0
 11
3600.0748252688290449
 21
165.2580342849387876
 31
0.0
  0
LINE
  5
10EEA
  8
0
 10
3600.0748252688290449
 20
165.2580342849387876
 30
0.0
 11
3600.0582418729291021
 21
165.2622341115003053
 31
0.0
  0
LINE
  5
10EEB
  8
0
 10
3600.0582418729291021
 20
165.2622341115003053
 30
0.0
 11
3600.0575923485098429
 21
165.2583290925659014
 31
0.0
  0
LINE
  5
10EEC
  8
0
 10
3600.0575923485098429
 20
165.2583290925659014
 30
0.0
 11
3600.0735606653897776
 21
165.2504313366611939
 31
0.0
  0
LINE
  5
10EED
  8
0
 10
3600.0735606653897776
 20
165.2504313366611939
 30
0.0
 11
3600.0901477714401153
 21
165.2462538165453054
 31
0.0
  0
LINE
  5
10EEE
  8
0
 10
3600.0748252687922104
 20
165.2580342848644079
 30
0.0
 11
3600.0735606653429386
 21
165.250431336681487
 31
0.0
  0
LINE
  5
10EEF
  8
0
 10
3600.0628505243789732
 20
165.2518094286826909
 30
0.0
 11
3600.0633224164671446
 21
165.2546465011376995
 31
0.0
  0
LINE
  5
10EF0
  8
0
 10
3600.0633224164671446
 20
165.2546465011376995
 30
0.0
 11
3600.0474296488841901
 21
165.2629984675330093
 31
0.0
  0
LINE
  5
10EF1
  8
0
 10
3600.0474296488841901
 20
165.2629984675330093
 30
0.0
 11
3600.0310647901919765
 21
165.2685121655266869
 31
0.0
  0
LINE
  5
10EF2
  8
0
 10
3600.0310647901919765
 20
165.2685121655266869
 30
0.0
 11
3600.0305858910278403
 21
165.2656329664442012
 31
0.0
  0
LINE
  5
10EF3
  8
0
 10
3600.0305858910278403
 20
165.2656329664442012
 30
0.0
 11
3600.0464794379590785
 21
165.257285684654704
 31
0.0
  0
LINE
  5
10EF4
  8
0
 10
3600.0464794379590785
 20
165.257285684654704
 30
0.0
 11
3600.0628505243789732
 21
165.2518094286826909
 31
0.0
  0
LINE
  5
10EF5
  8
0
 10
3600.0474296488469008
 20
165.2629984674586865
 30
0.0
 11
3600.0464794379117848
 21
165.2572856846749971
 31
0.0
  0
LINE
  5
10EF6
  8
0
 10
3600.0359991889517914
 20
165.2600459146889023
 30
0.0
 11
3600.036315580054179
 21
165.2619480956520022
 31
0.0
  0
LINE
  5
10EF7
  8
0
 10
3600.036315580054179
 20
165.2619480956520022
 30
0.0
 11
3600.0204859754280733
 21
165.2706798060289088
 31
0.0
  0
LINE
  5
10EF8
  8
0
 10
3600.0204859754280733
 20
165.2706798060289088
 30
0.0
 11
3600.0043438046641313
 21
165.2775323310845863
 31
0.0
  0
LINE
  5
10EF9
  8
0
 10
3600.0043438046641313
 20
165.2775323310845863
 30
0.0
 11
3600.0040216841812253
 21
165.275595703481514
 31
0.0
  0
LINE
  5
10EFA
  8
0
 10
3600.0040216841812253
 20
165.275595703481514
 30
0.0
 11
3600.0198475381262142
 21
165.2668414438377056
 31
0.0
  0
LINE
  5
10EFB
  8
0
 10
3600.0198475381262142
 20
165.2668414438377056
 30
0.0
 11
3600.0359991889517914
 21
165.2600459146889023
 31
0.0
  0
LINE
  5
10EFC
  8
0
 10
3600.0204859753921482
 20
165.2706798059545008
 30
0.0
 11
3600.0198475380789205
 21
165.2668414438579987
 31
0.0
  0
LINE
  5
10EFD
  8
0
 10
3600.0103495517209922
 20
165.2755071547719865
 30
0.0
 11
3600.0107761377321367
 21
165.2780718414167893
 31
0.0
  0
LINE
  5
10EFE
  8
0
 10
3600.0011185592329639
 20
165.2796592780873084
 30
0.0
 11
3600.0103495517209922
 21
165.2755071547719865
 31
0.0
  0
LINE
  5
10EFF
  8
0
 10
3600.2397824708700682
 20
165.2591626496667061
 30
0.0
 11
3600.2311027107398331
 21
165.2069788879387886
 31
0.0
  0
ARC
  5
10F00
  8
0
 10
3600.2759010818422212
 20
165.806759319947588
 30
0.0
 40
0.6014511290820135
 50
265.7284362111308269
 51
284.7461965056940016
  0
LINE
  5
10F01
  8
0
 10
3600.2840517820040986
 20
165.2243384400188972
 30
0.0
 11
3600.283255989339068
 21
165.2195540391892052
 31
0.0
  0
LINE
  5
10F02
  8
0
 10
3600.283255989339068
 20
165.2195540391892052
 30
0.0
 11
3600.2656314653781919
 21
165.217494477803001
 31
0.0
  0
LINE
  5
10F03
  8
0
 10
3600.2656314653781919
 20
165.217494477803001
 30
0.0
 11
3600.2648034573849145
 21
165.217632200929387
 31
0.0
  0
LINE
  5
10F04
  8
0
 10
3600.2648034573849145
 20
165.217632200929387
 30
0.0
 11
3600.2663486399119392
 21
165.226922024337
 31
0.0
  0
LINE
  5
10F05
  8
0
 10
3600.2672193998128023
 20
165.2270413303996008
 30
0.0
 11
3600.2840517820040986
 21
165.2243384400188972
 31
0.0
  0
LINE
  5
10F06
  8
0
 10
3600.267219399770056
 20
165.2270413304512999
 30
0.0
 11
3600.2656314653131631
 21
165.2174944778425072
 31
0.0
  0
LINE
  5
10F07
  8
0
 10
3600.2672193997641443
 20
165.2270413304102874
 30
0.0
 11
3600.2663486399119392
 21
165.226922024337
 31
0.0
  0
LINE
  5
10F08
  8
0
 10
3600.2810676794751998
 20
165.2063976571224941
 30
0.0
 11
3600.2809129666270564
 21
165.2054675049070056
 31
0.0
  0
LINE
  5
10F09
  8
0
 10
3600.280912966626147
 20
165.2054675049043055
 30
0.0
 11
3600.2748047410850631
 21
165.2053091900855861
 31
0.0
  0
LINE
  5
10F0A
  8
0
 10
3600.2810676794751998
 20
165.2063976571224941
 30
0.0
 11
3600.2639266621072238
 21
165.2072449949434088
 31
0.0
  0
LINE
  5
10F0B
  8
0
 10
3600.2639266621072238
 20
165.2072449949434088
 30
0.0
 11
3600.2630725645090024
 21
165.2072258649041032
 31
0.0
  0
LINE
  5
10F0C
  8
0
 10
3600.2630725645090024
 20
165.2072258649041032
 30
0.0
 11
3600.2627774144630166
 21
165.2054513871638903
 31
0.0
  0
LINE
  5
10F0D
  8
0
 10
3600.2639266621072238
 20
165.2072449949434088
 30
0.0
 11
3600.263625351229166
 21
165.2054334788996925
 31
0.0
  0
LINE
  5
10F0E
  8
0
 10
3600.2642534915062242
 20
165.2143257401039023
 30
0.0
 11
3600.2633437454901468
 21
165.2088562376011112
 31
0.0
  0
LINE
  5
10F0F
  8
0
 10
3600.2633437454901468
 20
165.2088562376011112
 30
0.0
 11
3600.2641717534688723
 21
165.2087185144746115
 31
0.0
  0
LINE
  5
10F10
  8
0
 10
3600.2641717534688723
 20
165.2087185144746115
 30
0.0
 11
3600.2816356323610307
 21
165.2098122578103983
 31
0.0
  0
LINE
  5
10F11
  8
0
 10
3600.2816356323610307
 20
165.2098122578103983
 30
0.0
 11
3600.2821040528360754
 21
165.2126284583681013
 31
0.0
  0
LINE
  5
10F12
  8
0
 10
3600.2821040528360754
 20
165.2126284583681013
 30
0.0
 11
3600.2651156088800235
 21
165.2143930850475044
 31
0.0
  0
LINE
  5
10F13
  8
0
 10
3600.2651156088800235
 20
165.2143930850475044
 30
0.0
 11
3600.2642534915062242
 21
165.2143257401039023
 31
0.0
  0
LINE
  5
10F14
  8
0
 10
3600.2651156088800235
 20
165.2143930850475044
 30
0.0
 11
3600.2641717537180739
 21
165.2087185144332864
 31
0.0
  0
LINE
  5
10F15
  8
0
 10
3600.2748198207677888
 20
165.2069672288519939
 30
0.0
 11
3600.2751297545351008
 21
165.2088305876183085
 31
0.0
  0
LINE
  5
10F16
  8
0
 10
3600.2751297545351008
 20
165.2088305876183085
 30
0.0
 11
3600.2926419212180917
 21
165.210214643320711
 31
0.0
  0
LINE
  5
10F17
  8
0
 10
3600.2926419212180917
 20
165.210214643320711
 30
0.0
 11
3600.3098447137440417
 21
165.2097387037406975
 31
0.0
  0
LINE
  5
10F18
  8
0
 10
3600.3098447137440417
 20
165.2097387037406975
 30
0.0
 11
3600.3095312244558954
 21
165.2078539684293048
 31
0.0
  0
LINE
  5
10F19
  8
0
 10
3600.3095312244558954
 20
165.2078539684293048
 30
0.0
 11
3600.2920185260818471
 21
165.2064667166326046
 31
0.0
  0
LINE
  5
10F1A
  8
0
 10
3600.2920185260818471
 20
165.2064667166326046
 30
0.0
 11
3600.2748198207677888
 21
165.2069672288519939
 31
0.0
  0
LINE
  5
10F1B
  8
0
 10
3600.2926419212290057
 20
165.210214643238487
 30
0.0
 11
3600.2920185261327788
 21
165.2064667166366121
 31
0.0
  0
LINE
  5
10F1C
  8
0
 10
3600.2759850253160039
 20
165.2139725787882867
 30
0.0
 11
3600.2766136388449922
 21
165.2177518782837922
 31
0.0
  0
LINE
  5
10F1D
  8
0
 10
3600.2766136388449922
 20
165.2177518782837922
 30
0.0
 11
3600.2942959359761517
 21
165.2201587789666064
 31
0.0
  0
LINE
  5
10F1E
  8
0
 10
3600.2942959359761517
 20
165.2201587789666064
 30
0.0
 11
3600.3113459534288268
 21
165.2187643372994046
 31
0.0
  0
LINE
  5
10F1F
  8
0
 10
3600.3113459534288268
 20
165.2187643372994046
 30
0.0
 11
3600.31069642900502
 21
165.2148593183655976
 31
0.0
  0
LINE
  5
10F20
  8
0
 10
3600.31069642900502
 20
165.2148593183655976
 30
0.0
 11
3600.2930313324332019
 21
165.2125558307060942
 31
0.0
  0
LINE
  5
10F21
  8
0
 10
3600.2930313324332019
 20
165.2125558307060942
 30
0.0
 11
3600.2759850253160039
 21
165.2139725787882867
 31
0.0
  0
LINE
  5
10F22
  8
0
 10
3600.2942959359870656
 20
165.2201587788844108
 30
0.0
 11
3600.2930313324841336
 21
165.2125558307101016
 31
0.0
  0
LINE
  5
10F23
  8
0
 10
3600.3036109122631387
 20
165.2103927891637056
 30
0.0
 11
3600.3040828045041053
 21
165.2132298615929926
 31
0.0
  0
LINE
  5
10F24
  8
0
 10
3600.3040828045041053
 20
165.2132298615929926
 30
0.0
 11
3600.3218234500600374
 21
165.215987559794911
 31
0.0
  0
LINE
  5
10F25
  8
0
 10
3600.3218234500600374
 20
165.215987559794911
 30
0.0
 11
3600.3390920045449093
 21
165.2159069895890866
 31
0.0
  0
LINE
  5
10F26
  8
0
 10
3600.3390920045449093
 20
165.2159069895890866
 30
0.0
 11
3600.3386131054730868
 21
165.21302779049131
 31
0.0
  0
LINE
  5
10F27
  8
0
 10
3600.3386131054730868
 20
165.21302779049131
 30
0.0
 11
3600.3208732389639408
 21
165.2102747769451128
 31
0.0
  0
LINE
  5
10F28
  8
0
 10
3600.3208732389639408
 20
165.2102747769451128
 30
0.0
 11
3600.3036109122631387
 21
165.2103927891637056
 31
0.0
  0
LINE
  5
10F29
  8
0
 10
3600.3218234500709514
 20
165.2159875597128007
 30
0.0
 11
3600.320873239015782
 21
165.2102747769490918
 31
0.0
  0
LINE
  5
10F2A
  8
0
 10
3600.3316827106809797
 20
165.2094938734346101
 30
0.0
 11
3600.3319991016569475
 21
165.2113960544186
 31
0.0
  0
LINE
  5
10F2B
  8
0
 10
3600.3319991016569475
 20
165.2113960544186
 30
0.0
 11
3600.3498029103920999
 21
165.2145334965649965
 31
0.0
  0
LINE
  5
10F2C
  8
0
 10
3600.3498029103920999
 20
165.2145334965649965
 30
0.0
 11
3600.3672941529539457
 21
165.2157917533965019
 31
0.0
  0
LINE
  5
10F2D
  8
0
 10
3600.3672941529539457
 20
165.2157917533965019
 30
0.0
 11
3600.3669720323018737
 21
165.2138551258213965
 31
0.0
  0
LINE
  5
10F2E
  8
0
 10
3600.3669720323018737
 20
165.2138551258213965
 30
0.0
 11
3600.3491644729760992
 21
165.2106951343930916
 31
0.0
  0
LINE
  5
10F2F
  8
0
 10
3600.3491644729760992
 20
165.2106951343930916
 30
0.0
 11
3600.3316827106809797
 21
165.2094938734346101
 31
0.0
  0
LINE
  5
10F30
  8
0
 10
3600.3498029104030138
 20
165.2145334964828862
 30
0.0
 11
3600.3491644730261214
 21
165.2106951343972128
 31
0.0
  0
LINE
  5
10F31
  8
0
 10
3600.0928832511440305
 20
165.2602685385398047
 30
0.0
 11
3600.0935118644670183
 21
165.2640478380695015
 31
0.0
  0
LINE
  5
10F32
  8
0
 10
3600.0935118644670183
 20
165.2640478380695015
 30
0.0
 11
3600.0775607485338696
 21
165.2720490069332868
 31
0.0
  0
LINE
  5
10F33
  8
0
 10
3600.0775607485338696
 20
165.2720490069332868
 30
0.0
 11
3600.0609773526339268
 21
165.2762488334948046
 31
0.0
  0
LINE
  5
10F34
  8
0
 10
3600.0609773526339268
 20
165.2762488334948046
 30
0.0
 11
3600.0603278282151223
 21
165.272343814560287
 31
0.0
  0
LINE
  5
10F35
  8
0
 10
3600.0603278282151223
 20
165.272343814560287
 30
0.0
 11
3600.0762961450941475
 21
165.2644460586556079
 31
0.0
  0
LINE
  5
10F36
  8
0
 10
3600.0762961450941475
 20
165.2644460586556079
 30
0.0
 11
3600.0928832511440305
 21
165.2602685385398047
 31
0.0
  0
LINE
  5
10F37
  8
0
 10
3600.0775607484970351
 20
165.2720490068589072
 30
0.0
 11
3600.0762961450468538
 21
165.264446058675901
 31
0.0
  0
LINE
  5
10F38
  8
0
 10
3600.0653675988701252
 20
165.2645493449691969
 30
0.0
 11
3600.065996212193113
 21
165.2683286444990074
 31
0.0
  0
LINE
  5
10F39
  8
0
 10
3600.065996212193113
 20
165.2683286444990074
 30
0.0
 11
3600.0500450962599643
 21
165.2763298133627075
 31
0.0
  0
LINE
  5
10F3A
  8
0
 10
3600.0500450962599643
 20
165.2763298133627075
 30
0.0
 11
3600.0334617003600215
 21
165.2805296399241968
 31
0.0
  0
LINE
  5
10F3B
  8
0
 10
3600.0334617003600215
 20
165.2805296399241968
 30
0.0
 11
3600.032812175941217
 21
165.2766246209897929
 31
0.0
  0
LINE
  5
10F3C
  8
0
 10
3600.032812175941217
 20
165.2766246209897929
 30
0.0
 11
3600.0487804928197875
 21
165.2687268650851138
 31
0.0
  0
LINE
  5
10F3D
  8
0
 10
3600.0487804928197875
 20
165.2687268650851138
 30
0.0
 11
3600.0653675988701252
 21
165.2645493449691969
 31
0.0
  0
LINE
  5
10F3E
  8
0
 10
3600.0500450962240393
 20
165.2763298132882994
 30
0.0
 11
3600.0487804927729485
 21
165.2687268651054069
 31
0.0
  0
LINE
  5
10F3F
  8
0
 10
3600.0677268183208071
 20
165.2776613357104907
 30
0.0
 11
3600.0683554316437949
 21
165.2814406352401875
 31
0.0
  0
LINE
  5
10F40
  8
0
 10
3600.0683554316437949
 20
165.2814406352401875
 30
0.0
 11
3600.0524043157101914
 21
165.2894418041040012
 31
0.0
  0
LINE
  5
10F41
  8
0
 10
3600.0524043157101914
 20
165.2894418041040012
 30
0.0
 11
3600.0358209198111581
 21
165.2936416306654905
 31
0.0
  0
LINE
  5
10F42
  8
0
 10
3600.0358209198111581
 20
165.2936416306654905
 30
0.0
 11
3600.0351713953918988
 21
165.2897366117310014
 31
0.0
  0
LINE
  5
10F43
  8
0
 10
3600.0351713953918988
 20
165.2897366117310014
 30
0.0
 11
3600.0511397122709241
 21
165.2818388558262939
 31
0.0
  0
LINE
  5
10F44
  8
0
 10
3600.0511397122709241
 20
165.2818388558262939
 30
0.0
 11
3600.0677268183208071
 21
165.2776613357104907
 31
0.0
  0
LINE
  5
10F45
  8
0
 10
3600.0524043156738117
 20
165.2894418040295932
 30
0.0
 11
3600.0511397122240851
 21
165.281838855846587
 31
0.0
  0
LINE
  5
10F46
  8
0
 10
3600.0957032004121174
 20
165.275941157558691
 30
0.0
 11
3600.0963318137341957
 21
165.2797204570883878
 31
0.0
  0
LINE
  5
10F47
  8
0
 10
3600.0963318137341957
 20
165.2797204570883878
 30
0.0
 11
3600.0803806978010471
 21
165.2877216259522015
 31
0.0
  0
LINE
  5
10F48
  8
0
 10
3600.0803806978010471
 20
165.2877216259522015
 30
0.0
 11
3600.0787178672508162
 21
165.2881427459660983
 31
0.0
  0
LINE
  5
10F49
  8
0
 10
3600.0636206118970222
 20
165.2908591709544055
 30
0.0
 11
3600.0631477774832092
 21
165.2880164335792017
 31
0.0
  0
LINE
  5
10F4A
  8
0
 10
3600.0631477774832092
 20
165.2880164335792017
 30
0.0
 11
3600.0791160943617797
 21
165.2801186776744942
 31
0.0
  0
LINE
  5
10F4B
  8
0
 10
3600.0791160943617797
 20
165.2801186776744942
 30
0.0
 11
3600.0957032004121174
 21
165.275941157558691
 31
0.0
  0
LINE
  5
10F4C
  8
0
 10
3600.080380697765122
 20
165.2877216258777935
 30
0.0
 11
3600.0791160943149407
 21
165.2801186776947873
 31
0.0
  0
LINE
  5
10F4D
  8
0
 10
3600.0335909840277964
 20
165.2696791423315119
 30
0.0
 11
3600.0342195973498747
 21
165.273458441861294
 31
0.0
  0
LINE
  5
10F4E
  8
0
 10
3600.0342195973498747
 20
165.273458441861294
 30
0.0
 11
3600.0182684814171807
 21
165.281459610724994
 31
0.0
  0
LINE
  5
10F4F
  8
0
 10
3600.0182684814171807
 20
165.281459610724994
 30
0.0
 11
3600.0016850855181474
 21
165.2856594372865118
 31
0.0
  0
LINE
  5
10F50
  8
0
 10
3600.0016850855181474
 20
165.2856594372865118
 30
0.0
 11
3600.0010355610979786
 21
165.2817544183521079
 31
0.0
  0
LINE
  5
10F51
  8
0
 10
3600.0010355610979786
 20
165.2817544183521079
 30
0.0
 11
3600.0170038779770039
 21
165.2738566624474004
 31
0.0
  0
LINE
  5
10F52
  8
0
 10
3600.0170038779770039
 20
165.2738566624474004
 30
0.0
 11
3600.0335909840277964
 21
165.2696791423315119
 31
0.0
  0
LINE
  5
10F53
  8
0
 10
3600.0182684813798915
 20
165.2814596106506997
 30
0.0
 11
3600.0170038779301649
 21
165.2738566624676935
 31
0.0
  0
LINE
  5
10F54
  8
0
 10
3600.0387577706587763
 20
165.2832327892153046
 30
0.0
 11
3600.0393863839822188
 21
165.2870120887450014
 31
0.0
  0
LINE
  5
10F55
  8
0
 10
3600.0393863839822188
 20
165.2870120887450014
 30
0.0
 11
3600.0234352680481607
 21
165.2950132576087867
 31
0.0
  0
LINE
  5
10F56
  8
0
 10
3600.0234352680481607
 20
165.2950132576087867
 30
0.0
 11
3600.0068518721482178
 21
165.2992130841703045
 31
0.0
  0
LINE
  5
10F57
  8
0
 10
3600.0068518721482178
 20
165.2992130841703045
 30
0.0
 11
3600.0062023477298681
 21
165.2953080652357869
 31
0.0
  0
LINE
  5
10F58
  8
0
 10
3600.0062023477298681
 20
165.2953080652357869
 30
0.0
 11
3600.0221706646088933
 21
165.2874103093311078
 31
0.0
  0
LINE
  5
10F59
  8
0
 10
3600.0221706646088933
 20
165.2874103093311078
 30
0.0
 11
3600.0387577706587763
 21
165.2832327892153046
 31
0.0
  0
LINE
  5
10F5A
  8
0
 10
3600.0234352680117809
 20
165.2950132575344071
 30
0.0
 11
3600.0221706645620543
 21
165.2874103093514009
 31
0.0
  0
LINE
  5
10F5B
  8
0
 10
3600.0100877707868676
 20
165.2874017391062011
 30
0.0
 11
3600.0107163841098554
 21
165.2911810386358979
 31
0.0
  0
LINE
  5
10F5C
  8
0
 10
3600.0107163841098554
 20
165.2911810386358979
 30
0.0
 11
3599.9947652681757972
 21
165.2991822074997117
 31
0.0
  0
LINE
  5
10F5D
  8
0
 10
3599.9947652681757972
 20
165.2991822074997117
 30
0.0
 11
3599.9781818722772186
 21
165.303382034061201
 31
0.0
  0
LINE
  5
10F5E
  8
0
 10
3599.9781818722772186
 20
165.303382034061201
 30
0.0
 11
3599.9775323478570499
 21
165.2994770151267119
 31
0.0
  0
LINE
  5
10F5F
  8
0
 10
3599.9775323478570499
 20
165.2994770151267119
 30
0.0
 11
3599.9935006647369846
 21
165.2915792592220043
 31
0.0
  0
LINE
  5
10F60
  8
0
 10
3599.9935006647369846
 20
165.2915792592220043
 30
0.0
 11
3600.0100877707868676
 21
165.2874017391062011
 31
0.0
  0
LINE
  5
10F61
  8
0
 10
3599.9947652681398722
 20
165.2991822074253037
 30
0.0
 11
3599.9935006646901456
 21
165.2915792592424111
 31
0.0
  0
LINE
  5
10F62
  8
0
 10
3599.9993394391221955
 20
165.2813395919689867
 30
0.0
 11
3599.9999680524460928
 21
165.2851188914987119
 31
0.0
  0
LINE
  5
10F63
  8
0
 10
3599.9999680524460928
 20
165.2851188914987119
 30
0.0
 11
3599.9840169365120346
 21
165.2931200603624973
 31
0.0
  0
LINE
  5
10F64
  8
0
 10
3599.9840169365120346
 20
165.2931200603624973
 30
0.0
 11
3599.9674335406130012
 21
165.2973198869239866
 31
0.0
  0
LINE
  5
10F65
  8
0
 10
3599.9674335406130012
 20
165.2973198869239866
 30
0.0
 11
3599.9667840161928325
 21
165.2934148679894975
 31
0.0
  0
LINE
  5
10F66
  8
0
 10
3599.9667840161928325
 20
165.2934148679894975
 30
0.0
 11
3599.9827523330718577
 21
165.2855171120847899
 31
0.0
  0
LINE
  5
10F67
  8
0
 10
3599.9827523330718577
 20
165.2855171120847899
 30
0.0
 11
3599.9993394391221955
 21
165.2813395919689867
 31
0.0
  0
LINE
  5
10F68
  8
0
 10
3599.9840169364761095
 20
165.2931200602880892
 30
0.0
 11
3599.9827523330250187
 21
165.2855171121051967
 31
0.0
  0
LINE
  5
10F69
  8
0
 10
3599.9722782351300339
 20
165.3057975598323139
 30
0.0
 11
3599.9725199481058553
 21
165.3072507675576048
 31
0.0
  0
LINE
  5
10F6A
  8
0
 10
3599.954726057652806
 20
165.3104523937826968
 30
0.0
 11
3599.9556911290810604
 21
165.3099750799480887
 31
0.0
  0
LINE
  5
10F6B
  8
0
 10
3599.9556911290810604
 20
165.3099750799480887
 30
0.0
 11
3599.9722782351300339
 21
165.3057975598323139
 31
0.0
  0
LINE
  5
10F6C
  8
0
 10
3599.9557401709698752
 20
165.3102699259968915
 30
0.0
 11
3599.9556911290328571
 21
165.3099750799684102
 31
0.0
  0
LINE
  5
10F6D
  8
0
 10
3600.3433072669681678
 20
165.237305280812194
 30
0.0
 11
3600.3437640229731187
 21
165.2404534154489966
 31
0.0
  0
LINE
  5
10F6E
  8
0
 10
3600.3213319270530519
 20
165.2444895865590979
 30
0.0
 11
3600.3094519699620832
 21
165.2416831489744879
 31
0.0
  0
LINE
  5
10F6F
  8
0
 10
3600.3094519699620832
 20
165.2416831489744879
 30
0.0
 11
3600.3082979979731135
 21
165.2347264138319076
 31
0.0
  0
LINE
  5
10F70
  8
0
 10
3600.3082979979731135
 20
165.2347264138319076
 30
0.0
 11
3600.3251284478569687
 21
165.2325405012539932
 31
0.0
  0
LINE
  5
10F71
  8
0
 10
3600.3251284478569687
 20
165.2325405012539932
 30
0.0
 11
3600.3433072669681678
 21
165.237305280812194
 31
0.0
  0
LINE
  5
10F72
  8
0
 10
3600.3269478752367831
 20
165.2434791179923081
 30
0.0
 11
3600.3251284478101297
 21
165.2325405012742863
 31
0.0
  0
LINE
  5
10F73
  8
0
 10
3600.3706326178748895
 20
165.2319668235197128
 30
0.0
 11
3600.371149022130794
 21
165.2355260763881972
 31
0.0
  0
LINE
  5
10F74
  8
0
 10
3600.3496709487949374
 20
165.2393905917417101
 30
0.0
 11
3600.3364379316230952
 21
165.2342986792010038
 31
0.0
  0
LINE
  5
10F75
  8
0
 10
3600.3364379316230952
 20
165.2342986792010038
 30
0.0
 11
3600.3356233488798352
 21
165.2293879565393127
 31
0.0
  0
LINE
  5
10F76
  8
0
 10
3600.3356233488798352
 20
165.2293879565393127
 30
0.0
 11
3600.3524537987650547
 21
165.2272020439615119
 31
0.0
  0
LINE
  5
10F77
  8
0
 10
3600.3524537987650547
 20
165.2272020439615119
 30
0.0
 11
3600.3706326178748895
 21
165.2319668235197128
 31
0.0
  0
LINE
  5
10F78
  8
0
 10
3600.3543413539409812
 20
165.2385502532200121
 30
0.0
 11
3600.3524537987182157
 21
165.227202043981805
 31
0.0
  0
LINE
  5
10F79
  8
0
 10
3600.3978720234567845
 20
165.2261507024111893
 30
0.0
 11
3600.3985178025618552
 21
165.2306016555367023
 31
0.0
  0
LINE
  5
10F7A
  8
0
 10
3600.379108968969831
 20
165.2340938558955088
 30
0.0
 11
3600.3637461031808016
 21
165.2288971146751919
 31
0.0
  0
LINE
  5
10F7B
  8
0
 10
3600.3637461031808016
 20
165.2288971146751919
 30
0.0
 11
3600.362862754462185
 21
165.2235718354309029
 31
0.0
  0
LINE
  5
10F7C
  8
0
 10
3600.362862754462185
 20
165.2235718354309029
 30
0.0
 11
3600.3796932043469496
 21
165.2213859228529884
 31
0.0
  0
LINE
  5
10F7D
  8
0
 10
3600.3796932043469496
 20
165.2213859228529884
 30
0.0
 11
3600.3978720234567845
 21
165.2261507024111893
 31
0.0
  0
LINE
  5
10F7E
  8
0
 10
3600.3817285261989127
 20
165.2336225231568108
 30
0.0
 11
3600.3796932042992012
 21
165.2213859228733099
 31
0.0
  0
LINE
  5
10F7F
  8
0
 10
3600.40180371792394
 20
165.2300104260455953
 30
0.0
 11
3600.4006876532189381
 21
165.2232822154525138
 31
0.0
  0
LINE
  5
10F80
  8
0
 10
3600.4006876532189381
 20
165.2232822154525138
 30
0.0
 11
3600.4144804787488283
 21
165.2214908247875087
 31
0.0
  0
LINE
  5
10F81
  8
0
 10
3600.4185010828750819
 20
165.2270060958989859
 30
0.0
 11
3600.4177125860101114
 21
165.2222655578254944
 31
0.0
  0
LINE
  5
10F82
  8
0
 10
3600.4082923456271601
 20
165.2200600665414925
 30
0.0
 11
3600.3918430377971163
 21
165.2215184734324112
 31
0.0
  0
LINE
  5
10F83
  8
0
 10
3600.3918430377971163
 20
165.2215184734324112
 30
0.0
 11
3600.3739424949858403
 21
165.2172897749832998
 31
0.0
  0
LINE
  5
10F84
  8
0
 10
3600.3739424949858403
 20
165.2172897749832998
 30
0.0
 11
3600.3732710940162178
 21
165.2132422254983908
 31
0.0
  0
LINE
  5
10F85
  8
0
 10
3600.3918430377611912
 20
165.2215184733580031
 30
0.0
 11
3600.3909955386420734
 21
165.2164232066290026
 31
0.0
  0
LINE
  5
10F86
  8
0
 10
3600.2846755203690918
 20
165.251085115134714
 30
0.0
 11
3600.2808166768968476
 21
165.2501735290684906
 31
0.0
  0
LINE
  5
10F87
  8
0
 10
3600.2808166768968476
 20
165.2501735290684906
 30
0.0
 11
3600.2796627049087874
 21
165.2432167939257965
 31
0.0
  0
LINE
  5
10F88
  8
0
 10
3600.2796627049087874
 20
165.2432167939257965
 30
0.0
 11
3600.2964931547930973
 21
165.2410308813479105
 31
0.0
  0
LINE
  5
10F89
  8
0
 10
3600.2964931547930973
 20
165.2410308813479105
 30
0.0
 11
3600.31442819285121
 21
165.245731764402592
 31
0.0
  0
LINE
  5
10F8A
  8
0
 10
3600.297773491191947
 20
165.2487284182116127
 30
0.0
 11
3600.2964931547458036
 21
165.2410308813682889
 31
0.0
  0
LINE
  5
10F8B
  8
0
 10
3599.6483176743399781
 20
165.3655839636981
 30
0.0
 11
3600.7487258827618462
 21
165.1675892762744979
 31
0.0
  0
LINE
  5
10F8C
  8
0
 10
3600.2915745826398961
 20
165.222268048627086
 30
0.0
 11
3600.2920464748822269
 21
165.2251051210564867
 31
0.0
  0
LINE
  5
10F8D
  8
0
 10
3600.2920464748822269
 20
165.2251051210564867
 30
0.0
 11
3600.309787120438159
 21
165.2278628192584051
 31
0.0
  0
LINE
  5
10F8E
  8
0
 10
3600.309787120438159
 20
165.2278628192584051
 30
0.0
 11
3600.3270556749230309
 21
165.2277822490524954
 31
0.0
  0
LINE
  5
10F8F
  8
0
 10
3600.3270556749230309
 20
165.2277822490524954
 30
0.0
 11
3600.3265767758512084
 21
165.2249030499548041
 31
0.0
  0
LINE
  5
10F90
  8
0
 10
3600.3265767758512084
 20
165.2249030499548041
 30
0.0
 11
3600.3088369093420624
 21
165.2221500364084932
 31
0.0
  0
LINE
  5
10F91
  8
0
 10
3600.3088369093420624
 20
165.2221500364084932
 30
0.0
 11
3600.2915745826398961
 21
165.222268048627086
 31
0.0
  0
LINE
  5
10F92
  8
0
 10
3600.309787120449073
 20
165.2278628191762095
 30
0.0
 11
3600.3088369093929941
 21
165.2221500364125859
 31
0.0
  0
LINE
  5
10F93
  8
0
 10
3600.3253985494848166
 20
165.2185732797256037
 30
0.0
 11
3600.3258704417257832
 21
165.2214103521548907
 31
0.0
  0
LINE
  5
10F94
  8
0
 10
3600.3258704417257832
 20
165.2214103521548907
 30
0.0
 11
3600.34361108728217
 21
165.2241680503568091
 31
0.0
  0
LINE
  5
10F95
  8
0
 10
3600.34361108728217
 20
165.2241680503568091
 30
0.0
 11
3600.3608796417679514
 21
165.2240874801508994
 31
0.0
  0
LINE
  5
10F96
  8
0
 10
3600.3608796417679514
 20
165.2240874801508994
 30
0.0
 11
3600.3604007426952194
 21
165.2212082810532081
 31
0.0
  0
LINE
  5
10F97
  8
0
 10
3600.3604007426952194
 20
165.2212082810532081
 30
0.0
 11
3600.3426608761869829
 21
165.2184552675070108
 31
0.0
  0
LINE
  5
10F98
  8
0
 10
3600.3426608761869829
 20
165.2184552675070108
 30
0.0
 11
3600.3253985494848166
 21
165.2185732797256037
 31
0.0
  0
LINE
  5
10F99
  8
0
 10
3600.343611087293084
 20
165.2241680502746135
 30
0.0
 11
3600.3426608762379146
 21
165.2184552675109899
 31
0.0
  0
LINE
  5
10F9A
  8
0
 10
3600.286935346070095
 20
165.2385189289250889
 30
0.0
 11
3600.2861395534041549
 21
165.2337345280953969
 31
0.0
  0
LINE
  5
10F9B
  8
0
 10
3600.2861395534041549
 20
165.2337345280953969
 30
0.0
 11
3600.268515029442824
 21
165.2316749667091926
 31
0.0
  0
LINE
  5
10F9C
  8
0
 10
3600.2676870214509108
 20
165.231812689835607
 30
0.0
 11
3600.2692322039779356
 21
165.2411025132431917
 31
0.0
  0
LINE
  5
10F9D
  8
0
 10
3600.2701029638778891
 20
165.2412218193057925
 30
0.0
 11
3600.286935346070095
 21
165.2385189289250889
 31
0.0
  0
LINE
  5
10F9E
  8
0
 10
3600.2701029638360524
 20
165.2412218193576052
 30
0.0
 11
3600.2685150293777951
 21
165.2316749667486988
 31
0.0
  0
LINE
  5
10F9F
  8
0
 10
3600.2701029638287764
 20
165.2412218193165074
 30
0.0
 11
3600.2692322039779356
 21
165.2411025132431917
 31
0.0
  0
ARC
  5
10FA0
  8
0
 10
3599.457303231761216
 20
166.0671988794528033
 30
0.0
 40
0.039957279562666
 50
90.1382630548127963
 51
180.060763882451198
  0
LINE
  5
10FA1
  8
0
 10
3599.4173459746689332
 20
166.0671565035744948
 30
0.0
 11
3599.4173350180722082
 21
165.5072181049226003
 31
0.0
  0
ARC
  5
10FA2
  8
0
 10
3599.447334433179094
 20
165.5072175179089129
 30
0.0
 40
0.0299994151130909
 50
179.9988788645100044
 51
269.979189522437423
  0
LINE
  5
10FA3
  8
0
 10
3606.6417546283610136
 20
167.273085692374508
 30
0.0
 11
3606.6417546283610136
 21
164.123477879774498
 31
0.0
  0
ARC
  5
10FA4
  8
0
 10
3606.5439604363082253
 20
167.2330848822363976
 30
0.0
 40
0.0400008101525279
 50
90.0015375685365342
 51
179.9988396008849918
  0
LINE
  5
10FA5
  8
0
 10
3606.5039596261640327
 20
167.233085692617891
 30
0.0
 11
3606.5039596261640327
 21
164.1634778797771901
 31
0.0
  0
ARC
  5
10FA6
  8
0
 10
3600.7557005720318557
 20
165.206330874228712
 30
0.0
 40
0.0393644217848909
 50
259.7943049303667067
 51
320.644971532626414
  0
ARC
  5
10FA7
  8
0
 10
3601.9008883329561286
 20
164.3284280604910066
 30
0.0
 40
1.4036294460470771
 50
133.0588304277175098
 51
142.5789152608361974
  0
ARC
  5
10FA8
  8
0
 10
3601.2660883911048586
 20
164.9920817157120894
 30
0.0
 40
0.4854380410959857
 50
92.0199766413910254
 51
131.7946744747954142
  0
ARC
  5
10FA9
  8
0
 10
3599.6554413756621216
 20
165.4043041912744911
 30
0.0
 40
0.0393700793000064
 50
203.1796310258052074
 51
259.5753659195178784
  0
ARC
  5
10FAA
  8
0
 10
3599.3297580080397893
 20
165.2758280642619866
 30
0.0
 40
0.3107565693432391
 50
21.3191497772895104
 51
33.3120251685846469
  0
ARC
  5
10FAB
  8
0
 10
3599.5342396319538238
 20
165.4127233068379894
 30
0.0
 40
0.0647243842098655
 50
31.4515439200646902
 51
85.1726911635127948
  0
ARC
  5
10FAC
  8
0
 10
3603.0092209359618209
 20
156.5229725105542968
 30
0.0
 40
8.9542624558177906
 50
80.9013285315507176
 51
90.108263912976895
  0
LINE
  5
10FAD
  8
0
 10
3604.4252088446492053
 20
161.9780342217111979
 30
0.0
 11
3604.4252088446492053
 21
166.6615106305114011
 31
0.0
  0
ARC
  5
10FAE
  8
0
 10
3604.464961974443213
 20
166.6551141815041888
 30
0.0
 40
0.0402644494353598
 50
91.1334610151377547
 51
170.8592116623273967
  0
LINE
  5
10FAF
  8
0
 10
3604.4641654898259731
 20
166.6953707524037895
 30
0.0
 11
3605.2619466778742208
 21
166.7038790222744922
 31
0.0
  0
ARC
  5
10FB0
  8
0
 10
3605.2618294593939936
 20
166.6743512847708928
 30
0.0
 40
0.0295279701681644
 50
359.9997751157205812
 51
89.7725498289814254
  0
ARC
  5
10FB1
  8
0
 10
3604.8771953158930046
 20
166.6412228751173075
 30
0.0
 40
0.4154849458708291
 50
355.4167661435675996
 51
4.573278579764569
  0
ARC
  5
10FB2
  8
0
 10
3605.4879869102578596
 20
166.6079492060800931
 30
0.0
 40
0.1966352567714181
 50
179.9786085140250123
 51
205.0117398038146064
  0
LINE
  5
10FB3
  8
0
 10
3605.3097918769622083
 20
166.5248110420745036
 30
0.0
 11
3605.6850386978621827
 21
165.7157900436745024
 31
0.0
  0
LINE
  5
10FB4
  8
0
 10
3605.6850386978621827
 20
165.7157900436745024
 30
0.0
 11
3605.6850468251600432
 21
164.7654673654525936
 31
0.0
  0
ARC
  5
10FB5
  8
0
 10
3605.65551927866818
 20
164.7654675551679873
 30
0.0
 40
0.0295275464935245
 50
270.0000093013854894
 51
359.9996318728232154
  0
LINE
  5
10FB6
  8
0
 10
3605.6555192834621266
 20
164.735940008674504
 30
0.0
 11
3604.8008230735317738
 21
164.7359535803853134
 31
0.0
  0
ARC
  5
10FB7
  8
0
 10
3604.8008199192240681
 20
164.5373068860006072
 30
0.0
 40
0.1986466944097339
 50
89.999090201001664
 51
177.4395609693316942
  0
LINE
  5
10FB8
  8
0
 10
3604.6023606702310644
 20
161.9583420033494008
 30
0.0
 11
3604.6023606702310644
 21
165.0216189654763923
 31
0.0
  0
ARC
  5
10FB9
  8
0
 10
3604.4642684352688775
 20
161.9811615764668034
 30
0.0
 40
0.039184588388077
 50
184.5776926668935971
 51
264.872996238262715
  0
LINE
  5
10FBA
  8
0
 10
3604.4607667544610194
 20
161.9421337633245059
 30
0.0
 11
3604.5699842479812105
 21
161.9314125765322956
 31
0.0
  0
ARC
  5
10FBB
  8
0
 10
3604.5710827339980824
 20
161.9630192026914983
 30
0.0
 40
0.0316257092995337
 50
268.0094904984318873
 51
351.4951972096491204
  0
ARC
  5
10FBC
  8
0
 10
3605.1807792011941274
 20
164.9964608976443117
 30
0.0
 40
0.5789653921766388
 50
131.002925642280502
 51
177.5095141455174996
  0
LINE
  5
10FBD
  8
0
 10
3604.8009214170610903
 20
165.433392229974487
 30
0.0
 11
3605.6850411022769549
 21
165.4346424601361889
 31
0.0
  0
LINE
  5
10FBE
  8
0
 10
3605.9724576853618601
 20
164.72384937407449
 30
0.0
 11
3605.9724576853618601
 21
166.6727141980744875
 31
0.0
  0
LINE
  5
10FBF
  8
0
 10
3606.503959290460898
 20
164.72384937407449
 30
0.0
 11
3605.9724576853618601
 21
164.72384937407449
 31
0.0
  0
LINE
  5
10FC0
  8
0
 10
3605.9724576853618601
 20
164.7533998963745034
 30
0.0
 11
3605.9644859384611664
 21
164.7533998963745034
 31
0.0
  0
ARC
  5
10FC1
  8
0
 10
3605.9644859384611664
 20
164.8321400756281037
 30
0.0
 40
0.0787401792536251
 50
205.7913233076822905
 51
270.0
  0
ARC
  5
10FC2
  8
0
 10
3605.8226930600308151
 20
164.7636212087597869
 30
0.0
 40
0.0787401544085907
 50
25.7913233076822799
 51
75.0000039514594192
  0
LINE
  5
10FC3
  8
0
 10
3605.8430725063622049
 20
164.8396783588744938
 30
0.0
 11
3605.6850458283729495
 21
164.8820214679431899
 31
0.0
  0
LINE
  5
10FC4
  8
0
 10
3606.503959290460898
 20
166.6727141980744875
 30
0.0
 11
3605.9724576853618601
 21
166.6727141980744875
 31
0.0
  0
LINE
  5
10FC5
  8
0
 10
3605.9724576853618601
 20
166.6431636757745025
 30
0.0
 11
3605.9644859384611664
 21
166.6431636757745025
 31
0.0
  0
ARC
  5
10FC6
  8
0
 10
3605.9644859384611664
 20
166.5644234965209023
 30
0.0
 40
0.0787401792536251
 50
90.0
 51
154.2086766923162031
  0
ARC
  5
10FC7
  8
0
 10
3605.8226930600308151
 20
166.6329423633893043
 30
0.0
 40
0.0787401544085907
 50
284.999996048540595
 51
334.208676692317681
  0
LINE
  5
10FC8
  8
0
 10
3605.8430725063622049
 20
166.5568852132745121
 30
0.0
 11
3605.3555103537569266
 21
166.4262433642633994
 31
0.0
  0
LINE
  5
10FC9
  8
0
 10
3606.5439593628611874
 20
164.123477879774498
 30
0.0
 11
3606.6417546283610136
 21
164.123477879774498
 31
0.0
  0
ARC
  5
10FCA
  8
0
 10
3606.5439604363082253
 20
164.1634786899126937
 30
0.0
 40
0.0400008101525279
 50
180.0011603991148945
 51
269.9984624314633948
  0
ENDSEC
  0
EOF
