  0
SECTION
  2
HEADER
  9
$ACADVER
  1
AC1009
  9
$INSBASE
 10
3624.6830959478129444
 20
165.1397911435032881
 30
0.0
  9
$EXTMIN
 10
3617.2668823559379234
 20
161.3717699809268993
 30
-0.0000000000000058
  9
$EXTMAX
 10
3624.7157177689459786
 20
166.7195907079853896
 30
0.0000000000000104
  9
$LIMMIN
 10
0.0
 20
0.0
  9
$LIMMAX
 10
11.6929133858000007
 20
8.2677165353999982
  9
$ORTHOMODE
 70
     0
  9
$REGENMODE
 70
     1
  9
$FILLMODE
 70
     1
  9
$QTEXTMODE
 70
     0
  9
$MIRRTEXT
 70
     0
  9
$DRAGMODE
 70
     2
  9
$LTSCALE
 40
0.6431102362
  9
$OSMODE
 70
  4095
  9
$ATTMODE
 70
     1
  9
$TEXTSIZE
 40
0.2
  9
$TRACEWID
 40
0.05
  9
$TEXTSTYLE
  7
STANDARD
  9
$CLAYER
  8
0
  9
$CELTYPE
  6
BYLAYER
  9
$CECOLOR
 62
   256
  9
$DIMSCALE
 40
1.0
  9
$DIMASZ
 40
0.1875
  9
$DIMEXO
 40
0.0625
  9
$DIMDLI
 40
0.4443307087
  9
$DIMRND
 40
0.0
  9
$DIMDLE
 40
0.0
  9
$DIMEXE
 40
0.125
  9
$DIMTP
 40
0.01
  9
$DIMTM
 40
0.01
  9
$DIMTXT
 40
2.0
  9
$DIMCEN
 40
0.1052362205
  9
$DIMTSZ
 40
0.0
  9
$DIMTOL
 70
     1
  9
$DIMLIM
 70
     0
  9
$DIMTIH
 70
     1
  9
$DIMTOH
 70
     1
  9
$DIMSE1
 70
     0
  9
$DIMSE2
 70
     0
  9
$DIMTAD
 70
     0
  9
$DIMZIN
 70
     0
  9
$DIMBLK
  1

  9
$DIMASO
 70
     1
  9
$DIMSHO
 70
     1
  9
$DIMPOST
  1
\X
  9
$DIMAPOST
  1

  9
$DIMALT
 70
     1
  9
$DIMALTD
 70
     2
  9
$DIMALTF
 40
25.3999999999999986
  9
$DIMLFAC
 40
1.0
  9
$DIMTOFL
 70
     0
  9
$DIMTVP
 40
0.0
  9
$DIMTIX
 70
     0
  9
$DIMSOXD
 70
     0
  9
$DIMSAH
 70
     0
  9
$DIMBLK1
  1

  9
$DIMBLK2
  1

  9
$DIMSTYLE
  2
STANDARD
  9
$DIMCLRD
 70
     0
  9
$DIMCLRE
 70
     0
  9
$DIMCLRT
 70
     0
  9
$DIMTFAC
 40
1.0
  9
$DIMGAP
 40
0.09
  9
$LUNITS
 70
     2
  9
$LUPREC
 70
     4
  9
$SKETCHINC
 40
0.1
  9
$FILLETRAD
 40
0.0
  9
$AUNITS
 70
     0
  9
$AUPREC
 70
     0
  9
$MENU
  1
.
  9
$ELEVATION
 40
0.0
  9
$PELEVATION
 40
0.0
  9
$THICKNESS
 40
0.0
  9
$LIMCHECK
 70
     0
  9
$BLIPMODE
 70
     0
  9
$CHAMFERA
 40
0.0
  9
$CHAMFERB
 40
0.0
  9
$SKPOLY
 70
     0
  9
$TDCREATE
 40
2458060.468368056230247
  9
$TDUPDATE
 40
2459943.5954513889737427
  9
$TDINDWG
 40
0.7339769676
  9
$TDUSRTIMER
 40
0.7339769676
  9
$USRTIMER
 70
     1
  9
$ANGBASE
 50
0.0
  9
$ANGDIR
 70
     0
  9
$PDMODE
 70
     0
  9
$PDSIZE
 40
0.3125
  9
$PLINEWID
 40
0.0
  9
$COORDS
 70
     1
  9
$SPLFRAME
 70
     0
  9
$SPLINETYPE
 70
     6
  9
$SPLINESEGS
 70
     8
  9
$ATTDIA
 70
     1
  9
$ATTREQ
 70
     1
  9
$HANDLING
 70
     1
  9
$HANDSEED
  5
1183A
  9
$SURFTAB1
 70
     6
  9
$SURFTAB2
 70
     6
  9
$SURFTYPE
 70
     6
  9
$SURFU
 70
     6
  9
$SURFV
 70
     6
  9
$UCSNAME
  2

  9
$UCSORG
 10
0.0
 20
0.0
 30
0.0
  9
$UCSXDIR
 10
1.0
 20
0.0
 30
0.0
  9
$UCSYDIR
 10
0.0
 20
1.0
 30
0.0
  9
$PUCSNAME
  2

  9
$PUCSORG
 10
0.0
 20
0.0
 30
0.0
  9
$PUCSXDIR
 10
1.0
 20
0.0
 30
0.0
  9
$PUCSYDIR
 10
0.0
 20
1.0
 30
0.0
  9
$USERI1
 70
     0
  9
$USERI2
 70
     0
  9
$USERI3
 70
     0
  9
$USERI4
 70
     0
  9
$USERI5
 70
     0
  9
$USERR1
 40
0.0
  9
$USERR2
 40
0.0
  9
$USERR3
 40
0.0
  9
$USERR4
 40
0.0
  9
$USERR5
 40
0.0
  9
$WORLDVIEW
 70
     1
  9
$SHADEDGE
 70
     3
  9
$SHADEDIF
 70
    70
  9
$TILEMODE
 70
     1
  9
$MAXACTVP
 70
    64
  9
$PLIMCHECK
 70
     0
  9
$PEXTMIN
 10
1.0000000000000000E+20
 20
1.0000000000000000E+20
 30
1.0000000000000000E+20
  9
$PEXTMAX
 10
-1.0000000000000000E+20
 20
-1.0000000000000000E+20
 30
-1.0000000000000000E+20
  9
$PLIMMIN
 10
0.0
 20
0.0
  9
$PLIMMAX
 10
12.0
 20
9.0
  9
$UNITMODE
 70
     0
  9
$VISRETAIN
 70
     1
  9
$PLINEGEN
 70
     0
  9
$PSLTSCALE
 70
     1
  0
ENDSEC
  0
SECTION
  2
TABLES
  0
TABLE
  2
VPORT
 70
     1
  0
VPORT
  2
*ACTIVE
 70
     0
 10
0.0
 20
0.0
 11
1.0
 21
1.0
 12
17.961759046816951
 22
-0.5565688010516113
 13
0.0
 23
0.0
 14
1.0
 24
1.0
 15
0.0
 25
0.0
 16
0.0
 26
0.0
 36
35.5297765751731518
 17
3603.029541015625
 27
164.6022491455078125
 37
0.0
 40
5.3902076813020177
 41
1.644179894179894
 42
50.0
 43
0.0
 44
0.0
 50
0.0
 51
0.0
 71
     0
 72
   100
 73
     1
 74
     1
 75
     0
 76
     0
 77
     0
 78
     0
  0
ENDTAB
  0
TABLE
  2
LTYPE
 70
     2
  0
LTYPE
  2
CONTINUOUS
 70
     0
  3
Solid line
 72
    65
 73
     0
 40
0.0
  0
LTYPE
  2
PHANTOM2
 70
     0
  3
___ _ _ ___ _ _ ___ _ _ ___ _ _
 72
    65
 73
     6
 40
1.25
 49
0.625
 49
-0.125
 49
0.125
 49
-0.125
 49
0.125
 49
-0.125
  0
ENDTAB
  0
TABLE
  2
LAYER
 70
     2
  0
LAYER
  2
0
 70
     0
 62
   255
  6
CONTINUOUS
  0
LAYER
  2
DEFPOINTS
 70
     0
 62
     7
  6
CONTINUOUS
  0
ENDTAB
  0
TABLE
  2
STYLE
 70
     1
  0
STYLE
  2
STANDARD
 70
     0
 40
0.0
 41
0.8
 50
0.0
 71
     0
 42
0.2
  3
txt
  4

  0
ENDTAB
  0
TABLE
  2
VIEW
 70
     0
  0
ENDTAB
  0
TABLE
  2
UCS
 70
     0
  0
ENDTAB
  0
TABLE
  2
APPID
 70
    10
  0
APPID
  2
ACAD
 70
     0
  0
APPID
  2
ACAD_MLEADERVER
 70
     0
  0
APPID
  2
ACAD_EXEMPT_FROM_CAD_STANDARDS
 70
     0
  0
APPID
  2
ACAD_NAV_VCDISPLAY
 70
     0
  0
APPID
  2
ACAECLAYERSTANDARD
 70
     0
  0
APPID
  2
ACCMTRANSPARENCY
 70
     0
  0
APPID
  2
ACAD_DSTYLE_DIMJAG
 70
     0
  0
APPID
  2
ACAD_DSTYLE_DIMTALN
 70
     0
  0
APPID
  2
ACDBATTR
 70
     0
  0
APPID
  2
ACAD_PSEXT
 70
     0
  0
ENDTAB
  0
TABLE
  2
DIMSTYLE
 70
     1
  0
DIMSTYLE
  2
STANDARD
 70
     0
  3

  4

  5

  6

  7

 40
1.0
 41
0.1875
 42
0.0625
 43
0.38
 44
0.125
 45
0.0
 46
0.0
 47
0.01
 48
0.01
140
0.15625
141
0.09
142
0.0
143
25.3999999999999986
144
1.0
145
0.0
146
1.0
147
0.09
 71
     1
 72
     0
 73
     1
 74
     1
 75
     0
 76
     0
 77
     0
 78
     4
170
     0
171
     2
172
     0
173
     0
174
     0
175
     0
176
     0
177
     0
178
     0
  0
ENDTAB
  0
ENDSEC
  0
SECTION
  2
BLOCKS
  0
BLOCK
  8
0
  2
$MODEL_SPACE
 70
     0
 10
0.0
 20
0.0
 30
0.0
  3
$MODEL_SPACE
  1

  0
ENDBLK
  5
21
  8
0
  0
BLOCK
 67
     1
  8
0
  2
$PAPER_SPACE
 70
     0
 10
0.0
 20
0.0
 30
0.0
  3
$PAPER_SPACE
  1

  0
ENDBLK
  5
1D
 67
     1
  8
0
  0
BLOCK
  8
0
  2
_FILLED
 70
     0
 10
0.0
 20
0.0
 30
0.0
  3
_FILLED
  1

  0
SOLID
  5
11510
  8
0
  6
BYBLOCK
 62
     0
 10
0.0
 20
0.0
 30
0.0
 11
-1.0
 21
0.1666666667
 31
0.0
 12
-1.0
 22
-0.1666666667
 32
0.0
 13
-1.0
 23
-0.1666666667
 33
0.0
  0
ENDBLK
  5
11511
  8
0
  6
BYBLOCK
 62
     0
  0
ENDSEC
  0
SECTION
  2
ENTITIES
  0
ATTDEF
  5
AA11
  8
DEFPOINTS
 10
3624.6838662884460973
 20
165.1402266200688871
 30
0.0
 40
0.001
  1
K-23486ME-4ND
  3

  2
MODELNUMBER
 70
     0
1001
ACDBATTR
1070
     0
1070
     1
  0
ATTDEF
  5
AA12
  8
DEFPOINTS
 10
3624.6838662884460973
 20
165.1385599534023072
 30
0.0
 40
0.001
  1
PARALLEL
  3

  2
TRADENAME
 70
     0
1001
ACDBATTR
1070
     0
1070
     1
  0
ATTDEF
  5
AA13
  8
DEFPOINTS
 10
3624.6838662884460973
 20
165.1368932867356136
 30
0.0
 40
0.001
  1
BATHROOM SINK FAUCET
  3

  2
PRODUCT
 70
     0
1001
ACDBATTR
1070
     0
1070
     1
  0
LINE
  5
11667
  8
0
 10
3624.5853006823131182
 20
166.7145950498033073
 30
0.0
 11
3624.6830959478129444
 21
166.7145950498033073
 31
0.0
  0
LINE
  5
11668
  8
0
 10
3617.4985481285762035
 20
165.5486654001034026
 30
0.0
 11
3622.466550164101136
 21
165.5486654001034026
 31
0.0
  0
LINE
  5
11669
  8
0
 10
3617.4886648565029645
 20
164.918727462203492
 30
0.0
 11
3622.466550164101136
 21
164.918727462203492
 31
0.0
  0
LINE
  5
1166A
  8
0
 10
3618.1810666868168482
 20
164.7186751216206915
 30
0.0
 11
3618.1716995978458726
 21
164.6666150299186882
 31
0.0
  0
ARC
  5
1166B
  8
0
 10
3618.3234583818939427
 20
165.2486082510378935
 30
0.0
 40
0.6014539366940276
 50
235.1793249776833079
 51
255.3851668034641875
  0
LINE
  5
1166C
  8
0
 10
3618.2818111191631942
 20
164.7005483371175956
 30
0.0
 11
3618.2724440301908544
 21
164.6484882453677017
 31
0.0
  0
ARC
  5
1166D
  8
0
 10
3618.3253028417220776
 20
165.2455583974029025
 30
0.0
 40
0.599405389037977
 50
264.9407762222024871
 51
284.606490509804587
  0
LINE
  5
1166E
  8
0
 10
3618.3256176586141919
 20
164.6651472800033105
 30
0.0
 11
3618.3246825650521714
 21
164.6603644986078052
 31
0.0
  0
LINE
  5
1166F
  8
0
 10
3618.3246825650521714
 20
164.6603644986078052
 30
0.0
 11
3618.3071122223132079
 21
164.6585672387033981
 31
0.0
  0
LINE
  5
11670
  8
0
 10
3618.3071122223132079
 20
164.6585672387033981
 30
0.0
 11
3618.3062824792132233
 21
164.6586957312034087
 31
0.0
  0
LINE
  5
11671
  8
0
 10
3618.3062824792132233
 20
164.6586957312034087
 30
0.0
 11
3618.3079501663141855
 21
164.6679643464034086
 31
0.0
  0
LINE
  5
11672
  8
0
 10
3618.3088224252128384
 20
164.6680721468034108
 30
0.0
 11
3618.3256176586141919
 21
164.6651472800033105
 31
0.0
  0
LINE
  5
11673
  8
0
 10
3618.3088224251710017
 20
164.6680721468551098
 30
0.0
 11
3618.307112222248179
 21
164.6585672387429042
 31
0.0
  0
LINE
  5
11674
  8
0
 10
3618.30882242516509
 20
164.6680721468140973
 30
0.0
 11
3618.3079501663141855
 21
164.6679643464034086
 31
0.0
  0
LINE
  5
11675
  8
0
 10
3618.3056889112131103
 20
164.6553968188034105
 30
0.0
 11
3618.3046850649420776
 21
164.649941982315795
 31
0.0
  0
LINE
  5
11676
  8
0
 10
3618.3046850649420776
 20
164.649941982315795
 30
0.0
 11
3618.3055449484659221
 21
164.6498566981497049
 31
0.0
  0
LINE
  5
11677
  8
0
 10
3618.3055449484659221
 20
164.6498566981497049
 30
0.0
 11
3618.3230099110360243
 21
164.6506540282362039
 31
0.0
  0
LINE
  5
11678
  8
0
 10
3618.3230099110360243
 20
164.6506540282362039
 30
0.0
 11
3618.3235155104130172
 21
164.6534640316033062
 31
0.0
  0
LINE
  5
11679
  8
0
 10
3618.3235155104130172
 20
164.6534640316033062
 30
0.0
 11
3618.3065518423618414
 21
164.6554527767129912
 31
0.0
  0
LINE
  5
1167A
  8
0
 10
3618.3065518423618414
 20
164.6554527767129912
 30
0.0
 11
3618.3056889112131103
 21
164.6553968188034105
 31
0.0
  0
LINE
  5
1167B
  8
0
 10
3618.3065518423618414
 20
164.6554527767129912
 30
0.0
 11
3618.3055449487142141
 21
164.6498566981084082
 31
0.0
  0
LINE
  5
1167C
  8
0
 10
3618.3161571766140696
 20
164.6478994579034065
 30
0.0
 11
3618.3164979747612051
 21
164.6497588540514982
 31
0.0
  0
LINE
  5
1167D
  8
0
 10
3618.3164979747612051
 20
164.6497588540514982
 30
0.0
 11
3618.3340205946028618
 21
164.6509113117855065
 31
0.0
  0
LINE
  5
1167E
  8
0
 10
3618.3340205946028618
 20
164.6509113117855065
 30
0.0
 11
3618.3512156049418991
 21
164.6502083118348878
 31
0.0
  0
LINE
  5
1167F
  8
0
 10
3618.3512156049418991
 20
164.6502083118348878
 30
0.0
 11
3618.350877261712867
 21
164.6483278791033058
 31
0.0
  0
LINE
  5
11680
  8
0
 10
3618.350877261712867
 20
164.6483278791033058
 30
0.0
 11
3618.3333988124491043
 21
164.6471744222095879
 31
0.0
  0
LINE
  5
11681
  8
0
 10
3618.3333988124491043
 20
164.6471744222095879
 30
0.0
 11
3618.3161571766140696
 21
164.6478994579034065
 31
0.0
  0
LINE
  5
11682
  8
0
 10
3618.3340205946128663
 20
164.650911311703311
 30
0.0
 11
3618.333398812500036
 21
164.6471744222135953
 31
0.0
  0
LINE
  5
11683
  8
0
 10
3618.3174147605141115
 20
164.6548888150034031
 30
0.0
 11
3618.3180932114141797
 21
164.6586594865032964
 31
0.0
  0
LINE
  5
11684
  8
0
 10
3618.3180932114141797
 20
164.6586594865032964
 30
0.0
 11
3618.3358057423129139
 21
164.6608327453029972
 31
0.0
  0
LINE
  5
11685
  8
0
 10
3618.3358057423129139
 20
164.6608327453029972
 30
0.0
 11
3618.3528358653288706
 21
164.6592133403908917
 31
0.0
  0
LINE
  5
11686
  8
0
 10
3618.3528358653288706
 20
164.6592133403908917
 30
0.0
 11
3618.352149405954151
 21
164.6553981596198071
 31
0.0
  0
LINE
  5
11687
  8
0
 10
3618.352149405954151
 20
164.6553981596198071
 30
0.0
 11
3618.3344409979317788
 21
164.6532478152238923
 31
0.0
  0
LINE
  5
11688
  8
0
 10
3618.3344409979317788
 20
164.6532478152238923
 30
0.0
 11
3618.3174147605141115
 21
164.6548888150034031
 31
0.0
  0
LINE
  5
11689
  8
0
 10
3618.3358057423229184
 20
164.6608327452208016
 30
0.0
 11
3618.3344409979831653
 21
164.6532478152280135
 31
0.0
  0
LINE
  5
1168A
  8
0
 10
3618.3449909815130923
 20
164.6509446354033059
 30
0.0
 11
3618.3455412548378263
 21
164.6537802330572049
 31
0.0
  0
LINE
  5
1168B
  8
0
 10
3618.3455412548378263
 20
164.6537802330572049
 30
0.0
 11
3618.3632757913051137
 21
164.6562984865971941
 31
0.0
  0
LINE
  5
1168C
  8
0
 10
3618.3632757913051137
 20
164.6562984865971941
 30
0.0
 11
3618.3805417774269699
 21
164.6559899533826865
 31
0.0
  0
LINE
  5
1168D
  8
0
 10
3618.3805417774128728
 20
164.6559899533033047
 30
0.0
 11
3618.3800249104219802
 21
164.6531173273538116
 31
0.0
  0
LINE
  5
1168E
  8
0
 10
3618.3800249104219802
 20
164.6531173273538116
 30
0.0
 11
3618.3622496932980539
 21
164.650595673829713
 31
0.0
  0
LINE
  5
1168F
  8
0
 10
3618.3622496932980539
 20
164.650595673829713
 30
0.0
 11
3618.3449909815130923
 21
164.6509446354033059
 31
0.0
  0
LINE
  5
11690
  8
0
 10
3618.3632757913160276
 20
164.6562984865149986
 30
0.0
 11
3618.3622496933489856
 21
164.650595673833692
 31
0.0
  0
LINE
  5
11691
  8
0
 10
3618.373396128873992
 20
164.6515739301422059
 30
0.0
 11
3618.391233617664966
 21
164.6544751802674114
 31
0.0
  0
LINE
  5
11692
  8
0
 10
3618.391233617664966
 20
164.6544751802674114
 30
0.0
 11
3618.4087399468708099
 21
164.6555024178493056
 31
0.0
  0
LINE
  5
11693
  8
0
 10
3618.4083922880231512
 20
164.6535702114526885
 30
0.0
 11
3618.3905951802480558
 21
164.6506368180955064
 31
0.0
  0
LINE
  5
11694
  8
0
 10
3618.3905951802480558
 20
164.6506368180955064
 30
0.0
 11
3618.373048466722139
 21
164.6496752095476097
 31
0.0
  0
LINE
  5
11695
  8
0
 10
3618.3912336176749704
 20
164.6544751801851874
 30
0.0
 11
3618.3905951802989875
 21
164.6506368180995139
 31
0.0
  0
LINE
  5
11696
  8
0
 10
3618.3846485864200986
 20
164.6788146382409934
 30
0.0
 11
3618.3851053424250495
 21
164.6819627728777959
 31
0.0
  0
LINE
  5
11697
  8
0
 10
3618.3620641947131844
 20
164.6861085298033061
 30
0.0
 11
3618.3507932894131045
 21
164.6831925064032873
 31
0.0
  0
LINE
  5
11698
  8
0
 10
3618.3507932894131045
 20
164.6831925064032873
 30
0.0
 11
3618.3495441614131778
 21
164.6762501454032872
 31
0.0
  0
LINE
  5
11699
  8
0
 10
3618.3495441614131778
 20
164.6762501454032872
 30
0.0
 11
3618.3664697673088995
 21
164.6740498586827925
 31
0.0
  0
LINE
  5
1169A
  8
0
 10
3618.3664697673088995
 20
164.6740498586827925
 30
0.0
 11
3618.3846485864200986
 21
164.6788146382409934
 31
0.0
  0
LINE
  5
1169B
  8
0
 10
3618.3682891946878044
 20
164.6849884754211075
 30
0.0
 11
3618.36646976726297
 21
164.6740498587031141
 31
0.0
  0
LINE
  5
1169C
  8
0
 10
3618.4120387781417776
 20
164.6738365510898916
 30
0.0
 11
3618.4126104592028241
 21
164.6770138212459074
 31
0.0
  0
LINE
  5
1169D
  8
0
 10
3618.3945699953351323
 20
164.6802588411295005
 30
0.0
 11
3618.377779251075026
 21
164.6758080366298032
 31
0.0
  0
LINE
  5
1169E
  8
0
 10
3618.377779251075026
 20
164.6758080366298032
 30
0.0
 11
3618.3766279162141473
 21
164.66956895320331
 31
0.0
  0
LINE
  5
1169F
  8
0
 10
3618.3766279162141473
 20
164.66956895320331
 30
0.0
 11
3618.3937951182169854
 21
164.6687114013903113
 31
0.0
  0
LINE
  5
116A0
  8
0
 10
3618.3937951182169854
 20
164.6687114013903113
 30
0.0
 11
3618.4120387781417776
 21
164.6738365510898916
 31
0.0
  0
LINE
  5
116A1
  8
0
 10
3618.395682673392912
 20
164.6800596106488115
 30
0.0
 11
3618.3937951181701465
 21
164.6687114014106044
 31
0.0
  0
LINE
  5
116A2
  8
0
 10
3618.4212368370967852
 20
164.6754613705786028
 30
0.0
 11
3618.4051015801301219
 21
164.6706125515549104
 31
0.0
  0
LINE
  5
116A3
  8
0
 10
3618.4051015801301219
 20
164.6706125515549104
 30
0.0
 11
3618.404212204941814
 21
164.6656696119555932
 31
0.0
  0
LINE
  5
116A4
  8
0
 10
3618.404212204941814
 20
164.6656696119555932
 30
0.0
 11
3618.4216233020902109
 21
164.6661675724195959
 31
0.0
  0
LINE
  5
116A5
  8
0
 10
3618.4216233020902109
 20
164.6661675724195959
 30
0.0
 11
3618.440798825201
 21
164.6719419336752992
 31
0.0
  0
LINE
  5
116A6
  8
0
 10
3618.4232310178331318
 20
164.6751028811328013
 30
0.0
 11
3618.4216233020429172
 21
164.666167572439889
 31
0.0
  0
LINE
  5
116A7
  8
0
 10
3618.3242560822709493
 20
164.6929112829031112
 30
0.0
 11
3618.3229658640129855
 21
164.6857405513034109
 31
0.0
  0
LINE
  5
116A8
  8
0
 10
3618.3229658640129855
 20
164.6857405513034109
 30
0.0
 11
3618.3396526740311856
 21
164.6822130929890022
 31
0.0
  0
LINE
  5
116A9
  8
0
 10
3618.3396526740311856
 20
164.6822130929890022
 30
0.0
 11
3618.3583554088691017
 21
164.6867758456018009
 31
0.0
  0
LINE
  5
116AA
  8
0
 10
3618.3407030350258538
 20
164.6899520090734086
 30
0.0
 11
3618.3396526739838919
 21
164.682213093009409
 31
0.0
  0
LINE
  5
116AB
  8
0
 10
3617.6896589937919089
 20
164.8070933211268994
 30
0.0
 11
3618.7900672022128674
 21
164.609098633703411
 31
0.0
  0
LINE
  5
116AC
  8
0
 10
3618.3287677000348594
 20
164.6826544741022929
 30
0.0
 11
3618.3275286011198659
 21
164.6757678518040109
 31
0.0
  0
LINE
  5
116AD
  8
0
 10
3618.3275286011198659
 20
164.6757678518040109
 30
0.0
 11
3618.3096835093160735
 21
164.6728578509174952
 31
0.0
  0
LINE
  5
116AE
  8
0
 10
3618.3088622387131181
 20
164.6730334319034057
 30
0.0
 11
3618.3112675636130007
 21
164.6864016655034106
 31
0.0
  0
LINE
  5
116AF
  8
0
 10
3618.3121501977161643
 20
164.6865671289160105
 30
0.0
 11
3618.3287677000348594
 21
164.6826544741022929
 31
0.0
  0
LINE
  5
116B0
  8
0
 10
3618.3121501977161643
 20
164.6865671289160105
 30
0.0
 11
3618.3096835092510446
 21
164.6728578509570866
 31
0.0
  0
LINE
  5
116B1
  8
0
 10
3618.3121501977161643
 20
164.6865671289160105
 30
0.0
 11
3618.3112551080930643
 21
164.6863999589257901
 31
0.0
  0
ARC
  5
116B2
  8
0
 10
3617.4986445512140563
 20
165.508708236881688
 30
0.0
 40
0.039957279562666
 50
90.1382630548127963
 51
180.060763882451198
  0
LINE
  5
116B3
  8
0
 10
3617.458687294120864
 20
165.5086658610032941
 30
0.0
 11
3617.4586763375227747
 21
164.9487274623515134
 31
0.0
  0
ARC
  5
116B4
  8
0
 10
3617.4886757526310248
 20
164.9487268753377975
 30
0.0
 40
0.0299994151130909
 50
179.9988788645100044
 51
269.979189522437423
  0
LINE
  5
116B5
  8
0
 10
3624.6830959478129444
 20
166.7145950498033073
 30
0.0
 11
3624.6830959478129444
 21
163.564987237203411
 31
0.0
  0
ARC
  5
116B6
  8
0
 10
3624.5853017557601561
 20
166.6745942396651969
 30
0.0
 40
0.0400008101525279
 50
90.0015375685365342
 51
179.9988396008849918
  0
LINE
  5
116B7
  8
0
 10
3624.5453009456159634
 20
166.6745950500466904
 30
0.0
 11
3624.5453009456159634
 21
163.6049872372059895
 31
0.0
  0
ARC
  5
116B8
  8
0
 10
3618.7970418914837865
 20
164.6478402316575114
 30
0.0
 40
0.0393644217848909
 50
259.7943049303667067
 51
320.644971532626414
  0
ARC
  5
116B9
  8
0
 10
3619.9422296524089688
 20
163.7699374179198912
 30
0.0
 40
1.4036294460470771
 50
133.0588304277175098
 51
142.5789152608361974
  0
ARC
  5
116BA
  8
0
 10
3619.3074297105558799
 20
164.4335910731408887
 30
0.0
 40
0.4854380410959857
 50
92.0199766413910254
 51
131.7946744747954142
  0
ARC
  5
116BB
  8
0
 10
3617.6967826951140523
 20
164.8458135487032905
 30
0.0
 40
0.0393700793000064
 50
203.1796310258052074
 51
259.5753659195178784
  0
ARC
  5
116BC
  8
0
 10
3617.3710993274921748
 20
164.717337421690786
 30
0.0
 40
0.3107565693432391
 50
21.3191497772895104
 51
33.3120251685846469
  0
ARC
  5
116BD
  8
0
 10
3617.5755809514048451
 20
164.8542326642667888
 30
0.0
 40
0.0647243842098655
 50
31.4515439200646902
 51
85.1726911635127948
  0
ARC
  5
116BE
  8
0
 10
3621.0505622554142064
 20
155.9644818679830962
 30
0.0
 40
8.9542624558177906
 50
80.9013285315507176
 51
90.108263912976895
  0
LINE
  5
116BF
  8
0
 10
3622.466550164101136
 20
161.4195435791399973
 30
0.0
 11
3622.466550164101136
 21
166.1030199879402005
 31
0.0
  0
ARC
  5
116C0
  8
0
 10
3622.5063032938951437
 20
166.0966235389331018
 30
0.0
 40
0.0402644494353598
 50
91.1334610151377547
 51
170.8592116623273967
  0
LINE
  5
116C1
  8
0
 10
3622.5055068092779038
 20
166.1368801098325889
 30
0.0
 11
3623.303287997327061
 21
166.1453904015251908
 31
0.0
  0
ARC
  5
116C2
  8
0
 10
3623.3031673105288064
 20
166.1158592096188045
 30
0.0
 40
0.0295314385141696
 50
0.0025545814449914
 51
89.7658473904551784
  0
ARC
  5
116C3
  8
0
 10
3622.9185366353449353
 20
166.0827322325461921
 30
0.0
 40
0.4154849458708291
 50
355.4167661435675996
 51
4.573278579764569
  0
ARC
  5
116C4
  8
0
 10
3623.5293282297097903
 20
166.0494585635088924
 30
0.0
 40
0.1966352567714181
 50
179.9786085140250123
 51
205.0117398038146064
  0
LINE
  5
116C5
  8
0
 10
3623.3511331964127749
 20
165.966320399503303
 30
0.0
 11
3623.726380017313204
 21
165.1572994011033018
 31
0.0
  0
LINE
  5
116C6
  8
0
 10
3623.726380017313204
 20
165.1572994011033018
 30
0.0
 11
3623.7263881446128835
 21
164.2069767228815067
 31
0.0
  0
ARC
  5
116C7
  8
0
 10
3623.6968605981201108
 20
164.2069769125969003
 30
0.0
 40
0.0295275464935245
 50
270.0000093013854894
 51
359.9996318728232154
  0
LINE
  5
116C8
  8
0
 10
3623.6968606029131479
 20
164.1774493661033034
 30
0.0
 11
3622.8421643929841593
 21
164.1774629378141128
 31
0.0
  0
ARC
  5
116C9
  8
0
 10
3622.8421612386759989
 20
163.9788162434294065
 30
0.0
 40
0.1986466944097339
 50
89.999090201001664
 51
177.4395609693316942
  0
LINE
  5
116CA
  8
0
 10
3622.6437019896839047
 20
161.3998513607783138
 30
0.0
 11
3622.6437019896839047
 21
164.4631283229053054
 31
0.0
  0
ARC
  5
116CB
  8
0
 10
3622.5056097547198988
 20
161.4226709338956027
 30
0.0
 40
0.039184588388077
 50
184.5776926668935971
 51
264.872996238262715
  0
LINE
  5
116CC
  8
0
 10
3622.5021080739129502
 20
161.3836431207533053
 30
0.0
 11
3622.6113255674331413
 21
161.372921933961095
 31
0.0
  0
ARC
  5
116CD
  8
0
 10
3622.6124240534500132
 20
161.4045285601204114
 30
0.0
 40
0.0316257092995337
 50
268.0094904984318873
 51
351.4951972096491204
  0
ARC
  5
116CE
  8
0
 10
3623.2221205206460581
 20
164.437970255073111
 30
0.0
 40
0.5789653921766388
 50
131.002925642280502
 51
177.5095141455174996
  0
LINE
  5
116CF
  8
0
 10
3622.8422627365139306
 20
164.8749015874032864
 30
0.0
 11
3623.7263824217288857
 21
164.8761518175649883
 31
0.0
  0
LINE
  5
116D0
  8
0
 10
3624.0137990048137908
 20
164.1653587315032894
 30
0.0
 11
3624.0137990048137908
 21
166.1142235555034006
 31
0.0
  0
LINE
  5
116D1
  8
0
 10
3624.5453006099128288
 20
164.1653587315032894
 30
0.0
 11
3624.0137990048137908
 21
164.1653587315032894
 31
0.0
  0
LINE
  5
116D2
  8
0
 10
3624.0137990048137908
 20
164.1949092538033028
 30
0.0
 11
3624.0058272579140066
 21
164.1949092538033028
 31
0.0
  0
ARC
  5
116D3
  8
0
 10
3624.0058272579140066
 20
164.2736494330569883
 30
0.0
 40
0.0787401792536251
 50
205.7913233076822905
 51
270.0
  0
ARC
  5
116D4
  8
0
 10
3623.8640343794832006
 20
164.2051305661885863
 30
0.0
 40
0.0787401544085907
 50
25.7913233076822799
 51
75.0000039514594192
  0
LINE
  5
116D5
  8
0
 10
3623.8844138258132261
 20
164.2811877163032932
 30
0.0
 11
3623.7263871478248802
 21
164.3235308253719893
 31
0.0
  0
LINE
  5
116D6
  8
0
 10
3624.5453006099128288
 20
166.1142235555034006
 30
0.0
 11
3624.0137990048137908
 21
166.1142235555034006
 31
0.0
  0
LINE
  5
116D7
  8
0
 10
3624.0137990048137908
 20
166.0846730332033019
 30
0.0
 11
3624.0058272579140066
 21
166.0846730332033019
 31
0.0
  0
ARC
  5
116D8
  8
0
 10
3624.0058272579140066
 20
166.0059328539497017
 30
0.0
 40
0.0787401792536251
 50
90.0
 51
154.2086766923162031
  0
ARC
  5
116D9
  8
0
 10
3623.8640343794832006
 20
166.0744517208181037
 30
0.0
 40
0.0787401544085907
 50
284.999996048540595
 51
334.208676692317681
  0
LINE
  5
116DA
  8
0
 10
3623.8844138258132261
 20
165.9983945707033968
 30
0.0
 11
3623.3968516732079479
 21
165.8677527216921987
 31
0.0
  0
LINE
  5
116DB
  8
0
 10
3624.5853006823131182
 20
163.564987237203411
 30
0.0
 11
3624.6830959478129444
 21
163.564987237203411
 31
0.0
  0
ARC
  5
116DC
  8
0
 10
3624.5853017557601561
 20
163.604988047341493
 30
0.0
 40
0.0400008101525279
 50
180.0011603991148945
 51
269.9984624314633948
  0
LINE
  5
116DE
  8
0
 10
3618.3088622387131181
 20
164.6730334319034057
 30
0.0
 11
3618.3096835093160735
 21
164.6728578509174952
 31
0.0
  0
LINE
  5
116DF
  8
0
 10
3618.320703885419789
 20
164.6731690029438937
 30
0.0
 11
3618.3196984611608968
 21
164.6673676382771987
 31
0.0
  0
LINE
  5
116E0
  8
0
 10
3618.3196984611608968
 20
164.6673676382771987
 30
0.0
 11
3618.3365197919138154
 21
164.6648012666034049
 31
0.0
  0
LINE
  5
116E1
  8
0
 10
3618.3365197919138154
 20
164.6648012666034049
 30
0.0
 11
3618.3544228054352061
 21
164.6680331828733017
 31
0.0
  0
LINE
  5
116E2
  8
0
 10
3618.3544228054352061
 20
164.6680331828733017
 30
0.0
 11
3618.3554784052362265
 21
164.6738999599440092
 31
0.0
  0
LINE
  5
116E3
  8
0
 10
3618.3554784052362265
 20
164.6738999599440092
 30
0.0
 11
3618.3386180304778463
 21
164.6764627857504024
 31
0.0
  0
LINE
  5
116E4
  8
0
 10
3618.3386180304778463
 20
164.6764627857504024
 30
0.0
 11
3618.3207038854020539
 21
164.6731690029409947
 31
0.0
  0
LINE
  5
116E5
  8
0
 10
3618.3386180304778463
 20
164.6764627857504024
 30
0.0
 11
3618.3365197918801641
 21
164.6648012665972942
 31
0.0
  0
LINE
  5
116E6
  8
0
 10
3618.3655911484970602
 20
164.6691667004340047
 30
0.0
 11
3618.3476182470708409
 21
164.6655463632621093
 31
0.0
  0
LINE
  5
116E7
  8
0
 10
3618.3476182470708409
 20
164.6655463632621093
 30
0.0
 11
3618.3467528211131139
 21
164.6607365284033051
 31
0.0
  0
LINE
  5
116E8
  8
0
 10
3618.3467528211131139
 20
164.6607365284033051
 30
0.0
 11
3618.3638470297401
 21
164.6594732961698924
 31
0.0
  0
LINE
  5
116E9
  8
0
 10
3618.3638470297401
 20
164.6594732961698924
 30
0.0
 11
3618.3818132470300952
 21
164.6630564844986111
 31
0.0
  0
LINE
  5
116EA
  8
0
 10
3618.3818132470300952
 20
164.6630564844986111
 30
0.0
 11
3618.3826920423261981
 21
164.6679406234524095
 31
0.0
  0
LINE
  5
116EB
  8
0
 10
3618.3826920423261981
 20
164.6679406234524095
 30
0.0
 11
3618.3655911484970602
 21
164.6691667004340047
 31
0.0
  0
LINE
  5
116EC
  8
0
 10
3618.3655911484970602
 20
164.6691667004340047
 30
0.0
 11
3618.3638470297401
 21
164.6594732961698924
 31
0.0
  0
LINE
  5
116ED
  8
0
 10
3618.3750254981141552
 20
164.660663088103405
 30
0.0
 11
3618.3743324972201663
 21
164.6568115508401888
 31
0.0
  0
LINE
  5
116EE
  8
0
 10
3618.3743324972201663
 20
164.6568115508401888
 30
0.0
 11
3618.3916641567329862
 21
164.6568680156117068
 31
0.0
  0
LINE
  5
116EF
  8
0
 10
3618.3916641567329862
 20
164.6568680156117068
 30
0.0
 11
3618.4096997974138503
 21
164.660837042703406
 31
0.0
  0
LINE
  5
116F0
  8
0
 10
3618.4096997974138503
 20
164.660837042703406
 30
0.0
 11
3618.4104057306130926
 21
164.6647604545034085
 31
0.0
  0
LINE
  5
116F1
  8
0
 10
3618.4104057306130926
 20
164.6647604545034085
 30
0.0
 11
3618.3930629381270592
 21
164.664642115672109
 31
0.0
  0
LINE
  5
116F2
  8
0
 10
3618.3930629381270592
 20
164.664642115672109
 30
0.0
 11
3618.3750254981141552
 21
164.660663088103405
 31
0.0
  0
LINE
  5
116F3
  8
0
 10
3618.3930629381270592
 20
164.664642115672109
 30
0.0
 11
3618.3916641570222055
 21
164.6568680156184996
 31
0.0
  0
LINE
  5
116F4
  8
0
 10
3618.3044147890141176
 20
164.6483131563032885
 30
0.0
 11
3618.3052696797681165
 21
164.6483209262090099
 31
0.0
  0
LINE
  5
116F5
  8
0
 10
3618.3052696797681165
 20
164.6483209262090099
 30
0.0
 11
3618.3223969717128057
 21
164.6472474550033098
 31
0.0
  0
LINE
  5
116F6
  8
0
 10
3618.3223969717128057
 20
164.6472474550033098
 30
0.0
 11
3618.3222299930448571
 21
164.6463194263637888
 31
0.0
  0
LINE
  5
116F7
  8
0
 10
3618.3222299930448571
 20
164.6463194263637888
 30
0.0
 11
3618.3133211393760575
 21
164.6462727733330951
 31
0.0
  0
LINE
  5
116F8
  8
0
 10
3618.3044143723132038
 20
164.6483132294034135
 30
0.0
 11
3618.3040932255489679
 21
164.6465283709522112
 31
0.0
  0
LINE
  5
116F9
  8
0
 10
3618.373396128873992
 20
164.6515739301422059
 30
0.0
 11
3618.3730484667430574
 21
164.6496752095484055
 31
0.0
  0
LINE
  5
116FA
  8
0
 10
3618.4087399468708099
 20
164.6555024178493056
 30
0.0
 11
3618.4083922880231512
 21
164.6535702114528021
 31
0.0
  0
LINE
  5
116FB
  8
0
 10
3618.4029257646689075
 20
164.6585198775862011
 30
0.0
 11
3618.4024029225770391
 21
164.6556140438912053
 31
0.0
  0
LINE
  5
116FC
  8
0
 10
3618.4024029225770391
 20
164.6556140438912053
 30
0.0
 11
3618.4199774406138204
 21
164.6570202590058045
 31
0.0
  0
LINE
  5
116FD
  8
0
 10
3618.4199774406138204
 20
164.6570202590058045
 30
0.0
 11
3618.438089959312947
 21
164.6614165565034114
 31
0.0
  0
LINE
  5
116FE
  8
0
 10
3618.438089959312947
 20
164.6614165565034114
 30
0.0
 11
3618.4386243790468143
 21
164.6643867363571019
 31
0.0
  0
LINE
  5
116FF
  8
0
 10
3618.4386243790468143
 20
164.6643867363571019
 30
0.0
 11
3618.421034523777962
 21
164.6628952804097992
 31
0.0
  0
LINE
  5
11700
  8
0
 10
3618.421034523777962
 20
164.6628952804097992
 30
0.0
 11
3618.4029257646689075
 21
164.6585198775862011
 31
0.0
  0
LINE
  5
11701
  8
0
 10
3618.4210345238561786
 20
164.6628952803854133
 30
0.0
 11
3618.4199774406888537
 21
164.6570202590118015
 31
0.0
  0
LINE
  5
11702
  8
0
 10
3618.344373599913979
 20
164.647513372603413
 30
0.0
 11
3618.3619681759128071
 21
164.6490310655034079
 31
0.0
  0
LINE
  5
11703
  8
0
 10
3618.3619681759128071
 20
164.6490310655034079
 30
0.0
 11
3618.3793984649128106
 21
164.6496356896034001
 31
0.0
  0
LINE
  5
11704
  8
0
 10
3618.3793984649128106
 20
164.6496356896034001
 30
0.0
 11
3618.3792278355140297
 21
164.6486873716033017
 31
0.0
  0
LINE
  5
11705
  8
0
 10
3618.3792278355140297
 20
164.6486873716033017
 30
0.0
 11
3618.3730668656239686
 21
164.6480590932791017
 31
0.0
  0
LINE
  5
11706
  8
0
 10
3618.344373599913979
 20
164.647513372603413
 30
0.0
 11
3618.344205420212802
 21
164.6465786694033113
 31
0.0
  0
LINE
  5
11707
  8
0
 10
3618.344205420212802
 20
164.6465786694033113
 30
0.0
 11
3618.3511701204361088
 21
164.6467114183676017
 31
0.0
  0
LINE
  5
11708
  8
0
 10
3618.3619681759128071
 20
164.6490310655034079
 30
0.0
 11
3618.3616487860831512
 21
164.6472559715876969
 31
0.0
  0
LINE
  5
11709
  8
0
 10
3618.3235285726441361
 20
164.6461556343319899
 30
0.0
 11
3618.3332089816381085
 21
164.6464005564286879
 31
0.0
  0
LINE
  5
1170A
  8
0
 10
3618.3332089816381085
 20
164.6464005564286879
 30
0.0
 11
3618.3429672167249009
 21
164.6464133479670124
 31
0.0
  0
LINE
  5
1170B
  8
0
 10
3618.4017693191349281
 20
164.6520926235251068
 30
0.0
 11
3618.4015967557447766
 21
164.6511335567475101
 31
0.0
  0
LINE
  5
1170C
  8
0
 10
3618.4017693331579721
 20
164.6520927014643121
 30
0.0
 11
3618.4196875368138535
 21
164.6554090415102962
 31
0.0
  0
LINE
  5
1170D
  8
0
 10
3618.4196875368138535
 20
164.6554090415102962
 30
0.0
 11
3618.4374424938241646
 21
164.6578180946615078
 31
0.0
  0
LINE
  5
1170E
  8
0
 10
3618.4374424938241646
 20
164.6578180946615078
 30
0.0
 11
3618.4372661867178067
 21
164.6568382208295134
 31
0.0
  0
LINE
  5
1170F
  8
0
 10
3618.4372661867178067
 20
164.6568382208295134
 30
0.0
 11
3618.4310225508561416
 21
164.655549784323
 31
0.0
  0
LINE
  5
11710
  8
0
 10
3618.419687536823858
 20
164.6554090415588973
 30
0.0
 11
3618.4193581365370846
 21
164.6535783116524954
 31
0.0
  0
LINE
  5
11711
  8
0
 10
3618.4015967557447766
 20
164.6511335567475101
 30
0.0
 11
3618.4069030268410643
 21
164.6517333135639944
 31
0.0
  0
LINE
  5
11712
  8
0
 10
3618.4330158790221503
 20
164.6685473297524993
 30
0.0
 11
3618.4322999166470254
 21
164.6645681782829911
 31
0.0
  0
LINE
  5
11713
  8
0
 10
3618.4322999166470254
 20
164.6645681782829911
 30
0.0
 11
3618.4499611010251101
 21
164.6664560647662938
 31
0.0
  0
LINE
  5
11714
  8
0
 10
3618.4499611010251101
 20
164.6664560647662938
 30
0.0
 11
3618.4577893246378153
 21
164.6688848603099018
 31
0.0
  0
LINE
  5
11715
  8
0
 10
3618.4499611013297908
 20
164.6664560647990072
 30
0.0
 11
3618.4506298912961029
 21
164.6701730456902908
 31
0.0
  0
LINE
  5
11716
  8
0
 10
3618.4330158789512097
 20
164.6685473297310125
 30
0.0
 11
3618.4427723705748576
 21
164.6715868368154077
 31
0.0
  0
LINE
  5
11717
  8
0
 10
3618.4313266646217926
 20
164.6591590709487036
 30
0.0
 11
3618.4309742171940343
 21
164.657200250535908
 31
0.0
  0
LINE
  5
11718
  8
0
 10
3618.4309742171940343
 20
164.657200250535908
 30
0.0
 11
3618.4488009634560512
 21
164.6600082912744085
 31
0.0
  0
LINE
  5
11719
  8
0
 10
3618.4488009634560512
 20
164.6600082912744085
 30
0.0
 11
3618.4669994592181865
 21
164.6648824289287916
 31
0.0
  0
LINE
  5
1171A
  8
0
 10
3618.4669994592181865
 20
164.6648824289287916
 30
0.0
 11
3618.4673610777858812
 21
164.6668922205601859
 31
0.0
  0
LINE
  5
1171B
  8
0
 10
3618.4673610777858812
 20
164.6668922205601859
 30
0.0
 11
3618.4495148564028568
 21
164.6639759418409881
 31
0.0
  0
LINE
  5
1171C
  8
0
 10
3618.4495148564028568
 20
164.6639759418409881
 30
0.0
 11
3618.4313266546851082
 21
164.659159015724299
 31
0.0
  0
LINE
  5
1171D
  8
0
 10
3618.4495148564769806
 20
164.6639759418602864
 30
0.0
 11
3618.4488009659589807
 21
164.6600082919445072
 31
0.0
  0
LINE
  5
1171E
  8
0
 10
3618.460243902214188
 20
164.6626679478034134
 30
0.0
 11
3618.4600647296279021
 21
164.6616721482911032
 31
0.0
  0
LINE
  5
1171F
  8
0
 10
3618.4600647296279021
 20
164.6616721482911032
 30
0.0
 11
3618.4686742669559862
 21
164.6635519929413931
 31
0.0
  0
LINE
  5
11720
  8
0
 10
3618.460243902214188
 20
164.6626679478034134
 30
0.0
 11
3618.4727687398190028
 21
164.6661896381150996
 31
0.0
  0
LINE
  5
11721
  8
0
 10
3618.4612504500059913
 20
164.6682621055628886
 30
0.0
 11
3618.4609019826139047
 21
164.6663254052033096
 31
0.0
  0
LINE
  5
11722
  8
0
 10
3618.4609019826139047
 20
164.6663254052033096
 30
0.0
 11
3618.4666416026061597
 21
164.6672920841056111
 31
0.0
  0
LINE
  5
11723
  8
0
 10
3618.3128094059920841
 20
164.6949708649898128
 30
0.0
 11
3618.3125280159129034
 21
164.6934069646034118
 31
0.0
  0
LINE
  5
11724
  8
0
 10
3618.3125280159129034
 20
164.6934069646034118
 30
0.0
 11
3618.3133402029129684
 21
164.6931808997032931
 31
0.0
  0
LINE
  5
11725
  8
0
 10
3618.3133402029129684
 20
164.6931808997032931
 30
0.0
 11
3618.3176597607539406
 21
164.6940981484218867
 31
0.0
  0
LINE
  5
11726
  8
0
 10
3618.3133402029129684
 20
164.6931808997032931
 30
0.0
 11
3618.3136355236078998
 21
164.6948222229698899
 31
0.0
  0
LINE
  5
11727
  8
0
 10
3618.1276711430127762
 20
164.700782733693103
 30
0.0
 11
3618.126808903015899
 21
164.6959906051164921
 31
0.0
  0
LINE
  5
11728
  8
0
 10
3618.126808903015899
 20
164.6959906051164921
 30
0.0
 11
3618.1427189809301126
 21
164.6881462514346026
 31
0.0
  0
LINE
  5
11729
  8
0
 10
3618.1427189809301126
 20
164.6881462514346026
 30
0.0
 11
3618.1435414732140998
 21
164.6879774599034079
 31
0.0
  0
LINE
  5
1172A
  8
0
 10
3618.1435414732140998
 20
164.6879774599034079
 30
0.0
 11
3618.1452091603141525
 21
164.6972460751034077
 31
0.0
  0
LINE
  5
1172B
  8
0
 10
3618.1444291838638492
 20
164.6976511595088937
 30
0.0
 11
3618.1276711430127762
 21
164.700782733693103
 31
0.0
  0
LINE
  5
1172C
  8
0
 10
3618.1444291839197831
 20
164.6976511595443071
 30
0.0
 11
3618.1427189810037817
 21
164.6881462514510019
 31
0.0
  0
LINE
  5
1172D
  8
0
 10
3618.1444291839129619
 20
164.6976511595034083
 30
0.0
 11
3618.1452091603141525
 21
164.6972460751034077
 31
0.0
  0
LINE
  5
1172E
  8
0
 10
3618.1429505295109266
 20
164.6846931332904092
 30
0.0
 11
3618.1419688032660815
 21
164.6792369281218953
 31
0.0
  0
LINE
  5
1172F
  8
0
 10
3618.1419688032660815
 20
164.6792369281218953
 30
0.0
 11
3618.1411507054717731
 21
164.6794301413821984
 31
0.0
  0
LINE
  5
11730
  8
0
 10
3618.1411507054717731
 20
164.6794301413821984
 30
0.0
 11
3618.125060039823893
 21
164.6862708318055866
 31
0.0
  0
LINE
  5
11731
  8
0
 10
3618.125060039823893
 20
164.6862708318055866
 30
0.0
 11
3618.1255656392131641
 21
164.6890808351033115
 31
0.0
  0
LINE
  5
11732
  8
0
 10
3618.1255656392131641
 20
164.6890808351033115
 30
0.0
 11
3618.1421586008141276
 21
164.6850317895033129
 31
0.0
  0
LINE
  5
11733
  8
0
 10
3618.1421586008141276
 20
164.6850317895033129
 30
0.0
 11
3618.1429505295109266
 21
164.6846931332904092
 31
0.0
  0
LINE
  5
11734
  8
0
 10
3618.1421586008141276
 20
164.6850317895033129
 30
0.0
 11
3618.1411507052239358
 21
164.6794301414234099
 31
0.0
  0
LINE
  5
11735
  8
0
 10
3618.1305228180540325
 20
164.681300350827712
 30
0.0
 11
3618.1308541441389934
 21
164.6831608086604888
 31
0.0
  0
LINE
  5
11736
  8
0
 10
3618.1308541441389934
 20
164.6831608086604888
 30
0.0
 11
3618.1148296061860492
 21
164.6903499954790107
 31
0.0
  0
LINE
  5
11737
  8
0
 10
3618.1148296061860492
 20
164.6903499954790107
 30
0.0
 11
3618.0984823340681942
 21
164.6956797937500028
 31
0.0
  0
LINE
  5
11738
  8
0
 10
3618.0984823340681942
 20
164.6956797937500028
 30
0.0
 11
3618.0981296433337775
 21
164.693804353617395
 31
0.0
  0
LINE
  5
11739
  8
0
 10
3618.0981296433337775
 20
164.693804353617395
 30
0.0
 11
3618.1141567872628002
 21
164.6866106250955966
 31
0.0
  0
LINE
  5
1173A
  8
0
 10
3618.1141567872628002
 20
164.6866106250955966
 30
0.0
 11
3618.1305228180540325
 21
164.681300350827712
 31
0.0
  0
LINE
  5
1173B
  8
0
 10
3618.1148296061492147
 20
164.6903499954046026
 30
0.0
 11
3618.1141567872150517
 21
164.6866106251158897
 31
0.0
  0
LINE
  5
1173C
  8
0
 10
3618.1317804019208779
 20
164.6882897080431007
 30
0.0
 11
3618.1324588527281776
 21
164.6920603795414024
 31
0.0
  0
LINE
  5
1173D
  8
0
 10
3618.1324588527281776
 20
164.6920603795414024
 30
0.0
 11
3618.1166147538069708
 21
164.7002714289716891
 31
0.0
  0
LINE
  5
1173E
  8
0
 10
3618.1166147538069708
 20
164.7002714289716891
 30
0.0
 11
3618.1000882469179487
 21
164.7046898147297043
 31
0.0
  0
LINE
  5
1173F
  8
0
 10
3618.1000882469179487
 20
164.7046898147297043
 30
0.0
 11
3618.0994157413638277
 21
164.7008670766412877
 31
0.0
  0
LINE
  5
11740
  8
0
 10
3618.0994157413638277
 20
164.7008670766412877
 30
0.0
 11
3618.1152498905971697
 21
164.6926858379532916
 31
0.0
  0
LINE
  5
11741
  8
0
 10
3618.1152498905971697
 20
164.6926858379532916
 30
0.0
 11
3618.1317804019208779
 21
164.6882897080431007
 31
0.0
  0
LINE
  5
11742
  8
0
 10
3618.1166147537710458
 20
164.7002714288973095
 30
0.0
 11
3618.115249890549876
 21
164.6926858379736132
 31
0.0
  0
LINE
  5
11743
  8
0
 10
3618.1045588758170197
 20
164.6942051993277971
 30
0.0
 11
3618.1051014241629673
 21
164.6970510606601863
 31
0.0
  0
LINE
  5
11744
  8
0
 10
3618.1051014241629673
 20
164.6970510606601863
 30
0.0
 11
3618.0891342567310858
 21
164.7056222304657069
 31
0.0
  0
LINE
  5
11745
  8
0
 10
3618.0891342567310858
 20
164.7056222304657069
 30
0.0
 11
3618.0729964119359465
 21
164.7113260987432
 31
0.0
  0
LINE
  5
11746
  8
0
 10
3618.0729964119250326
 20
164.7113260986635055
 30
0.0
 11
3618.0724932449052176
 21
164.7084456928708107
 31
0.0
  0
LINE
  5
11747
  8
0
 10
3618.0724932449052176
 20
164.7084456928708107
 30
0.0
 11
3618.0882609577552103
 21
164.6998940283498882
 31
0.0
  0
LINE
  5
11748
  8
0
 10
3618.0882609577552103
 20
164.6998940283498882
 30
0.0
 11
3618.1045588758170197
 21
164.6942051993277971
 31
0.0
  0
LINE
  5
11749
  8
0
 10
3618.0891342566937965
 20
164.7056222303912989
 30
0.0
 11
3618.0882609577079165
 21
164.6998940283702098
 31
0.0
  0
LINE
  5
1174A
  8
0
 10
3618.0771167159159631
 20
164.7341408956305884
 30
0.0
 11
3618.0776810153438419
 21
164.7372771399967917
 31
0.0
  0
LINE
  5
1174B
  8
0
 10
3618.1008850354928654
 20
164.7331020777947117
 30
0.0
 11
3618.110271804326203
 21
164.7266078798685101
 31
0.0
  0
LINE
  5
1174C
  8
0
 10
3618.110271804326203
 20
164.7266078798685101
 30
0.0
 11
3618.109112055713922
 21
164.7195107093033073
 31
0.0
  0
LINE
  5
1174D
  8
0
 10
3618.109112055713922
 20
164.7195107093033073
 30
0.0
 11
3618.0924810316810181
 21
164.7233482134045062
 31
0.0
  0
LINE
  5
1174E
  8
0
 10
3618.0924810316810181
 20
164.7233482134045062
 30
0.0
 11
3618.0771167159159631
 21
164.7341408956305884
 31
0.0
  0
LINE
  5
1174F
  8
0
 10
3618.0942968621429827
 20
164.7342874278126885
 30
0.0
 11
3618.0924810317319498
 21
164.7233482134085989
 31
0.0
  0
LINE
  5
11750
  8
0
 10
3618.0494027587778874
 20
164.7386190735682021
 30
0.0
 11
3618.0498893094309096
 21
164.7418104891386008
 31
0.0
  0
LINE
  5
11751
  8
0
 10
3618.0680645502311563
 20
164.7390074151711872
 30
0.0
 11
3618.0824642430129643
 21
164.7286147655034085
 31
0.0
  0
LINE
  5
11752
  8
0
 10
3618.0824642430129643
 20
164.7286147655034085
 30
0.0
 11
3618.0813980633129177
 21
164.7226891881032884
 31
0.0
  0
LINE
  5
11753
  8
0
 10
3618.0813980633129177
 20
164.7226891881032884
 30
0.0
 11
3618.0650086354021369
 21
164.7278694269824086
 31
0.0
  0
LINE
  5
11754
  8
0
 10
3618.0650086354021369
 20
164.7278694269824086
 30
0.0
 11
3618.0494027587778874
 21
164.7386190735682021
 31
0.0
  0
LINE
  5
11755
  8
0
 10
3618.0668924589731432
 20
164.7392182562907976
 30
0.0
 11
3618.0650086354530686
 21
164.7278694269863877
 31
0.0
  0
LINE
  5
11756
  8
0
 10
3618.0415003430812249
 20
164.743787070441897
 30
0.0
 11
3618.055044268851816
 21
164.7336141368668052
 31
0.0
  0
LINE
  5
11757
  8
0
 10
3618.055044268851816
 20
164.7336141368668052
 30
0.0
 11
3618.0541846049191008
 21
164.7286495177349082
 31
0.0
  0
LINE
  5
11758
  8
0
 10
3618.0541846049191008
 20
164.7286495177349082
 30
0.0
 11
3618.0380390722448283
 21
164.7351852688562985
 31
0.0
  0
LINE
  5
11759
  8
0
 10
3618.0380390722448283
 20
164.7351852688562985
 30
0.0
 11
3618.0221106468229664
 21
164.747275827380804
 31
0.0
  0
LINE
  5
1175A
  8
0
 10
3618.0396467880200362
 20
164.7441205776370055
 30
0.0
 11
3618.0380390722948505
 21
164.735185268860306
 31
0.0
  0
LINE
  5
1175B
  8
0
 10
3618.1386217236708944
 20
164.7263121758969078
 30
0.0
 11
3618.1373315054138402
 21
164.7191414443032897
 31
0.0
  0
LINE
  5
1175C
  8
0
 10
3618.1373315054138402
 20
164.7191414443032897
 30
0.0
 11
3618.1204574137159398
 21
164.7216280351262867
 31
0.0
  0
LINE
  5
1175D
  8
0
 10
3618.1204574137159398
 20
164.7216280351262867
 30
0.0
 11
3618.1045104561908374
 21
164.7324497615857126
 31
0.0
  0
LINE
  5
1175E
  8
0
 10
3618.1219662182920729
 20
164.729290775441001
 30
0.0
 11
3618.1204574137668715
 21
164.7216280351302942
 31
0.0
  0
LINE
  5
1175F
  8
0
 10
3618.1308178288240924
 20
164.7182712776607048
 30
0.0
 11
3618.1295787298131472
 21
164.7113846553033056
 31
0.0
  0
LINE
  5
11760
  8
0
 10
3618.1295787298131472
 20
164.7113846553033056
 30
0.0
 11
3618.1452877872270619
 21
164.7024230760740977
 31
0.0
  0
LINE
  5
11761
  8
0
 10
3618.1461212327130852
 20
164.7023151606034048
 30
0.0
 11
3618.1485153232979428
 21
164.715689037124406
 31
0.0
  0
LINE
  5
11762
  8
0
 10
3618.1477545303519037
 20
164.7161463947740003
 30
0.0
 11
3618.1308178288240924
 21
164.7182712776607048
 31
0.0
  0
LINE
  5
11763
  8
0
 10
3618.1477545303519037
 20
164.7161463947740003
 30
0.0
 11
3618.1452877872270619
 21
164.7024230760740977
 31
0.0
  0
LINE
  5
11764
  8
0
 10
3618.1477545303519037
 20
164.7161463947740003
 30
0.0
 11
3618.1485265576129677
 21
164.7156833942034098
 31
0.0
  0
LINE
  5
11765
  8
0
 10
3618.1461212327130852
 20
164.7023151606034048
 30
0.0
 11
3618.1452877872270619
 21
164.7024230760740977
 31
0.0
  0
LINE
  5
11766
  8
0
 10
3618.1350695268429263
 20
164.7065698959615077
 30
0.0
 11
3618.1340268583207944
 21
164.7007749878463869
 31
0.0
  0
LINE
  5
11767
  8
0
 10
3618.1340268583207944
 20
164.7007749878463869
 30
0.0
 11
3618.1173288034751749
 21
164.7042399502716989
 31
0.0
  0
LINE
  5
11768
  8
0
 10
3618.1173288034751749
 20
164.7042399502716989
 30
0.0
 11
3618.1016888512021978
 21
164.7135011977217971
 31
0.0
  0
LINE
  5
11769
  8
0
 10
3618.1016888512021978
 20
164.7135011977217971
 30
0.0
 11
3618.1027307869321703
 21
164.7193764343579971
 31
0.0
  0
LINE
  5
1176A
  8
0
 10
3618.1027307869321703
 20
164.7193764343579971
 30
0.0
 11
3618.119427042010102
 21
164.7159014693862105
 31
0.0
  0
LINE
  5
1176B
  8
0
 10
3618.119427042010102
 20
164.7159014693862105
 30
0.0
 11
3618.1350695268588424
 21
164.7065698959528959
 31
0.0
  0
LINE
  5
1176C
  8
0
 10
3618.119427042010102
 20
164.7159014693862105
 30
0.0
 11
3618.117328803503824
 21
164.7042399502551007
 31
0.0
  0
LINE
  5
1176D
  8
0
 10
3618.0916017896411176
 20
164.718461591655597
 30
0.0
 11
3618.1071861413138322
 21
164.7088069272033124
 31
0.0
  0
LINE
  5
1176E
  8
0
 10
3618.1071861413138322
 20
164.7088069272033124
 30
0.0
 11
3618.1063207153920303
 21
164.7039970922778025
 31
0.0
  0
LINE
  5
1176F
  8
0
 10
3618.1063207153920303
 20
164.7039970922778025
 30
0.0
 11
3618.0898582941340464
 21
164.7087716507544997
 31
0.0
  0
LINE
  5
11770
  8
0
 10
3618.0898582941340464
 20
164.7087716507544997
 30
0.0
 11
3618.074281455117216
 21
164.7183838808325902
 31
0.0
  0
LINE
  5
11771
  8
0
 10
3618.074281455117216
 20
164.7183838808325902
 30
0.0
 11
3618.0751466768138016
 21
164.7232767688034016
 31
0.0
  0
LINE
  5
11772
  8
0
 10
3618.0751466768138016
 20
164.7232767688034016
 30
0.0
 11
3618.0916017896411176
 21
164.718461591655597
 31
0.0
  0
LINE
  5
11773
  8
0
 10
3618.0916017896411176
 20
164.718461591655597
 30
0.0
 11
3618.0898582941340464
 21
164.7087716507544997
 31
0.0
  0
LINE
  5
11774
  8
0
 10
3618.0797956453161532
 20
164.7137833229186015
 30
0.0
 11
3618.0791026443839655
 21
164.7099317857278038
 31
0.0
  0
LINE
  5
11775
  8
0
 10
3618.0791026443839655
 20
164.7099317857278038
 30
0.0
 11
3618.0628776740018111
 21
164.7160260410429942
 31
0.0
  0
LINE
  5
11776
  8
0
 10
3618.0628776740018111
 20
164.7160260410429942
 30
0.0
 11
3618.0473566847099391
 21
164.726032858911509
 31
0.0
  0
LINE
  5
11777
  8
0
 10
3618.0473566847099391
 20
164.726032858911509
 30
0.0
 11
3618.0480771563097733
 21
164.7299504075753873
 31
0.0
  0
LINE
  5
11778
  8
0
 10
3618.0480771563097733
 20
164.7299504075753873
 30
0.0
 11
3618.0642764554368114
 21
164.7238001412378878
 31
0.0
  0
LINE
  5
11779
  8
0
 10
3618.0642764554368114
 20
164.7238001412378878
 30
0.0
 11
3618.0797956453161532
 21
164.7137833229186015
 31
0.0
  0
LINE
  5
1177A
  8
0
 10
3618.0642764554368114
 20
164.7238001412378878
 30
0.0
 11
3618.0628776737307817
 21
164.7160260411430102
 31
0.0
  0
LINE
  5
1177B
  8
0
 10
3618.052898164664839
 20
164.7214997832442975
 30
0.0
 11
3618.0523753227130328
 21
164.7185939496033029
 31
0.0
  0
LINE
  5
1177C
  8
0
 10
3618.0523753227130328
 20
164.7185939496033029
 30
0.0
 11
3618.0363932108698464
 21
164.7260379553991072
 31
0.0
  0
LINE
  5
1177D
  8
0
 10
3618.0363932108698464
 20
164.7260379553991072
 30
0.0
 11
3618.0209490996139721
 21
164.7364720437034009
 31
0.0
  0
LINE
  5
1177E
  8
0
 10
3618.0209490996139721
 20
164.7364720437034009
 30
0.0
 11
3618.0214977933637783
 21
164.7394351324442141
 31
0.0
  0
LINE
  5
1177F
  8
0
 10
3618.0214977933637783
 20
164.7394351324442141
 30
0.0
 11
3618.0374502939198464
 21
164.7319129768135042
 31
0.0
  0
LINE
  5
11780
  8
0
 10
3618.0374502939198464
 20
164.7319129768135042
 30
0.0
 11
3618.052898164664839
 21
164.7214997832442975
 31
0.0
  0
LINE
  5
11781
  8
0
 10
3618.0374502938389014
 20
164.7319129768156074
 30
0.0
 11
3618.0363932107998153
 21
164.7260379554292058
 31
0.0
  0
LINE
  5
11782
  8
0
 10
3618.0280839161000586
 20
164.7414046219510908
 30
0.0
 11
3618.0274745696128775
 21
164.7374077550034031
 31
0.0
  0
LINE
  5
11783
  8
0
 10
3618.0274745696128775
 20
164.7374077550034031
 30
0.0
 11
3618.0115933641181982
 21
164.7453259629780007
 31
0.0
  0
LINE
  5
11784
  8
0
 10
3618.0280839161600852
 20
164.7414046219076909
 30
0.0
 11
3618.0201516010802152
 21
164.7476283153453949
 31
0.0
  0
LINE
  5
11785
  8
0
 10
3618.0265013259668194
 20
164.7319987031011976
 30
0.0
 11
3618.0262013624301289
 21
164.7300311618753881
 31
0.0
  0
LINE
  5
11786
  8
0
 10
3618.0262013624301289
 20
164.7300311618753881
 30
0.0
 11
3618.0104189864919135
 21
164.7388856585799886
 31
0.0
  0
LINE
  5
11787
  8
0
 10
3618.0104189864919135
 20
164.7388856585799886
 30
0.0
 11
3617.9950608523240589
 21
164.7497975870581968
 31
0.0
  0
LINE
  5
11788
  8
0
 10
3617.9950608523240589
 20
164.7497975870581968
 30
0.0
 11
3617.995422470989979
 21
164.7518073785770127
 31
0.0
  0
LINE
  5
11789
  8
0
 10
3617.995422470989979
 20
164.7518073785770127
 30
0.0
 11
3618.0111462995569127
 21
164.7428434257566892
 31
0.0
  0
LINE
  5
1178A
  8
0
 10
3618.0111462995569127
 20
164.7428434257566892
 30
0.0
 11
3618.0265013175107924
 21
164.7319986476310021
 31
0.0
  0
LINE
  5
1178B
  8
0
 10
3618.0111462994941576
 20
164.7428434257984975
 30
0.0
 11
3618.0104189864919135
 21
164.7388856585799886
 31
0.0
  0
LINE
  5
1178C
  8
0
 10
3618.0005941269841969
 20
164.7453716287784005
 30
0.0
 11
3618.0004416354131536
 21
164.7443713959034142
 31
0.0
  0
LINE
  5
1178D
  8
0
 10
3618.0004416354131536
 20
164.7443713959034142
 30
0.0
 11
3617.9863143191269046
 21
164.7537166033208962
 31
0.0
  0
LINE
  5
1178E
  8
0
 10
3618.0005941269841969
 20
164.7453716287784005
 30
0.0
 11
3617.9901564181518552
 21
164.7530253005938903
 31
0.0
  0
LINE
  5
1178F
  8
0
 10
3618.1500683999061039
 20
164.7242525937647883
 30
0.0
 11
3618.1497886132619897
 21
164.7227111727449085
 31
0.0
  0
LINE
  5
11790
  8
0
 10
3618.1497886132619897
 20
164.7227111727449085
 30
0.0
 11
3618.1489469616130918
 21
164.7227599125033066
 31
0.0
  0
LINE
  5
11791
  8
0
 10
3618.1489469616130918
 20
164.7227599125033066
 30
0.0
 11
3618.1452289478120292
 21
164.7251233485700084
 31
0.0
  0
LINE
  5
11792
  8
0
 10
3618.1489469616130918
 20
164.7227599125033066
 30
0.0
 11
3618.149242282313935
 21
164.7244012358034126
 31
0.0
  0
LINE
  5
11793
  8
0
 10
3618.0115933641181982
 20
164.7453259629780007
 30
0.0
 11
3618.0050949439068972
 21
164.750337435568099
 31
0.0
  0
LINE
  5
11794
  8
0
 10
3618.0115933641181982
 20
164.7453259629780007
 30
0.0
 11
3618.0122446784321255
 21
164.7490509952801858
 31
0.0
  0
LINE
  5
11795
  8
0
 10
3618.0012788884200745
 20
164.7490246528412001
 30
0.0
 11
3617.9962577968831283
 21
164.7519274892856913
 31
0.0
  0
LINE
  5
11796
  8
0
 10
3618.0012788884200745
 20
164.7490246528412001
 30
0.0
 11
3618.0016273558021567
 21
164.7509613531447883
 31
0.0
  0
LINE
  5
11797
  8
0
 10
3618.0203016341570219
 20
164.7328735817970085
 30
0.0
 11
3618.0201253270138295
 21
164.7318937079033958
 31
0.0
  0
LINE
  5
11798
  8
0
 10
3618.0201253270138295
 20
164.7318937079033958
 30
0.0
 11
3618.0357544964108456
 21
164.7224881299900119
 31
0.0
  0
LINE
  5
11799
  8
0
 10
3618.1408753926129975
 20
164.6779000181034007
 30
0.0
 11
3618.1416733524138181
 21
164.6775948810033015
 31
0.0
  0
LINE
  5
1179A
  8
0
 10
3618.1416733524138181
 20
164.6775948810033015
 30
0.0
 11
3618.1413490560130413
 21
164.675792517703286
 31
0.0
  0
LINE
  5
1179B
  8
0
 10
3618.1413490560130413
 20
164.675792517703286
 30
0.0
 11
3618.1405428337088779
 21
164.6760517335808913
 31
0.0
  0
LINE
  5
1179C
  8
0
 10
3618.1405428337088779
 20
164.6760517335808913
 30
0.0
 11
3618.1242801218140812
 21
164.681936229803398
 31
0.0
  0
LINE
  5
1179D
  8
0
 10
3618.1242801218099885
 20
164.681936229788306
 30
0.0
 11
3618.1244471005197738
 21
164.6828642584140994
 31
0.0
  0
LINE
  5
1179E
  8
0
 10
3618.1244471005197738
 20
164.6828642584140994
 30
0.0
 11
3618.1408753926129975
 21
164.6779000181034007
 31
0.0
  0
LINE
  5
1179F
  8
0
 10
3618.0203016341570219
 20
164.7328735817970085
 30
0.0
 11
3618.0361033070139456
 21
164.7244267380033023
 31
0.0
  0
LINE
  5
117A0
  8
0
 10
3618.0361033070139456
 20
164.7244267380033023
 30
0.0
 11
3618.0517417191140339
 21
164.715072529203411
 31
0.0
  0
LINE
  5
117A1
  8
0
 10
3618.0517417191140339
 20
164.715072529203411
 30
0.0
 11
3618.0515691558130129
 21
164.7141134625034056
 31
0.0
  0
LINE
  5
117A2
  8
0
 10
3618.0515691558130129
 20
164.7141134625034056
 30
0.0
 11
3618.0357544964108456
 21
164.7224881299900119
 31
0.0
  0
LINE
  5
117A3
  8
0
 10
3618.0357544964108456
 20
164.7224881299900119
 30
0.0
 11
3618.0361033069980294
 21
164.7244267379159055
 31
0.0
  0
LINE
  5
117A4
  8
0
 10
3618.0463968343128727
 20
164.7206982340034074
 30
0.0
 11
3618.0624471350138265
 21
164.7136332059033919
 31
0.0
  0
LINE
  5
117A5
  8
0
 10
3618.0624471350138265
 20
164.7136332059033919
 30
0.0
 11
3618.0781600889031324
 21
164.7046932826451098
 31
0.0
  0
LINE
  5
117A6
  8
0
 10
3618.0781600889031324
 20
164.7046932826451098
 30
0.0
 11
3618.0778186138209094
 21
164.7027954443425983
 31
0.0
  0
LINE
  5
117A7
  8
0
 10
3618.0778186138209094
 20
164.7027954443425983
 30
0.0
 11
3618.061758081375956
 21
164.7098036065412998
 31
0.0
  0
LINE
  5
117A8
  8
0
 10
3618.061758081375956
 20
164.7098036065412998
 30
0.0
 11
3618.0624471350138265
 21
164.7136332059033919
 31
0.0
  0
LINE
  5
117A9
  8
0
 10
3618.0617580813682252
 20
164.7098036064942903
 30
0.0
 11
3618.0460491754979557
 21
164.7187660276190115
 31
0.0
  0
LINE
  5
117AA
  8
0
 10
3618.0460491754979557
 20
164.7187660276190115
 30
0.0
 11
3618.0463968343128727
 21
164.7206982340034074
 31
0.0
  0
LINE
  5
117AB
  8
0
 10
3618.0718530994008688
 20
164.7049718348386023
 30
0.0
 11
3618.0716824701130463
 21
164.7040235169033053
 31
0.0
  0
LINE
  5
117AC
  8
0
 10
3618.0716824701130463
 20
164.7040235169033053
 30
0.0
 11
3618.0876406575130204
 21
164.6964465446033046
 31
0.0
  0
LINE
  5
117AD
  8
0
 10
3618.0876406575130204
 20
164.6964465446033046
 30
0.0
 11
3618.103773314504906
 21
164.6898392332560093
 31
0.0
  0
LINE
  5
117AE
  8
0
 10
3618.103773314504906
 20
164.6898392332560093
 30
0.0
 11
3618.1039414941128598
 21
164.690773936503291
 31
0.0
  0
LINE
  5
117AF
  8
0
 10
3618.1039414941128598
 20
164.690773936503291
 30
0.0
 11
3618.0879794402708285
 21
164.6983294201116905
 31
0.0
  0
LINE
  5
117B0
  8
0
 10
3618.0879794402708285
 20
164.6983294201116905
 30
0.0
 11
3618.0718530994008688
 21
164.7049718348386023
 31
0.0
  0
LINE
  5
117B1
  8
0
 10
3618.1408753926129975
 20
164.6779000181034007
 30
0.0
 11
3618.1405428337088779
 21
164.6760517335808913
 31
0.0
  0
LINE
  5
117B2
  8
0
 10
3618.0879794403322194
 20
164.6983294201270951
 30
0.0
 11
3618.0876406575139299
 21
164.6964465445844894
 31
0.0
  0
LINE
  5
117B3
  8
0
 10
3623.9349308075129557
 20
166.0401922927889018
 30
0.0
 11
3623.9349308075129557
 21
164.2393899942177882
 31
0.0
  0
LINE
  5
117B4
  8
0
 10
3622.4972329451629776
 20
165.4775234733023126
 30
0.0
 11
3623.57785103561082
 21
165.4775234733023126
 31
0.0
  0
ARC
  5
117B5
  8
0
 10
3622.4975172925069273
 20
165.4260945798286002
 30
0.0
 40
0.0514296795376408
 50
90.3167817862439648
 51
127.0222871494598991
  0
ENDSEC
  0
EOF
