  0
SECTION
  2
HEADER
  9
$ACADVER
  1
AC1009
  9
$INSBASE
 10
5608.3508288865614304
 20
311.9132455050057047
 30
0.0
  9
$EXTMIN
 10
5601.1262013957566523
 20
302.9114969158474082
 30
-0.0015258207003583
  9
$EXTMAX
 10
5615.6928245857343427
 20
313.1115824204546243
 30
0.0000000349246037
  9
$LIMMIN
 10
0.0
 20
0.0
  9
$LIMMAX
 10
11.6929133858000007
 20
8.2677165353999982
  9
$ORTHOMODE
 70
     0
  9
$REGENMODE
 70
     1
  9
$FILLMODE
 70
     1
  9
$QTEXTMODE
 70
     0
  9
$MIRRTEXT
 70
     0
  9
$DRAGMODE
 70
     2
  9
$LTSCALE
 40
0.6431102362
  9
$OSMODE
 70
  4095
  9
$ATTMODE
 70
     1
  9
$TEXTSIZE
 40
0.2
  9
$TRACEWID
 40
0.05
  9
$TEXTSTYLE
  7
STANDARD
  9
$CLAYER
  8
0
  9
$CELTYPE
  6
BYLAYER
  9
$CECOLOR
 62
   256
  9
$DIMSCALE
 40
1.0
  9
$DIMASZ
 40
0.1875
  9
$DIMEXO
 40
0.0625
  9
$DIMDLI
 40
0.4443307087
  9
$DIMRND
 40
0.0
  9
$DIMDLE
 40
0.0
  9
$DIMEXE
 40
0.125
  9
$DIMTP
 40
0.01
  9
$DIMTM
 40
0.01
  9
$DIMTXT
 40
2.0
  9
$DIMCEN
 40
0.1052362205
  9
$DIMTSZ
 40
0.0
  9
$DIMTOL
 70
     1
  9
$DIMLIM
 70
     0
  9
$DIMTIH
 70
     1
  9
$DIMTOH
 70
     1
  9
$DIMSE1
 70
     0
  9
$DIMSE2
 70
     0
  9
$DIMTAD
 70
     0
  9
$DIMZIN
 70
     0
  9
$DIMBLK
  1

  9
$DIMASO
 70
     1
  9
$DIMSHO
 70
     1
  9
$DIMPOST
  1
\X
  9
$DIMAPOST
  1

  9
$DIMALT
 70
     1
  9
$DIMALTD
 70
     2
  9
$DIMALTF
 40
25.3999999999999986
  9
$DIMLFAC
 40
1.0
  9
$DIMTOFL
 70
     0
  9
$DIMTVP
 40
0.0
  9
$DIMTIX
 70
     0
  9
$DIMSOXD
 70
     0
  9
$DIMSAH
 70
     0
  9
$DIMBLK1
  1

  9
$DIMBLK2
  1

  9
$DIMSTYLE
  2
STANDARD
  9
$DIMCLRD
 70
     0
  9
$DIMCLRE
 70
     0
  9
$DIMCLRT
 70
     0
  9
$DIMTFAC
 40
1.0
  9
$DIMGAP
 40
0.09
  9
$LUNITS
 70
     2
  9
$LUPREC
 70
     4
  9
$SKETCHINC
 40
0.1
  9
$FILLETRAD
 40
0.0
  9
$AUNITS
 70
     0
  9
$AUPREC
 70
     0
  9
$MENU
  1
.
  9
$ELEVATION
 40
0.0
  9
$PELEVATION
 40
0.0
  9
$THICKNESS
 40
0.0
  9
$LIMCHECK
 70
     0
  9
$BLIPMODE
 70
     0
  9
$CHAMFERA
 40
0.0
  9
$CHAMFERB
 40
0.0
  9
$SKPOLY
 70
     0
  9
$TDCREATE
 40
2458060.468368056230247
  9
$TDUPDATE
 40
2460167.5860069440677762
  9
$TDINDWG
 40
0.5992663194
  9
$TDUSRTIMER
 40
0.5992663194
  9
$USRTIMER
 70
     1
  9
$ANGBASE
 50
0.0
  9
$ANGDIR
 70
     0
  9
$PDMODE
 70
     0
  9
$PDSIZE
 40
0.3125
  9
$PLINEWID
 40
0.0
  9
$COORDS
 70
     1
  9
$SPLFRAME
 70
     0
  9
$SPLINETYPE
 70
     6
  9
$SPLINESEGS
 70
     8
  9
$ATTDIA
 70
     1
  9
$ATTREQ
 70
     1
  9
$HANDLING
 70
     1
  9
$HANDSEED
  5
28194
  9
$SURFTAB1
 70
     6
  9
$SURFTAB2
 70
     6
  9
$SURFTYPE
 70
     6
  9
$SURFU
 70
     6
  9
$SURFV
 70
     6
  9
$UCSNAME
  2

  9
$UCSORG
 10
0.0
 20
0.0
 30
0.0
  9
$UCSXDIR
 10
1.0
 20
0.0
 30
0.0
  9
$UCSYDIR
 10
0.0
 20
1.0
 30
0.0
  9
$PUCSNAME
  2

  9
$PUCSORG
 10
0.0
 20
0.0
 30
0.0
  9
$PUCSXDIR
 10
1.0
 20
0.0
 30
0.0
  9
$PUCSYDIR
 10
0.0
 20
1.0
 30
0.0
  9
$USERI1
 70
     0
  9
$USERI2
 70
     0
  9
$USERI3
 70
     0
  9
$USERI4
 70
     0
  9
$USERI5
 70
     0
  9
$USERR1
 40
0.0
  9
$USERR2
 40
0.0
  9
$USERR3
 40
0.0
  9
$USERR4
 40
0.0
  9
$USERR5
 40
0.0
  9
$WORLDVIEW
 70
     1
  9
$SHADEDGE
 70
     3
  9
$SHADEDIF
 70
    70
  9
$TILEMODE
 70
     1
  9
$MAXACTVP
 70
    64
  9
$PLIMCHECK
 70
     0
  9
$PEXTMIN
 10
1.0000000000000000E+20
 20
1.0000000000000000E+20
 30
1.0000000000000000E+20
  9
$PEXTMAX
 10
-1.0000000000000000E+20
 20
-1.0000000000000000E+20
 30
-1.0000000000000000E+20
  9
$PLIMMIN
 10
0.0
 20
0.0
  9
$PLIMMAX
 10
12.0
 20
9.0
  9
$UNITMODE
 70
     0
  9
$VISRETAIN
 70
     1
  9
$PLINEGEN
 70
     0
  9
$PSLTSCALE
 70
     1
  0
ENDSEC
  0
SECTION
  2
TABLES
  0
TABLE
  2
VPORT
 70
     1
  0
VPORT
  2
*ACTIVE
 70
     0
 10
0.0
 20
0.0
 11
1.0
 21
1.0
 12
1697.0441565454329975
 22
175.4319345656118969
 13
0.0
 23
0.0
 14
1.0
 24
1.0
 15
0.0
 25
0.0
 16
0.0
 26
0.0
 36
60.4960186965801583
 17
3911.3653564453120453
 27
132.5796051025390057
 37
0.0
 40
10.2915660920925198
 41
2.8368263473053892
 42
50.0
 43
0.0
 44
0.0
 50
0.0
 51
0.0
 71
     0
 72
   100
 73
     1
 74
     1
 75
     0
 76
     0
 77
     0
 78
     0
  0
ENDTAB
  0
TABLE
  2
LTYPE
 70
     2
  0
LTYPE
  2
CONTINUOUS
 70
     0
  3
Solid line
 72
    65
 73
     0
 40
0.0
  0
LTYPE
  2
PHANTOM2
 70
     0
  3
___ _ _ ___ _ _ ___ _ _ ___ _ _
 72
    65
 73
     6
 40
1.25
 49
0.625
 49
-0.125
 49
0.125
 49
-0.125
 49
0.125
 49
-0.125
  0
ENDTAB
  0
TABLE
  2
LAYER
 70
     2
  0
LAYER
  2
0
 70
     0
 62
   255
  6
CONTINUOUS
  0
LAYER
  2
DEFPOINTS
 70
     0
 62
     7
  6
CONTINUOUS
  0
ENDTAB
  0
TABLE
  2
STYLE
 70
     1
  0
STYLE
  2
STANDARD
 70
     0
 40
0.0
 41
0.8
 50
0.0
 71
     0
 42
0.2
  3
txt
  4

  0
ENDTAB
  0
TABLE
  2
VIEW
 70
     0
  0
ENDTAB
  0
TABLE
  2
UCS
 70
     0
  0
ENDTAB
  0
TABLE
  2
APPID
 70
    11
  0
APPID
  2
ACAD
 70
     0
  0
APPID
  2
ACAD_MLEADERVER
 70
     0
  0
APPID
  2
ACAD_EXEMPT_FROM_CAD_STANDARDS
 70
     0
  0
APPID
  2
ACAD_NAV_VCDISPLAY
 70
     0
  0
APPID
  2
ACAECLAYERSTANDARD
 70
     0
  0
APPID
  2
ACCMTRANSPARENCY
 70
     0
  0
APPID
  2
ACAD_DSTYLE_DIMJAG
 70
     0
  0
APPID
  2
ACAD_DSTYLE_DIMTALN
 70
     0
  0
APPID
  2
ACDBATTR
 70
     0
  0
APPID
  2
ACADANNOTATIVE
 70
     0
  0
APPID
  2
DCO15
 70
     0
  0
ENDTAB
  0
TABLE
  2
DIMSTYLE
 70
     1
  0
DIMSTYLE
  2
STANDARD
 70
     0
  3

  4

  5

  6

  7

 40
1.0
 41
0.1875
 42
0.0625
 43
0.38
 44
0.125
 45
0.0
 46
0.0
 47
0.01
 48
0.01
140
0.15625
141
0.09
142
0.0
143
25.3999999999999986
144
1.0
145
0.0
146
1.0
147
0.09
 71
     1
 72
     0
 73
     1
 74
     1
 75
     0
 76
     0
 77
     0
 78
     4
170
     0
171
     2
172
     0
173
     0
174
     0
175
     0
176
     0
177
     0
178
     0
  0
ENDTAB
  0
ENDSEC
  0
SECTION
  2
BLOCKS
  0
BLOCK
  8
0
  2
$MODEL_SPACE
 70
     0
 10
0.0
 20
0.0
 30
0.0
  3
$MODEL_SPACE
  1

  0
ENDBLK
  5
21
  8
0
  0
BLOCK
 67
     1
  8
0
  2
$PAPER_SPACE
 70
     0
 10
0.0
 20
0.0
 30
0.0
  3
$PAPER_SPACE
  1

  0
ENDBLK
  5
1D
 67
     1
  8
0
  0
BLOCK
  8
0
  2
_FILLED
 70
     0
 10
0.0
 20
0.0
 30
0.0
  3
_FILLED
  1

  0
SOLID
  5
257AF
  8
0
  6
BYBLOCK
 62
     0
 10
0.0
 20
0.0
 30
0.0
 11
-1.0
 21
0.1666666667
 31
0.0
 12
-1.0
 22
-0.1666666667
 32
0.0
 13
-1.0
 23
-0.1666666667
 33
0.0
  0
ENDBLK
  5
257B0
  8
0
  6
BYBLOCK
 62
     0
  0
ENDSEC
  0
SECTION
  2
ENTITIES
  0
ATTDEF
  5
256E4
  8
DEFPOINTS
 10
5608.3411333598751298
 20
311.9175793723038055
 30
0.0
 40
0.001
  1
K-23488T-4
  3

  2
MODELNUMBER
 70
     0
1001
ACDBATTR
1070
     0
1070
     1
  0
ATTDEF
  5
256E5
  8
DEFPOINTS
 10
5608.3410075502179097
 20
311.9159125319246755
 30
0.0
 40
0.001
  1
PARALLEL
  3

  2
TRADENAME
 70
     0
1001
ACDBATTR
1070
     0
1070
     1
  0
ATTDEF
  5
256E6
  8
DEFPOINTS
 10
5608.3411333598751298
 20
311.9142460389704752
 30
0.0
 40
0.001
  1
BATH FAUCET WITH HANDSHOWER
  3

  2
PRODUCT
 70
     0
1001
ACDBATTR
1070
     0
1070
     1
  0
LINE
  5
27DE8
  8
0
 10
5613.0200617594118739
 20
311.0313557412055729
 30
0.0
 11
5613.0200617594118739
 21
312.7951352688057227
 31
0.0
  0
LINE
  5
27DE9
  8
0
 10
5615.0830538853106191
 20
310.7321431428056826
 30
0.0
 11
5614.7523452239120161
 21
310.7321431428056826
 31
0.0
  0
LINE
  5
27DEA
  8
0
 10
5613.6499830192105946
 20
310.7321431428056826
 30
0.0
 11
5613.3192743578119916
 21
310.7321431428056826
 31
0.0
  0
LINE
  5
27DEB
  8
0
 10
5615.3822664838116907
 20
312.7951352688057227
 30
0.0
 11
5615.3822664838116907
 21
311.0313557412055729
 31
0.0
  0
LINE
  5
27DEC
  8
0
 10
5613.3192743578119916
 20
313.0943478672057267
 30
0.0
 11
5615.0830538853106191
 21
313.0943478672057267
 31
0.0
  0
ARC
  5
27DED
  8
0
 10
5613.3192743578119916
 20
311.0313557412055729
 30
0.0
 40
0.2992125984
 50
180.0
 51
270.0000000006252776
  0
ARC
  5
27DEE
  8
0
 10
5615.0830538853106191
 20
311.0313557412055729
 30
0.0
 40
0.2992125984
 50
270.0
 51
0.0
  0
ARC
  5
27DEF
  8
0
 10
5614.2011641216113276
 20
311.9132455050057047
 30
0.0
 40
0.5039370079
 50
333.9534376304179091
 51
206.0465623436926137
  0
ARC
  5
27DF0
  8
0
 10
5614.2011641216113276
 20
311.9132455050057047
 30
0.0
 40
0.4527559055
 50
345.9115437748056934
 51
194.1054913558035935
  0
ARC
  5
27DF1
  8
0
 10
5613.3192743578119916
 20
312.7951352688057227
 30
0.0
 40
0.2992125984
 50
90.0
 51
180.000000000400604
  0
ARC
  5
27DF2
  8
0
 10
5615.0830538853106191
 20
312.7951352688057227
 30
0.0
 40
0.2992125984
 50
0.0
 51
90.0000000006253345
  0
ARC
  5
27DF3
  8
0
 10
5602.4947142647697547
 20
311.9133582973170178
 30
0.0
 40
1.0823437388312671
 50
89.992156147773116
 51
160.5983699637392874
  0
ARC
  5
27DF4
  8
0
 10
5601.5661599649347409
 20
312.2373541017400953
 30
0.0
 40
0.0989328257237162
 50
158.943285859593999
 51
178.0840546929127015
  0
LINE
  5
27DF5
  8
0
 10
5601.4672824475856032
 20
312.2406617547791825
 30
0.0
 11
5601.4672824475856032
 21
311.5851614571603818
 31
0.0
  0
ARC
  5
27DF6
  8
0
 10
5601.5516232681766269
 20
311.5848947517637271
 30
0.0
 40
0.0843412422820484
 50
179.8188179512289082
 51
206.9195447373984962
  0
LINE
  5
27DF7
  8
0
 10
5601.4764209778077202
 20
311.5467101911009991
 30
0.0
 11
5601.4764209778077202
 21
308.4952531891207741
 31
0.0
  0
ARC
  5
27DF8
  8
0
 10
5601.77287298642932
 20
308.5002338577704109
 30
0.0
 40
0.2964938455939989
 50
180.9625316689788121
 51
270.1504835470220769
  0
LINE
  5
27DF9
  8
0
 10
5601.773651706860619
 20
308.2037410348057165
 30
0.0
 11
5603.2176306115279658
 21
308.2037410348057165
 31
0.0
  0
ARC
  5
27DFA
  8
0
 10
5608.3508288865614304
 20
311.9132455050057047
 30
0.0
 40
1.0826771654000209
 50
90.0
 51
160.2500772041476864
  0
ARC
  5
27DFB
  8
0
 10
5607.5002225316166005
 20
312.2360800663936971
 30
0.0
 40
0.1737922880744777
 50
165.6686102377279042
 51
174.5814669084556101
  0
LINE
  5
27DFC
  8
0
 10
5607.3272068392607252
 20
312.2524913306057215
 30
0.0
 11
5607.3272068392607252
 21
303.2203321142529262
 31
0.0
  0
ARC
  5
27DFD
  8
0
 10
5607.6565884572009963
 20
303.2505011392440224
 30
0.0
 40
0.3307603668896854
 50
185.23328601467
 51
264.7667149337373758
  0
LINE
  5
27DFE
  8
0
 10
5607.6264194376617525
 20
302.9211195208055756
 30
0.0
 11
5609.0752383354620179
 21
302.9211195208055756
 31
0.0
  0
LINE
  5
27DFF
  8
0
 10
5609.3449233747496692
 20
311.913504304927983
 30
0.0
 11
5607.3567343983932005
 21
311.9135043200832911
 31
0.0
  0
ARC
  5
27E00
  8
0
 10
5607.3570525658760744
 20
311.9433746154659275
 30
0.0
 40
0.0298719898364082
 50
182.4027654829455969
 51
269.3897293521484926
  0
LINE
  5
27E01
  8
0
 10
5609.3450022373153843
 20
311.862064402605597
 30
0.0
 11
5607.3567365636617978
 21
311.862064402605597
 31
0.0
  0
ARC
  5
27E02
  8
0
 10
5607.3566960497355467
 20
311.8323340707390798
 30
0.0
 40
0.0297303594709497
 50
89.9219223129363172
 51
172.6974544940530905
  0
ARC
  5
27E03
  8
0
 10
5614.1844433982278133
 20
311.6054736979854738
 30
0.0
 40
0.4955915933818759
 50
88.0665355518995625
 51
128.4829066173022909
  0
ARC
  5
27E04
  8
0
 10
5614.042148746316343
 20
311.7837058875064145
 30
0.0
 40
0.2675256816083563
 50
128.3807801743107859
 51
166.5601859411403041
  0
ARC
  5
27E05
  8
0
 10
5614.1878643741938504
 20
311.4966649297468848
 30
0.0
 40
0.5486017489942925
 50
88.61084282626841
 51
123.6347722553342976
  0
ARC
  5
27E06
  8
0
 10
5614.0683794141923499
 20
311.6762676807098273
 30
0.0
 40
0.3328847959744083
 50
123.6347722553342976
 51
149.3669202457352014
  0
ARC
  5
27E07
  8
0
 10
5613.9867456624679107
 20
311.7246093841976062
 30
0.0
 40
0.2380112500479929
 50
149.3669202457352014
 51
163.4157361846700098
  0
ARC
  5
27E08
  8
0
 10
5614.2010492409317521
 20
311.3205984582430119
 30
0.0
 40
0.677653856100303
 50
89.9902868179085971
 51
96.9811164321785242
  0
ARC
  5
27E09
  8
0
 10
5614.3821160691923069
 20
310.9367312204055906
 30
0.0
 40
1.0888442427771661
 50
104.0008196777803988
 51
120.4144889319425005
  0
ARC
  5
27E0A
  8
0
 10
5614.0464378746628427
 20
311.6155588622523851
 30
0.0
 40
0.3378666928979856
 50
129.6411452633932129
 51
151.8958136899919111
  0
LINE
  5
27E0B
  8
0
 10
5613.7484082160117396
 20
311.7747198648057179
 30
0.0
 11
5613.7484082160117396
 21
311.6410044742953005
 31
0.0
  0
LINE
  5
27E0C
  8
0
 10
5613.8308866460120043
 20
311.8757348988057174
 30
0.0
 11
5613.8308866460120043
 21
311.7065452177749876
 31
0.0
  0
LINE
  5
27E0D
  8
0
 10
5614.1186856916119723
 20
311.9932283672055746
 30
0.0
 11
5614.1186856916119723
 21
311.8224655706056865
 31
0.0
  0
ARC
  5
27E0E
  8
0
 10
5614.2010783208952489
 20
311.1493582667857822
 30
0.0
 40
0.6781312467477713
 50
89.9927506420825267
 51
96.9786527464441264
  0
ARC
  5
27E0F
  8
0
 10
5613.4127386678837865
 20
313.0583795540744063
 30
0.0
 40
1.4233216694915041
 50
297.7014932343545865
 51
299.7347616144431868
  0
ARC
  5
27E10
  8
0
 10
5614.2011641218623481
 20
310.9749272714864787
 30
0.0
 40
0.777870249947672
 50
90.0000000220947243
 51
95.2270523604379662
  0
LINE
  5
27E11
  8
0
 10
5614.130297979889292
 20
311.7495627442576733
 30
0.0
 11
5614.130297979811985
 21
311.8052404436057259
 31
0.0
  0
ARC
  5
27E12
  8
0
 10
5614.1899014235468712
 20
311.1067576974054987
 30
0.0
 40
0.7010211960021924
 50
94.8773899994633467
 51
115.6245092948039996
  0
ARC
  5
27E13
  8
0
 10
5614.1473353035444234
 20
311.2236497392661931
 30
0.0
 40
0.5773454737139819
 50
116.8326312129045021
 51
133.7067614500039099
  0
ARC
  5
27E14
  8
0
 10
5613.9687056741850029
 20
311.4105308109187717
 30
0.0
 40
0.3188245278957631
 50
133.7067614500039099
 51
178.5261290275213923
  0
LINE
  5
27E15
  8
0
 10
5613.6499866266121899
 20
311.4187313171055962
 30
0.0
 11
5613.6499866266121899
 21
304.737407408305728
 31
0.0
  0
ARC
  5
27E16
  8
0
 10
5614.2011641216113276
 20
311.0533652298061043
 30
0.0
 40
0.7328407393995918
 50
90.0000000039082835
 51
95.5492079281089559
  0
ARC
  5
27E17
  8
0
 10
5614.2048193675545917
 20
304.420331210421125
 30
0.0
 40
0.7100127791834629
 50
90.2949680620961885
 51
126.2744318527355034
  0
ARC
  5
27E18
  8
0
 10
5613.9851687684731587
 20
304.7237374016547165
 30
0.0
 40
0.3354607835565385
 50
126.689590113790203
 51
177.6645537869208908
  0
ARC
  5
27E19
  8
0
 10
5613.9640284088591216
 20
304.7442559252671117
 30
0.0
 40
0.3141164484417644
 50
181.2492889610497002
 51
223.9941751040389875
  0
ARC
  5
27E1A
  8
0
 10
5614.1433501182573309
 20
304.9227100420711167
 30
0.0
 40
0.56708686632945
 50
224.3808944999827872
 51
257.9351820863054741
  0
ARC
  5
27E1B
  8
0
 10
5614.2213189879466881
 20
305.2293167300391019
 30
0.0
 40
0.8833017700398368
 50
257.1463723012766991
 51
268.6925317609342869
  0
ARC
  5
27E1C
  8
0
 10
5614.2178848448957069
 20
311.6054736979854738
 30
0.0
 40
0.4955915933818759
 50
51.5170933826976807
 51
91.9334644481004375
  0
ARC
  5
27E1D
  8
0
 10
5614.3601794968080867
 20
311.7837058875064145
 30
0.0
 40
0.2675256816083563
 50
13.4398140588596799
 51
51.6192198256891999
  0
ARC
  5
27E1E
  8
0
 10
5614.2144638689287603
 20
311.4966649297468848
 30
0.0
 40
0.5486017489942925
 50
56.3652277446656598
 51
91.3891571737315758
  0
ARC
  5
27E1F
  8
0
 10
5614.3339488289320798
 20
311.6762676807098273
 30
0.0
 40
0.3328847959744083
 50
30.6330797542647986
 51
56.3652277446656598
  0
ARC
  5
27E20
  8
0
 10
5614.4155825806547
 20
311.7246093841976062
 30
0.0
 40
0.2380112500479929
 50
16.5842638153299511
 51
30.6330797542647986
  0
ARC
  5
27E21
  8
0
 10
5614.2012790021908586
 20
311.3205984582430119
 30
0.0
 40
0.677653856100303
 50
83.0188835678214758
 51
90.0097131820913745
  0
ARC
  5
27E22
  8
0
 10
5614.0202121739312133
 20
310.9367312204055906
 30
0.0
 40
1.0888442427771661
 50
59.585511068057528
 51
75.9991803222195585
  0
ARC
  5
27E23
  8
0
 10
5614.3558903684597681
 20
311.6155588622523851
 30
0.0
 40
0.3378666928979856
 50
28.1041863100080285
 51
50.3588547366068298
  0
LINE
  5
27E24
  8
0
 10
5614.6539200271117807
 20
311.7747198648057179
 30
0.0
 11
5614.6539200271117807
 21
311.6410044742953005
 31
0.0
  0
LINE
  5
27E25
  8
0
 10
5614.5714415971106064
 20
311.8757348988057174
 30
0.0
 11
5614.5714415971106064
 21
311.7065452177749876
 31
0.0
  0
LINE
  5
27E26
  8
0
 10
5614.2836425515106384
 20
311.9932283672055746
 30
0.0
 11
5614.2836425515106384
 21
311.8224655706056865
 31
0.0
  0
ARC
  5
27E27
  8
0
 10
5614.2012499222291808
 20
311.1493582667857822
 30
0.0
 40
0.6781312467477713
 50
83.0213472535558878
 51
90.0072493579174875
  0
ARC
  5
27E28
  8
0
 10
5614.9895895752397337
 20
313.0583795540744063
 30
0.0
 40
1.4233216694915041
 50
240.2652383855568132
 51
242.2985067656452998
  0
ARC
  5
27E29
  8
0
 10
5614.2011641212611721
 20
310.9749272714864787
 30
0.0
 40
0.777870249947672
 50
84.7729476395620338
 51
89.9999999779052757
  0
LINE
  5
27E2A
  8
0
 10
5614.2720302632360472
 20
311.7495627442576733
 30
0.0
 11
5614.2720302633106257
 21
311.8052404436057259
 31
0.0
  0
ARC
  5
27E2B
  8
0
 10
5614.212426819576649
 20
311.1067576974054987
 30
0.0
 40
0.7010211960021924
 50
64.3754907051959435
 51
85.1226100005366533
  0
ARC
  5
27E2C
  8
0
 10
5614.2549929395800064
 20
311.2236497392661931
 30
0.0
 40
0.5773454737139819
 50
46.2932385499960972
 51
63.1673687870954979
  0
ARC
  5
27E2D
  8
0
 10
5614.4336225689376079
 20
311.4105308109187717
 30
0.0
 40
0.3188245278957631
 50
1.473870972478573
 51
46.2932385499960972
  0
LINE
  5
27E2E
  8
0
 10
5614.7523416165122399
 20
311.4187313171055962
 30
0.0
 11
5614.7523416165122399
 21
304.737407408305728
 31
0.0
  0
ARC
  5
27E2F
  8
0
 10
5614.2011641215121927
 20
311.0533652298061043
 30
0.0
 40
0.7328407393995918
 50
84.4507920718910583
 51
89.9999999960917307
  0
ARC
  5
27E30
  8
0
 10
5614.197508875569838
 20
304.4203312104211818
 30
0.0
 40
0.71001277918346
 50
53.7255681472644326
 51
89.7050319378517145
  0
ARC
  5
27E31
  8
0
 10
5614.4171594746503615
 20
304.7237374016547165
 30
0.0
 40
0.3354607835565365
 50
2.3354462130790781
 51
53.3104098862098184
  0
ARC
  5
27E32
  8
0
 10
5614.4382998342643987
 20
304.7442559252671117
 30
0.0
 40
0.3141164484417702
 50
316.0058248959609841
 51
358.7507110389503282
  0
ARC
  5
27E33
  8
0
 10
5614.2589781248670988
 20
304.9227100420711167
 30
0.0
 40
0.56708686632945
 50
282.0648179136945259
 51
315.6191055000172128
  0
ARC
  5
27E34
  8
0
 10
5614.1810092551768321
 20
305.2293167300391019
 30
0.0
 40
0.8833017700398473
 50
271.3074682390657131
 51
282.8536276987234146
  0
ARC
  5
27E35
  8
0
 10
5608.3508288865614304
 20
311.9132455050057047
 30
0.0
 40
1.0826771654000209
 50
19.7499227958522994
 51
90.0
  0
ARC
  5
27E36
  8
0
 10
5609.2014352415062604
 20
312.2360800663936971
 30
0.0
 40
0.1737922880744777
 50
5.4185330915444423
 51
14.3313897622689108
  0
LINE
  5
27E37
  8
0
 10
5609.3744509338621356
 20
312.2524913306057215
 30
0.0
 11
5609.3744509338621356
 21
303.2203321142529262
 31
0.0
  0
ARC
  5
27E38
  8
0
 10
5609.0450693159218645
 20
303.2505011392440224
 30
0.0
 40
0.3307603668896854
 50
275.2332850662626242
 51
354.7667139853298863
  0
ARC
  5
27E39
  8
0
 10
5609.3443811904280665
 20
311.9436057366561954
 30
0.0
 40
0.030106314220251
 50
271.0318949217385125
 51
357.1756406088404106
  0
ARC
  5
27E3A
  8
0
 10
5609.3449617233891331
 20
311.8323340707390798
 30
0.0
 40
0.0297303594709497
 50
7.3025455059469149
 51
90.078077687063697
  0
ARC
  5
27E3B
  8
0
 10
5602.4950106127516847
 20
311.9133582973170178
 30
0.0
 40
1.0823437388312671
 50
19.4016300362606415
 51
90.0078438522268982
  0
ARC
  5
27E3C
  8
0
 10
5603.423564912587608
 20
312.2373541017400953
 30
0.0
 40
0.0989328257237162
 50
1.9159453070872621
 51
21.0567141404059406
  0
LINE
  5
27E3D
  8
0
 10
5603.5224424299367456
 20
312.2406617547791825
 30
0.0
 11
5603.5224424299367456
 21
311.5851614571603818
 31
0.0
  0
ARC
  5
27E3E
  8
0
 10
5603.4381016093466314
 20
311.5848947517637271
 30
0.0
 40
0.0843412422820484
 50
333.0804552626015038
 51
0.1811820487711165
  0
LINE
  5
27E3F
  8
0
 10
5603.5133038997164476
 20
311.5467101911009991
 30
0.0
 11
5603.5133038997164476
 21
308.4952531891207741
 31
0.0
  0
ARC
  5
27E40
  8
0
 10
5603.2168518910948478
 20
308.5002338577704109
 30
0.0
 40
0.2964938455939989
 50
269.8495164529779231
 51
359.0374683310211026
  0
ENDSEC
  0
EOF
