  0
SECTION
  2
HEADER
  9
$ACADVER
  1
AC1009
  9
$INSBASE
 10
5598.4378184501620126
 20
417.3642389547625271
 30
0.0
  9
$EXTMIN
 10
5591.1117700405920914
 20
407.5777218387448215
 30
-0.0000000000112498
  9
$EXTMAX
 10
5605.6523491025218391
 20
417.3853667501390987
 30
0.0000000000002956
  9
$LIMMIN
 10
0.0
 20
0.0
  9
$LIMMAX
 10
11.6929133858000007
 20
8.2677165353999982
  9
$ORTHOMODE
 70
     0
  9
$REGENMODE
 70
     1
  9
$FILLMODE
 70
     1
  9
$QTEXTMODE
 70
     0
  9
$MIRRTEXT
 70
     0
  9
$DRAGMODE
 70
     2
  9
$LTSCALE
 40
0.6431102362
  9
$OSMODE
 70
  3839
  9
$ATTMODE
 70
     1
  9
$TEXTSIZE
 40
0.2
  9
$TRACEWID
 40
0.05
  9
$TEXTSTYLE
  7
STANDARD
  9
$CLAYER
  8
0
  9
$CELTYPE
  6
BYLAYER
  9
$CECOLOR
 62
   256
  9
$DIMSCALE
 40
1.0
  9
$DIMASZ
 40
0.1875
  9
$DIMEXO
 40
0.0625
  9
$DIMDLI
 40
0.4443307087
  9
$DIMRND
 40
0.0
  9
$DIMDLE
 40
0.0
  9
$DIMEXE
 40
0.125
  9
$DIMTP
 40
0.01
  9
$DIMTM
 40
0.01
  9
$DIMTXT
 40
2.0
  9
$DIMCEN
 40
0.1052362205
  9
$DIMTSZ
 40
0.0
  9
$DIMTOL
 70
     1
  9
$DIMLIM
 70
     0
  9
$DIMTIH
 70
     1
  9
$DIMTOH
 70
     1
  9
$DIMSE1
 70
     0
  9
$DIMSE2
 70
     0
  9
$DIMTAD
 70
     0
  9
$DIMZIN
 70
     0
  9
$DIMBLK
  1

  9
$DIMASO
 70
     1
  9
$DIMSHO
 70
     1
  9
$DIMPOST
  1
\X
  9
$DIMAPOST
  1

  9
$DIMALT
 70
     1
  9
$DIMALTD
 70
     2
  9
$DIMALTF
 40
25.3999999999999986
  9
$DIMLFAC
 40
1.0
  9
$DIMTOFL
 70
     0
  9
$DIMTVP
 40
0.0
  9
$DIMTIX
 70
     0
  9
$DIMSOXD
 70
     0
  9
$DIMSAH
 70
     0
  9
$DIMBLK1
  1

  9
$DIMBLK2
  1

  9
$DIMSTYLE
  2
STANDARD
  9
$DIMCLRD
 70
     0
  9
$DIMCLRE
 70
     0
  9
$DIMCLRT
 70
     0
  9
$DIMTFAC
 40
1.0
  9
$DIMGAP
 40
0.09
  9
$LUNITS
 70
     2
  9
$LUPREC
 70
     4
  9
$SKETCHINC
 40
0.1
  9
$FILLETRAD
 40
0.0
  9
$AUNITS
 70
     0
  9
$AUPREC
 70
     0
  9
$MENU
  1
.
  9
$ELEVATION
 40
0.0
  9
$PELEVATION
 40
0.0
  9
$THICKNESS
 40
0.0
  9
$LIMCHECK
 70
     0
  9
$BLIPMODE
 70
     0
  9
$CHAMFERA
 40
0.0
  9
$CHAMFERB
 40
0.0
  9
$SKPOLY
 70
     0
  9
$TDCREATE
 40
2458060.468368056230247
  9
$TDUPDATE
 40
2460452.7264583338983357
  9
$TDINDWG
 40
0.6489769676
  9
$TDUSRTIMER
 40
0.6489769676
  9
$USRTIMER
 70
     1
  9
$ANGBASE
 50
0.0
  9
$ANGDIR
 70
     0
  9
$PDMODE
 70
     0
  9
$PDSIZE
 40
0.3125
  9
$PLINEWID
 40
0.0
  9
$COORDS
 70
     1
  9
$SPLFRAME
 70
     0
  9
$SPLINETYPE
 70
     6
  9
$SPLINESEGS
 70
     8
  9
$ATTDIA
 70
     1
  9
$ATTREQ
 70
     1
  9
$HANDLING
 70
     1
  9
$HANDSEED
  5
2BEAC
  9
$SURFTAB1
 70
     6
  9
$SURFTAB2
 70
     6
  9
$SURFTYPE
 70
     6
  9
$SURFU
 70
     6
  9
$SURFV
 70
     6
  9
$UCSNAME
  2

  9
$UCSORG
 10
0.0
 20
0.0
 30
0.0
  9
$UCSXDIR
 10
1.0
 20
0.0
 30
0.0
  9
$UCSYDIR
 10
0.0
 20
1.0
 30
0.0
  9
$PUCSNAME
  2

  9
$PUCSORG
 10
0.0
 20
0.0
 30
0.0
  9
$PUCSXDIR
 10
1.0
 20
0.0
 30
0.0
  9
$PUCSYDIR
 10
0.0
 20
1.0
 30
0.0
  9
$USERI1
 70
     0
  9
$USERI2
 70
     0
  9
$USERI3
 70
     0
  9
$USERI4
 70
     0
  9
$USERI5
 70
     0
  9
$USERR1
 40
0.0
  9
$USERR2
 40
0.0
  9
$USERR3
 40
0.0
  9
$USERR4
 40
0.0
  9
$USERR5
 40
0.0
  9
$WORLDVIEW
 70
     1
  9
$SHADEDGE
 70
     3
  9
$SHADEDIF
 70
    70
  9
$TILEMODE
 70
     1
  9
$MAXACTVP
 70
    64
  9
$PLIMCHECK
 70
     0
  9
$PEXTMIN
 10
1.0000000000000000E+20
 20
1.0000000000000000E+20
 30
1.0000000000000000E+20
  9
$PEXTMAX
 10
-1.0000000000000000E+20
 20
-1.0000000000000000E+20
 30
-1.0000000000000000E+20
  9
$PLIMMIN
 10
0.0
 20
0.0
  9
$PLIMMAX
 10
12.0
 20
9.0
  9
$UNITMODE
 70
     0
  9
$VISRETAIN
 70
     1
  9
$PLINEGEN
 70
     0
  9
$PSLTSCALE
 70
     1
  0
ENDSEC
  0
SECTION
  2
TABLES
  0
TABLE
  2
VPORT
 70
     1
  0
VPORT
  2
*ACTIVE
 70
     0
 10
0.0
 20
0.0
 11
1.0
 21
1.0
 12
1687.0167031262440105
 22
279.9019391919028976
 13
0.0
 23
0.0
 14
1.0
 24
1.0
 15
0.0
 25
0.0
 16
0.0
 26
0.0
 36
60.4960186965801583
 17
3911.3653564453120453
 27
132.5796051025390057
 37
0.0
 40
9.8729566422139214
 41
2.1211111111111101
 42
50.0
 43
0.0
 44
0.0
 50
0.0
 51
0.0
 71
     0
 72
   100
 73
     1
 74
     1
 75
     0
 76
     0
 77
     0
 78
     1
  0
ENDTAB
  0
TABLE
  2
LTYPE
 70
     3
  0
LTYPE
  2
CONTINUOUS
 70
     0
  3
Solid line
 72
    65
 73
     0
 40
0.0
  0
LTYPE
  2
PHANTOM2
 70
     0
  3
___ _ _ ___ _ _ ___ _ _ ___ _ _
 72
    65
 73
     6
 40
1.25
 49
0.625
 49
-0.125
 49
0.125
 49
-0.125
 49
0.125
 49
-0.125
  0
ENDTAB
  0
TABLE
  2
LAYER
 70
     2
  0
LAYER
  2
0
 70
     0
 62
   255
  6
CONTINUOUS
  0
LAYER
  2
DEFPOINTS
 70
     0
 62
     7
  6
CONTINUOUS
  0
ENDTAB
  0
TABLE
  2
STYLE
 70
     1
  0
STYLE
  2
STANDARD
 70
     0
 40
0.0
 41
0.8
 50
0.0
 71
     0
 42
0.2
  3
txt
  4

  0
ENDTAB
  0
TABLE
  2
VIEW
 70
     0
  0
ENDTAB
  0
TABLE
  2
UCS
 70
     0
  0
ENDTAB
  0
TABLE
  2
APPID
 70
    11
  0
APPID
  2
ACAD
 70
     0
  0
APPID
  2
ACAD_MLEADERVER
 70
     0
  0
APPID
  2
ACAD_EXEMPT_FROM_CAD_STANDARDS
 70
     0
  0
APPID
  2
ACAD_NAV_VCDISPLAY
 70
     0
  0
APPID
  2
ACAECLAYERSTANDARD
 70
     0
  0
APPID
  2
ACCMTRANSPARENCY
 70
     0
  0
APPID
  2
ACAD_DSTYLE_DIMJAG
 70
     0
  0
APPID
  2
ACAD_DSTYLE_DIMTALN
 70
     0
  0
APPID
  2
ACDBATTR
 70
     0
  0
APPID
  2
ACADANNOTATIVE
 70
     0
  0
APPID
  2
DCO15
 70
     0
  0
ENDTAB
  0
TABLE
  2
DIMSTYLE
 70
     2
  0
DIMSTYLE
  2
STANDARD
 70
     0
  3

  4

  5

  6

  7

 40
1.0
 41
0.1875
 42
0.0625
 43
0.38
 44
0.125
 45
0.0
 46
0.0
 47
0.01
 48
0.01
140
0.15625
141
0.09
142
0.0
143
25.3999999999999986
144
1.0
145
0.0
146
1.0
147
0.09
 71
     1
 72
     0
 73
     1
 74
     1
 75
     0
 76
     0
 77
     0
 78
     4
170
     0
171
     2
172
     0
173
     0
174
     0
175
     0
176
     0
177
     0
178
     0
  0
ENDTAB
  0
ENDSEC
  0
SECTION
  2
BLOCKS
  0
BLOCK
  8
0
  2
$MODEL_SPACE
 70
     0
 10
0.0
 20
0.0
 30
0.0
  3
$MODEL_SPACE
  1

  0
ENDBLK
  5
21
  8
0
  0
BLOCK
 67
     1
  8
0
  2
$PAPER_SPACE
 70
     0
 10
0.0
 20
0.0
 30
0.0
  3
$PAPER_SPACE
  1

  0
ENDBLK
  5
1D
 67
     1
  8
0
  0
ENDSEC
  0
SECTION
  2
ENTITIES
  0
LINE
  5
2BA78
  8
0
 10
5597.2764011273120559
 20
417.3642389547625271
 30
0.0
 11
5599.5992357730128788
 21
417.3642389547625271
 31
0.0
  0
LINE
  5
2BA79
  8
0
 10
5597.2960861667115751
 20
417.0886484035625017
 30
0.0
 11
5599.5795507336124501
 21
417.0886484035625017
 31
0.0
  0
LINE
  5
2BA7A
  8
0
 10
5597.2567160879616495
 20
417.3445539153623827
 30
0.0
 11
5597.2567160879616495
 21
417.1280184822625188
 31
0.0
  0
ARC
  5
2BA7B
  8
0
 10
5597.2960861664905678
 20
417.128018482091818
 30
0.0
 40
0.0393700785292595
 50
179.999999751535313
 51
270.0000002480966828
  0
ARC
  5
2BA7C
  8
0
 10
5597.2764011271920026
 20
417.3445539155331971
 30
0.0
 40
0.0196850392292873
 50
89.999999795884321
 51
180.0000004968773055
  0
ARC
  5
2BA7D
  8
0
 10
5597.4338815373193938
 20
417.0689632814617767
 30
0.0
 40
0.0196851221008311
 50
90.0002766711759676
 51
179.9999362558201028
  0
LINE
  5
2BA7E
  8
0
 10
5597.4141964152177025
 20
417.0689633033624091
 30
0.0
 11
5597.4141964152177025
 21
407.8996719650625096
 31
0.0
  0
ARC
  5
2BA7F
  8
0
 10
5597.7134091310381336
 20
407.8996720824840736
 30
0.0
 40
0.2992127158216622
 50
180.0000224848838002
 51
269.9999736927867957
  0
LINE
  5
2BA80
  8
0
 10
5597.7134089937535464
 20
407.6004593666625055
 30
0.0
 11
5599.1622279065713883
 21
407.600458931745095
 31
0.0
  0
ARC
  5
2BA81
  8
0
 10
5599.1622767895978541
 20
407.8996226254719772
 30
0.0
 40
0.2991636977205583
 50
269.9906379125678768
 51
359.9928792414668806
  0
LINE
  5
2BBA4
  8
0
 10
5595.6819129382620304
 20
417.3642389547625271
 30
0.0
 11
5593.3197082138622136
 21
417.3642389547625271
 31
0.0
  0
LINE
  5
2BBA5
  8
0
 10
5595.642542859562127
 20
417.0886484035625017
 30
0.0
 11
5593.359078292562117
 21
417.0886484035625017
 31
0.0
  0
LINE
  5
2BBA6
  8
0
 10
5593.3197082138622136
 20
417.3642389547625271
 30
0.0
 11
5593.3197082138622136
 21
417.1280184822625188
 31
0.0
  0
ARC
  5
2BBA7
  8
0
 10
5593.359078292562117
 20
417.1280184822625188
 30
0.0
 40
0.0393700786999993
 50
180.0
 51
270.0000000003126956
  0
LINE
  5
2BBA8
  8
0
 10
5595.6819129382620304
 20
417.3642389547625271
 30
0.0
 11
5595.6819129381619859
 21
417.1280184822625188
 31
0.0
  0
ARC
  5
2BBA9
  8
0
 10
5595.6425428594457117
 20
417.1280184822791739
 30
0.0
 40
0.0393700787166624
 50
270.0000000242313263
 51
359.9999999757458795
  0
ARC
  5
2BBAA
  8
0
 10
5593.9889995523626567
 20
417.0099082460624231
 30
0.0
 40
0.0787401574999969
 50
30.0185263854479203
 51
90.0
  0
ARC
  5
2BBAB
  8
0
 10
5595.0126215996624524
 20
417.0099082460624231
 30
0.0
 40
0.0787401574999969
 50
90.0
 51
149.981473614552101
  0
ARC
  5
2BBAC
  8
0
 10
5593.8592316125223078
 20
417.0296157041105971
 30
0.0
 40
0.0196846679599548
 50
89.9983486526806047
 51
180.000438779909814
  0
LINE
  5
2BBAD
  8
0
 10
5593.8395469445622439
 20
417.0296155533624187
 30
0.0
 11
5593.8581490633623616
 21
414.6247062705625126
 31
0.0
  0
ARC
  5
2BBAE
  8
0
 10
5593.7794290413612543
 20
414.6240858292189273
 30
0.0
 40
0.0787224670054586
 50
269.9872504680203065
 51
0.4515742431227525
  0
LINE
  5
2BBAF
  8
0
 10
5593.779411523930321
 20
414.5453633641624833
 30
0.0
 11
5591.568397799162085
 21
414.5453633641624833
 31
0.0
  0
ARC
  5
2BBB0
  8
0
 10
5591.568397799162085
 20
414.5158360536815962
 30
0.0
 40
0.0295273104808338
 50
90.0
 51
185.5005310711331958
  0
LINE
  5
2BBB1
  8
0
 10
5591.5390064527937284
 20
414.5130057139620021
 30
0.0
 11
5591.5552086448942646
 21
414.3447395156508719
 31
0.0
  0
ARC
  5
2BBB2
  8
0
 10
5591.5943974715628428
 20
414.3485129704628207
 30
0.0
 40
0.0393700787007827
 50
185.5000000072822957
 51
269.9997402255589236
  0
LINE
  5
2BBB3
  8
0
 10
5591.5943972930626842
 20
414.3091428917625194
 30
0.0
 11
5595.1019889607869118
 21
414.309142863462796
 31
0.0
  0
ARC
  5
2BBB4
  8
0
 10
5595.1019882978362148
 20
414.3485141740666222
 30
0.0
 40
0.0393713106094185
 50
270.0009647718804899
 51
359.55552256881532
  0
LINE
  5
2BBB5
  8
0
 10
5595.1413584237634495
 20
414.3482087504625042
 30
0.0
 11
5595.1620746296748621
 21
417.0294630759034931
 31
0.0
  0
ARC
  5
2BBB6
  8
0
 10
5595.1423897380827839
 20
417.0296157085938944
 30
0.0
 40
0.0196846634763855
 50
359.5557527421846089
 51
90.0016166551047974
  0
LINE
  5
2BBDC
  8
0
 10
5593.779411523930321
 20
414.5453633641624833
 30
0.0
 11
5594.02173975936239
 21
414.5453633730625143
 31
0.0
  0
ARC
  5
2BBDD
  8
0
 10
5594.0217397491596785
 20
414.8231661518893816
 30
0.0
 40
0.2778027788269493
 50
270.0000021043143761
 51
305.2649939106328816
  0
LINE
  5
2BBDE
  8
0
 10
5594.1821316503319395
 20
414.596342824247813
 30
0.0
 11
5594.2230670680182811
 21
414.6252891832323826
 31
0.0
  0
LINE
  5
2BBDF
  8
0
 10
5594.2230670680182811
 20
414.6252891832323826
 30
0.0
 11
5594.2230670680182811
 21
417.0493003720624756
 31
0.0
  0
LINE
  5
2BBE0
  8
0
 10
5593.8592321799624187
 20
417.0493003720624756
 30
0.0
 11
5595.142389182662555
 21
417.0493003720624756
 31
0.0
  0
LINE
  5
2BBE1
  8
0
 10
5594.7797403969616425
 20
417.0493003720624756
 30
0.0
 11
5594.7789926777622895
 21
414.3091428917625194
 31
0.0
  0
LINE
  5
2BBE6
  8
0
 10
5599.4614404850080973
 20
417.068965265456427
 30
0.0
 11
5599.4614404850080973
 21
407.8995854452037975
 31
0.0
  0
LINE
  5
2BBE7
  8
0
 10
5599.6189208123623757
 20
417.3445539153623827
 30
0.0
 11
5599.6189208123623757
 21
417.1280184822625188
 31
0.0
  0
ARC
  5
2BBE8
  8
0
 10
5599.5795507338325478
 20
417.128018482091818
 30
0.0
 40
0.0393700785292595
 50
269.9999997519033172
 51
0.0000002484647282
  0
ARC
  5
2BBE9
  8
0
 10
5599.5992357731329321
 20
417.3445539155331971
 30
0.0
 40
0.0196850392292873
 50
359.9999995031225808
 51
90.0000002041156648
  0
ARC
  5
2BBEA
  8
0
 10
5599.4417553630064504
 20
417.0689632814617767
 30
0.0
 40
0.0196851221008311
 50
0.0000637441798434
 51
89.9997233288240039
  0
LINE
  5
2BBEB
  8
0
 10
5601.1937239620619948
 20
417.3642389547625271
 30
0.0
 11
5603.5559286864618116
 21
417.3642389547625271
 31
0.0
  0
LINE
  5
2BBEC
  8
0
 10
5601.2330940407628077
 20
417.0886484035625017
 30
0.0
 11
5603.5165586077628177
 21
417.0886484035625017
 31
0.0
  0
LINE
  5
2BBED
  8
0
 10
5603.5559286864618116
 20
417.3642389547625271
 30
0.0
 11
5603.5559286864618116
 21
417.1280184822625188
 31
0.0
  0
ARC
  5
2BBEE
  8
0
 10
5603.5165586077628177
 20
417.1280184822625188
 30
0.0
 40
0.0393700786999993
 50
269.999999999687418
 51
0.0
  0
LINE
  5
2BBEF
  8
0
 10
5601.1937239620619948
 20
417.3642389547625271
 30
0.0
 11
5601.1937239621620392
 21
417.1280184822625188
 31
0.0
  0
ARC
  5
2BBF0
  8
0
 10
5601.233094040879223
 20
417.1280184822791739
 30
0.0
 40
0.0393700787166624
 50
180.0000000242540068
 51
269.9999999757686737
  0
ARC
  5
2BBF1
  8
0
 10
5602.886637347962278
 20
417.0099082460624231
 30
0.0
 40
0.0787401574999969
 50
90.0
 51
149.981473614552101
  0
ARC
  5
2BBF2
  8
0
 10
5601.8630153006615728
 20
417.0099082460624231
 30
0.0
 40
0.0787401574999969
 50
30.0185263854479203
 51
90.0
  0
ARC
  5
2BBF3
  8
0
 10
5603.0164052878026268
 20
417.0296157041105971
 30
0.0
 40
0.0196846679599548
 50
359.999561220090186
 51
90.0016513473193811
  0
LINE
  5
2BBF4
  8
0
 10
5603.0360899557626908
 20
417.0296155533624187
 30
0.0
 11
5603.0174878369625731
 21
414.6247062705625126
 31
0.0
  0
ARC
  5
2BBF5
  8
0
 10
5603.0962078589636803
 20
414.6240858292189273
 30
0.0
 40
0.0787224670054586
 50
179.548425756877208
 51
270.0127495319796935
  0
LINE
  5
2BBF6
  8
0
 10
5603.0962253763937042
 20
414.5453633641624833
 30
0.0
 11
5605.3072391011610307
 21
414.5453633641624833
 31
0.0
  0
ARC
  5
2BBF7
  8
0
 10
5605.3072391011610307
 20
414.5158360536815962
 30
0.0
 40
0.0295273104808338
 50
354.4994689288666905
 51
90.0
  0
LINE
  5
2BBF8
  8
0
 10
5605.3366304475302968
 20
414.5130057139620021
 30
0.0
 11
5605.3204282554297606
 21
414.3447395156508719
 31
0.0
  0
ARC
  5
2BBF9
  8
0
 10
5605.2812394287611824
 20
414.3485129704628207
 30
0.0
 40
0.0393700787007827
 50
270.0002597744410764
 51
354.4999999927176191
  0
LINE
  5
2BBFA
  8
0
 10
5605.2812396072622505
 20
414.3091428917625194
 30
0.0
 11
5601.7736479395380229
 21
414.309142863462796
 31
0.0
  0
ARC
  5
2BBFB
  8
0
 10
5601.7736486024887199
 20
414.3485141740666222
 30
0.0
 40
0.0393713106094185
 50
180.4444774311847084
 51
269.9990352281195101
  0
LINE
  5
2BBFC
  8
0
 10
5601.7342784765633041
 20
414.3482087504625042
 30
0.0
 11
5601.7135622706500726
 21
417.0294630759034931
 31
0.0
  0
ARC
  5
2BBFD
  8
0
 10
5601.7332471622412413
 20
417.0296157085938944
 30
0.0
 40
0.0196846634763855
 50
89.9983833448952026
 51
180.4442472578153058
  0
LINE
  5
2BC16
  8
0
 10
5603.0962253763937042
 20
414.5453633641624833
 30
0.0
 11
5602.8538971409616352
 21
414.5453633730625143
 31
0.0
  0
ARC
  5
2BC17
  8
0
 10
5602.8538971511652562
 20
414.8231661518893816
 30
0.0
 40
0.2778027788269493
 50
234.73500608936709
 51
269.9999978956856239
  0
LINE
  5
2BC18
  8
0
 10
5602.6935052499929952
 20
414.596342824247813
 30
0.0
 11
5602.6525698323066536
 21
414.6252891832323826
 31
0.0
  0
LINE
  5
2BC19
  8
0
 10
5602.6525698323066536
 20
414.6252891832323826
 30
0.0
 11
5602.6525698323066536
 21
417.0493003720624756
 31
0.0
  0
LINE
  5
2BC1A
  8
0
 10
5603.0164047203634254
 20
417.0493003720624756
 30
0.0
 11
5601.7332477176623797
 21
417.0493003720624756
 31
0.0
  0
LINE
  5
2BC1B
  8
0
 10
5602.0958965033632921
 20
417.0493003720624756
 30
0.0
 11
5602.0966442225617357
 21
414.3091428917625194
 31
0.0
  0
ATTDEF
  5
2BC88
  8
DEFPOINTS
 10
5598.4265181884038611
 20
417.3623953267606908
 30
0.0
 40
0.001
  1
K-23491T-4
  3

  2
MODELNUMBER
 70
     0
1001
ACDBATTR
1070
     0
1070
     1
  0
ATTDEF
  5
2BC89
  8
DEFPOINTS
 10
5598.4263923787457315
 20
417.3607284863815039
 30
0.0
 40
0.001
  1
PARALLEL
  3

  2
TRADENAME
 70
     0
1001
ACDBATTR
1070
     0
1070
     1
  0
ATTDEF
  5
2BC8A
  8
DEFPOINTS
 10
5598.4265181884038611
 20
417.3590619934273036
 30
0.0
 40
0.001
  1
BATH FAUCET
  3

  2
PRODUCT
 70
     0
1001
ACDBATTR
1070
     0
1070
     1
  0
ENDSEC
  0
EOF
