  0
SECTION
  2
HEADER
  9
$ACADVER
  1
AC1009
  9
$INSBASE
 10
5617.0932836111123834
 20
403.3207784824037958
 30
0.0
  9
$EXTMIN
 10
5607.329504023012305
 20
402.1396761202537959
 30
0.0
  9
$EXTMAX
 10
5617.10501178969389
 20
404.5018808445537957
 30
0.0
  9
$LIMMIN
 10
0.0
 20
0.0
  9
$LIMMAX
 10
11.6929133858000007
 20
8.2677165353999982
  9
$ORTHOMODE
 70
     0
  9
$REGENMODE
 70
     1
  9
$FILLMODE
 70
     1
  9
$QTEXTMODE
 70
     0
  9
$MIRRTEXT
 70
     0
  9
$DRAGMODE
 70
     2
  9
$LTSCALE
 40
0.6431102362
  9
$OSMODE
 70
  3839
  9
$ATTMODE
 70
     1
  9
$TEXTSIZE
 40
0.2
  9
$TRACEWID
 40
0.05
  9
$TEXTSTYLE
  7
STANDARD
  9
$CLAYER
  8
0
  9
$CELTYPE
  6
BYLAYER
  9
$CECOLOR
 62
   256
  9
$DIMSCALE
 40
1.0
  9
$DIMASZ
 40
0.1875
  9
$DIMEXO
 40
0.0625
  9
$DIMDLI
 40
0.4443307087
  9
$DIMRND
 40
0.0
  9
$DIMDLE
 40
0.0
  9
$DIMEXE
 40
0.125
  9
$DIMTP
 40
0.01
  9
$DIMTM
 40
0.01
  9
$DIMTXT
 40
2.0
  9
$DIMCEN
 40
0.1052362205
  9
$DIMTSZ
 40
0.0
  9
$DIMTOL
 70
     1
  9
$DIMLIM
 70
     0
  9
$DIMTIH
 70
     1
  9
$DIMTOH
 70
     1
  9
$DIMSE1
 70
     0
  9
$DIMSE2
 70
     0
  9
$DIMTAD
 70
     0
  9
$DIMZIN
 70
     0
  9
$DIMBLK
  1

  9
$DIMASO
 70
     1
  9
$DIMSHO
 70
     1
  9
$DIMPOST
  1
\X
  9
$DIMAPOST
  1

  9
$DIMALT
 70
     1
  9
$DIMALTD
 70
     2
  9
$DIMALTF
 40
25.3999999999999986
  9
$DIMLFAC
 40
1.0
  9
$DIMTOFL
 70
     0
  9
$DIMTVP
 40
0.0
  9
$DIMTIX
 70
     0
  9
$DIMSOXD
 70
     0
  9
$DIMSAH
 70
     0
  9
$DIMBLK1
  1

  9
$DIMBLK2
  1

  9
$DIMSTYLE
  2
STANDARD
  9
$DIMCLRD
 70
     0
  9
$DIMCLRE
 70
     0
  9
$DIMCLRT
 70
     0
  9
$DIMTFAC
 40
1.0
  9
$DIMGAP
 40
0.09
  9
$LUNITS
 70
     2
  9
$LUPREC
 70
     4
  9
$SKETCHINC
 40
0.1
  9
$FILLETRAD
 40
0.0
  9
$AUNITS
 70
     0
  9
$AUPREC
 70
     0
  9
$MENU
  1
.
  9
$ELEVATION
 40
0.0
  9
$PELEVATION
 40
0.0
  9
$THICKNESS
 40
0.0
  9
$LIMCHECK
 70
     0
  9
$BLIPMODE
 70
     0
  9
$CHAMFERA
 40
0.0
  9
$CHAMFERB
 40
0.0
  9
$SKPOLY
 70
     0
  9
$TDCREATE
 40
2458060.468368056230247
  9
$TDUPDATE
 40
2460452.7262847227975726
  9
$TDINDWG
 40
0.6485024306
  9
$TDUSRTIMER
 40
0.6485024306
  9
$USRTIMER
 70
     1
  9
$ANGBASE
 50
0.0
  9
$ANGDIR
 70
     0
  9
$PDMODE
 70
     0
  9
$PDSIZE
 40
0.3125
  9
$PLINEWID
 40
0.0
  9
$COORDS
 70
     1
  9
$SPLFRAME
 70
     0
  9
$SPLINETYPE
 70
     6
  9
$SPLINESEGS
 70
     8
  9
$ATTDIA
 70
     1
  9
$ATTREQ
 70
     1
  9
$HANDLING
 70
     1
  9
$HANDSEED
  5
2BE5C
  9
$SURFTAB1
 70
     6
  9
$SURFTAB2
 70
     6
  9
$SURFTYPE
 70
     6
  9
$SURFU
 70
     6
  9
$SURFV
 70
     6
  9
$UCSNAME
  2

  9
$UCSORG
 10
0.0
 20
0.0
 30
0.0
  9
$UCSXDIR
 10
1.0
 20
0.0
 30
0.0
  9
$UCSYDIR
 10
0.0
 20
1.0
 30
0.0
  9
$PUCSNAME
  2

  9
$PUCSORG
 10
0.0
 20
0.0
 30
0.0
  9
$PUCSXDIR
 10
1.0
 20
0.0
 30
0.0
  9
$PUCSYDIR
 10
0.0
 20
1.0
 30
0.0
  9
$USERI1
 70
     0
  9
$USERI2
 70
     0
  9
$USERI3
 70
     0
  9
$USERI4
 70
     0
  9
$USERI5
 70
     0
  9
$USERR1
 40
0.0
  9
$USERR2
 40
0.0
  9
$USERR3
 40
0.0
  9
$USERR4
 40
0.0
  9
$USERR5
 40
0.0
  9
$WORLDVIEW
 70
     1
  9
$SHADEDGE
 70
     3
  9
$SHADEDIF
 70
    70
  9
$TILEMODE
 70
     1
  9
$MAXACTVP
 70
    64
  9
$PLIMCHECK
 70
     0
  9
$PEXTMIN
 10
1.0000000000000000E+20
 20
1.0000000000000000E+20
 30
1.0000000000000000E+20
  9
$PEXTMAX
 10
-1.0000000000000000E+20
 20
-1.0000000000000000E+20
 30
-1.0000000000000000E+20
  9
$PLIMMIN
 10
0.0
 20
0.0
  9
$PLIMMAX
 10
12.0
 20
9.0
  9
$UNITMODE
 70
     0
  9
$VISRETAIN
 70
     1
  9
$PLINEGEN
 70
     0
  9
$PSLTSCALE
 70
     1
  0
ENDSEC
  0
SECTION
  2
TABLES
  0
TABLE
  2
VPORT
 70
     1
  0
VPORT
  2
*ACTIVE
 70
     0
 10
0.0
 20
0.0
 11
1.0
 21
1.0
 12
1700.9729846741390702
 22
270.7336936617272158
 13
0.0
 23
0.0
 14
1.0
 24
1.0
 15
0.0
 25
0.0
 16
0.0
 26
0.0
 36
60.4960186965801583
 17
3911.3653564453120453
 27
132.5796051025390057
 37
0.0
 40
4.8643781497196068
 41
2.1211111111111101
 42
50.0
 43
0.0
 44
0.0
 50
0.0
 51
0.0
 71
     0
 72
   100
 73
     1
 74
     1
 75
     0
 76
     0
 77
     0
 78
     1
  0
ENDTAB
  0
TABLE
  2
LTYPE
 70
     2
  0
LTYPE
  2
CONTINUOUS
 70
     0
  3
Solid line
 72
    65
 73
     0
 40
0.0
  0
LTYPE
  2
PHANTOM2
 70
     0
  3
___ _ _ ___ _ _ ___ _ _ ___ _ _
 72
    65
 73
     6
 40
1.25
 49
0.625
 49
-0.125
 49
0.125
 49
-0.125
 49
0.125
 49
-0.125
  0
ENDTAB
  0
TABLE
  2
LAYER
 70
     2
  0
LAYER
  2
0
 70
     0
 62
   255
  6
CONTINUOUS
  0
LAYER
  2
DEFPOINTS
 70
     0
 62
     7
  6
CONTINUOUS
  0
ENDTAB
  0
TABLE
  2
STYLE
 70
     1
  0
STYLE
  2
STANDARD
 70
     0
 40
0.0
 41
0.8
 50
0.0
 71
     0
 42
0.2
  3
txt
  4

  0
ENDTAB
  0
TABLE
  2
VIEW
 70
     0
  0
ENDTAB
  0
TABLE
  2
UCS
 70
     0
  0
ENDTAB
  0
TABLE
  2
APPID
 70
    11
  0
APPID
  2
ACAD
 70
     0
  0
APPID
  2
ACAD_MLEADERVER
 70
     0
  0
APPID
  2
ACAD_EXEMPT_FROM_CAD_STANDARDS
 70
     0
  0
APPID
  2
ACAD_NAV_VCDISPLAY
 70
     0
  0
APPID
  2
ACAECLAYERSTANDARD
 70
     0
  0
APPID
  2
ACCMTRANSPARENCY
 70
     0
  0
APPID
  2
ACAD_DSTYLE_DIMJAG
 70
     0
  0
APPID
  2
ACAD_DSTYLE_DIMTALN
 70
     0
  0
APPID
  2
ACDBATTR
 70
     0
  0
APPID
  2
ACADANNOTATIVE
 70
     0
  0
APPID
  2
DCO15
 70
     0
  0
ENDTAB
  0
TABLE
  2
DIMSTYLE
 70
     1
  0
DIMSTYLE
  2
STANDARD
 70
     0
  3

  4

  5

  6

  7

 40
1.0
 41
0.1875
 42
0.0625
 43
0.38
 44
0.125
 45
0.0
 46
0.0
 47
0.01
 48
0.01
140
0.15625
141
0.09
142
0.0
143
25.3999999999999986
144
1.0
145
0.0
146
1.0
147
0.09
 71
     1
 72
     0
 73
     1
 74
     1
 75
     0
 76
     0
 77
     0
 78
     4
170
     0
171
     2
172
     0
173
     0
174
     0
175
     0
176
     0
177
     0
178
     0
  0
ENDTAB
  0
ENDSEC
  0
SECTION
  2
BLOCKS
  0
BLOCK
  8
0
  2
$MODEL_SPACE
 70
     0
 10
0.0
 20
0.0
 30
0.0
  3
$MODEL_SPACE
  1

  0
ENDBLK
  5
21
  8
0
  0
BLOCK
 67
     1
  8
0
  2
$PAPER_SPACE
 70
     0
 10
0.0
 20
0.0
 30
0.0
  3
$PAPER_SPACE
  1

  0
ENDBLK
  5
1D
 67
     1
  8
0
  0
BLOCK
  8
0
  2
_FILLED
 70
     0
 10
0.0
 20
0.0
 30
0.0
  3
_FILLED
  1

  0
SOLID
  5
2A961
  8
0
  6
BYBLOCK
 62
     0
 10
0.0
 20
0.0
 30
0.0
 11
-1.0
 21
0.1666666667
 31
0.0
 12
-1.0
 22
-0.1666666667
 32
0.0
 13
-1.0
 23
-0.1666666667
 33
0.0
  0
ENDBLK
  5
2A962
  8
0
  6
BYBLOCK
 62
     0
  0
ENDSEC
  0
SECTION
  2
ENTITIES
  0
ATTDEF
  5
26A5B
  8
DEFPOINTS
 10
5617.0943451230250503
 20
403.3258122909714984
 30
0.0
 40
0.001
  1
K-23491T-4
  3

  2
MODELNUMBER
 70
     0
1001
ACDBATTR
1070
     0
1070
     1
  0
ATTDEF
  5
26A5C
  8
DEFPOINTS
 10
5617.0942193133678302
 20
403.3241454505923116
 30
0.0
 40
0.001
  1
PARALLEL
  3

  2
TRADENAME
 70
     0
1001
ACDBATTR
1070
     0
1070
     1
  0
ATTDEF
  5
26A5D
  8
DEFPOINTS
 10
5617.0943451230250503
 20
403.3224789576381113
 30
0.0
 40
0.001
  1
BATH FAUCET
  3

  2
PRODUCT
 70
     0
1001
ACDBATTR
1070
     0
1070
     1
  0
LINE
  5
2BB90
  8
0
 10
5617.0932836111123834
 20
404.5018808445537957
 30
0.0
 11
5617.0932836111123834
 21
402.1396761202537959
 31
0.0
  0
ARC
  5
2BB91
  8
0
 10
5616.8570631387301546
 20
402.179046198970525
 30
0.0
 40
0.039370078716666
 50
180.0000000246546108
 51
269.9999999757686737
  0
LINE
  5
2BB92
  8
0
 10
5616.8176930600120613
 20
402.179046198953472
 30
0.0
 11
5616.8176930590288976
 21
404.4625107658537786
 31
0.0
  0
ARC
  5
2BB93
  8
0
 10
5616.857063137714249
 20
404.4625107658707748
 30
0.0
 40
0.03937007868306
 50
89.9999985454477667
 51
180.0000000246546108
  0
ARC
  5
2BB94
  8
0
 10
5616.7382744104234007
 20
402.8083527414156038
 30
0.0
 40
0.079612347106617
 50
3.9975862517184231
 51
59.7799969335847265
  0
ARC
  5
2BB95
  8
0
 10
5616.7980076344256304
 20
402.6599614290439035
 30
0.0
 40
0.0196854253929125
 50
270.0009668503482771
 51
359.9978565492057214
  0
LINE
  5
2BB96
  8
0
 10
5616.7980079650124026
 20
402.6402760036538098
 30
0.0
 11
5615.2384625108197724
 21
402.6479161045078854
 31
0.0
  0
LINE
  5
2BB97
  8
0
 10
5615.2384625108197724
 20
402.6479161045078854
 30
0.0
 11
5614.2071213042372619
 21
402.6880094662006968
 31
0.0
  0
ARC
  5
2BB98
  8
0
 10
5615.0910490005053362
 20
409.9052546954309264
 30
0.0
 40
7.2711730051675163
 50
253.2738146516988138
 51
263.0175082788982763
  0
ARC
  5
2BB99
  8
0
 10
5610.7126824398492317
 20
395.438431428005515
 30
0.0
 40
7.8437163823935929
 50
73.0576225550498322
 51
89.2132067481734339
  0
LINE
  5
2BB9A
  8
0
 10
5607.3590317071120808
 20
403.2814078363538215
 30
0.0
 11
5614.03818754661188
 21
403.2728456710538012
 31
0.0
  0
ARC
  5
2BB9B
  8
0
 10
5607.3590317071120808
 20
403.3109353844538987
 30
0.0
 40
0.0295275480999973
 50
180.0004169955792861
 51
270.0
  0
LINE
  5
2BB9C
  8
0
 10
5607.329504046011607
 20
403.3109351695537725
 30
0.0
 11
5607.329504023012305
 21
403.871959196439775
 31
0.0
  0
ARC
  5
2BB9D
  8
0
 10
5607.3688741199794094
 20
403.8719591904878143
 30
0.0
 40
0.0393700969660446
 50
90.0000289340887463
 51
179.9999913379708971
  0
ARC
  5
2BB9E
  8
0
 10
5616.7980086020252202
 20
403.8916448911645034
 30
0.0
 40
0.0196843962893628
 50
359.9992228222200765
 51
90.0000000522144177
  0
ARC
  5
2BB9F
  8
0
 10
5616.7389529024121657
 20
403.8325895060538073
 30
0.0
 40
0.0787401574999929
 50
300.0185263854488085
 51
359.9928594625278038
  0
LINE
  5
2BBA0
  8
0
 10
5616.7783450284123319
 20
403.8916841719537842
 30
0.0
 11
5616.7783450284123319
 21
402.7498727946539248
 31
0.0
  0
ARC
  5
2BBA1
  8
0
 10
5616.7586599307132929
 20
402.7498727910539174
 30
0.0
 40
0.0196850977001478
 50
270.0001699804757891
 51
0.0000104780405124
  0
LINE
  5
2BBA2
  8
0
 10
5616.7586599891128571
 20
402.7301876933537983
 30
0.0
 11
5614.077215367302415
 21
402.751697940280792
 31
0.0
  0
ARC
  5
2BBA3
  8
0
 10
5616.7587172119629031
 20
403.8917027868885157
 30
0.0
 40
0.0196278253196226
 50
359.9458363900860718
 51
90.6656894099353252
  0
ARC
  5
2BBCF
  8
0
 10
5609.2056703866528551
 20
402.5504419461393013
 30
0.0
 40
0.7315808952872574
 50
95.1021163056391288
 51
133.8702088709796101
  0
ARC
  5
2BBD0
  8
0
 10
5608.6732879743549347
 20
403.1087647851746851
 30
0.0
 40
0.039998745221633
 50
269.9996534317867258
 51
309.378899135327174
  0
LINE
  5
2BBD1
  8
0
 10
5608.6732877324120636
 20
403.0687660399538004
 30
0.0
 11
5607.5405660103006085
 21
403.271935515194798
 31
0.0
  0
ARC
  5
2BBD2
  8
0
 10
5607.4555146591710582
 20
402.8917320997272782
 30
0.0
 40
0.38961792570462
 50
77.3198618086560998
 51
88.872195326477808
  0
ARC
  5
2BBD3
  8
0
 10
5607.9738784175133333
 20
403.2534325033537925
 30
0.0
 40
0.1968503937999177
 50
187.0548531770913883
 51
211.6605913370181895
  0
LINE
  5
2BBD4
  8
0
 10
5607.8063248085136365
 20
403.150108422662413
 30
0.0
 11
5608.3604158565685793
 21
403.0504125310811219
 31
0.0
  0
ARC
  5
2BBD5
  8
0
 10
5608.2393859161120417
 20
403.2056601753538985
 30
0.0
 40
0.1968503937999934
 50
307.9397211872965272
 51
332.6527422055037846
  0
ARC
  5
2BBD6
  8
0
 10
5614.0774550985770475
 20
402.7908235013139233
 30
0.0
 40
0.0391262954704248
 50
181.429668059927593
 51
269.648940027015783
  0
LINE
  5
2BBD7
  8
0
 10
5614.0383409829410084
 20
402.7898473070649743
 30
0.0
 11
5614.0381875481116367
 21
403.8501602558625905
 31
0.0
  0
ARC
  5
2BBD8
  8
0
 10
5614.0775585971241526
 20
403.8504880952855842
 30
0.0
 40
0.0393724139338745
 50
90.4994802373587248
 51
180.4770861241073874
  0
ARC
  5
2BBD9
  8
0
 10
5614.2448410474553384
 20
402.7798354875872064
 30
0.0
 40
0.0296093571325291
 50
274.8716185292038858
 51
3.066025754498626
  0
LINE
  5
2BBDA
  8
0
 10
5614.2744080206120998
 20
402.7814191946490041
 30
0.0
 11
5614.2744080206120998
 21
403.8611222120051139
 31
0.0
  0
ARC
  5
2BBDB
  8
0
 10
5614.2441338461558189
 20
403.8611222120051139
 30
0.0
 40
0.0302741744568813
 50
0.0
 51
83.8410040793781945
  0
LINE
  5
2BBE2
  8
0
 10
5617.0932836111123834
 20
404.5018808445537957
 30
0.0
 11
5616.857063137714249
 21
404.5018808445537957
 31
0.0
  0
LINE
  5
2BBE4
  8
0
 10
5616.8570631387301546
 20
402.1396761202537959
 30
0.0
 11
5617.0932836111123834
 21
402.1396761202537959
 31
0.0
  0
LINE
  5
2BBE5
  8
0
 10
5607.3688741001005837
 20
403.9113292874538956
 30
0.0
 11
5616.7980086020070303
 21
403.9113292874538956
 31
0.0
  0
LINE
  5
2BC1D
  8
0
 10
5614.0770172563115921
 20
403.8894545220538248
 30
0.0
 11
5614.2473818974813184
 21
403.8912216439206873
 31
0.0
  0
ARC
  5
2BC1E
  8
0
 10
5614.2878318586363093
 20
403.8576222798300819
 30
0.0
 40
0.0136574202273219
 50
124.949947972615405
 51
169.3879355904209945
  0
ARC
  5
2BC1F
  8
0
 10
5614.3379864101516432
 20
403.7757498464960122
 30
0.0
 40
0.1096490485122525
 50
96.5984623030664551
 51
121.9219076184495947
  0
ARC
  5
2BC20
  8
0
 10
5614.3562590631127023
 20
403.8057605094618907
 30
0.0
 40
0.0847361917196039
 50
91.6402352623054242
 51
111.3667492352540052
  0
LINE
  5
2BC21
  8
0
 10
5614.353833608612149
 20
403.890461981453825
 30
0.0
 11
5616.7584891717542632
 21
403.9113292874538956
 31
0.0
  0
ENDSEC
  0
EOF
