  0
SECTION
  2
HEADER
  9
$ACADVER
  1
AC1009
  9
$INSBASE
 10
2099.429116201727993
 20
189.5782926404179136
 30
0.0
  9
$EXTMIN
 10
2087.1505621067931315
 20
181.8054208367325941
 30
-0.0000000349181948
  9
$EXTMAX
 10
2106.6631631356499383
 20
189.5923583668464971
 30
0.0000000814935746
  9
$LIMMIN
 10
0.0
 20
0.0
  9
$LIMMAX
 10
11.6929133858000007
 20
8.2677165353999982
  9
$ORTHOMODE
 70
     0
  9
$REGENMODE
 70
     1
  9
$FILLMODE
 70
     1
  9
$QTEXTMODE
 70
     0
  9
$MIRRTEXT
 70
     0
  9
$DRAGMODE
 70
     2
  9
$LTSCALE
 40
0.6431102362
  9
$OSMODE
 70
  4095
  9
$ATTMODE
 70
     1
  9
$TEXTSIZE
 40
0.2
  9
$TRACEWID
 40
0.05
  9
$TEXTSTYLE
  7
STANDARD
  9
$CLAYER
  8
0
  9
$CELTYPE
  6
BYLAYER
  9
$CECOLOR
 62
   256
  9
$DIMSCALE
 40
1.0
  9
$DIMASZ
 40
0.1875
  9
$DIMEXO
 40
0.0625
  9
$DIMDLI
 40
0.4443307087
  9
$DIMRND
 40
0.0
  9
$DIMDLE
 40
0.0
  9
$DIMEXE
 40
0.125
  9
$DIMTP
 40
0.01
  9
$DIMTM
 40
0.01
  9
$DIMTXT
 40
2.0
  9
$DIMCEN
 40
0.1052362205
  9
$DIMTSZ
 40
0.0
  9
$DIMTOL
 70
     1
  9
$DIMLIM
 70
     0
  9
$DIMTIH
 70
     1
  9
$DIMTOH
 70
     1
  9
$DIMSE1
 70
     0
  9
$DIMSE2
 70
     0
  9
$DIMTAD
 70
     0
  9
$DIMZIN
 70
     0
  9
$DIMBLK
  1

  9
$DIMASO
 70
     1
  9
$DIMSHO
 70
     1
  9
$DIMPOST
  1
\X
  9
$DIMAPOST
  1

  9
$DIMALT
 70
     1
  9
$DIMALTD
 70
     2
  9
$DIMALTF
 40
25.3999999999999986
  9
$DIMLFAC
 40
1.0
  9
$DIMTOFL
 70
     0
  9
$DIMTVP
 40
0.0
  9
$DIMTIX
 70
     0
  9
$DIMSOXD
 70
     0
  9
$DIMSAH
 70
     0
  9
$DIMBLK1
  1

  9
$DIMBLK2
  1

  9
$DIMSTYLE
  2
STANDARD
  9
$DIMCLRD
 70
     0
  9
$DIMCLRE
 70
     0
  9
$DIMCLRT
 70
     0
  9
$DIMTFAC
 40
1.0
  9
$DIMGAP
 40
0.09
  9
$LUNITS
 70
     2
  9
$LUPREC
 70
     4
  9
$SKETCHINC
 40
0.1
  9
$FILLETRAD
 40
0.0
  9
$AUNITS
 70
     0
  9
$AUPREC
 70
     0
  9
$MENU
  1
.
  9
$ELEVATION
 40
0.0
  9
$PELEVATION
 40
0.0
  9
$THICKNESS
 40
0.0
  9
$LIMCHECK
 70
     0
  9
$BLIPMODE
 70
     0
  9
$CHAMFERA
 40
0.0
  9
$CHAMFERB
 40
0.0
  9
$SKPOLY
 70
     0
  9
$TDCREATE
 40
2458060.468368056230247
  9
$TDUPDATE
 40
2460019.6618518522009254
  9
$TDINDWG
 40
0.3485611458
  9
$TDUSRTIMER
 40
0.3485611458
  9
$USRTIMER
 70
     1
  9
$ANGBASE
 50
0.0
  9
$ANGDIR
 70
     0
  9
$PDMODE
 70
     0
  9
$PDSIZE
 40
0.3125
  9
$PLINEWID
 40
0.0
  9
$COORDS
 70
     1
  9
$SPLFRAME
 70
     0
  9
$SPLINETYPE
 70
     6
  9
$SPLINESEGS
 70
     8
  9
$ATTDIA
 70
     1
  9
$ATTREQ
 70
     1
  9
$HANDLING
 70
     1
  9
$HANDSEED
  5
9C52
  9
$SURFTAB1
 70
     6
  9
$SURFTAB2
 70
     6
  9
$SURFTYPE
 70
     6
  9
$SURFU
 70
     6
  9
$SURFV
 70
     6
  9
$UCSNAME
  2

  9
$UCSORG
 10
0.0
 20
0.0
 30
0.0
  9
$UCSXDIR
 10
1.0
 20
0.0
 30
0.0
  9
$UCSYDIR
 10
0.0
 20
1.0
 30
0.0
  9
$PUCSNAME
  2

  9
$PUCSORG
 10
0.0
 20
0.0
 30
0.0
  9
$PUCSXDIR
 10
1.0
 20
0.0
 30
0.0
  9
$PUCSYDIR
 10
0.0
 20
1.0
 30
0.0
  9
$USERI1
 70
     0
  9
$USERI2
 70
     0
  9
$USERI3
 70
     0
  9
$USERI4
 70
     0
  9
$USERI5
 70
     0
  9
$USERR1
 40
0.0
  9
$USERR2
 40
0.0
  9
$USERR3
 40
0.0
  9
$USERR4
 40
0.0
  9
$USERR5
 40
0.0
  9
$WORLDVIEW
 70
     1
  9
$SHADEDGE
 70
     3
  9
$SHADEDIF
 70
    70
  9
$TILEMODE
 70
     1
  9
$MAXACTVP
 70
    64
  9
$PLIMCHECK
 70
     0
  9
$PEXTMIN
 10
1.0000000000000000E+20
 20
1.0000000000000000E+20
 30
1.0000000000000000E+20
  9
$PEXTMAX
 10
-1.0000000000000000E+20
 20
-1.0000000000000000E+20
 30
-1.0000000000000000E+20
  9
$PLIMMIN
 10
0.0
 20
0.0
  9
$PLIMMAX
 10
12.0
 20
9.0
  9
$UNITMODE
 70
     0
  9
$VISRETAIN
 70
     1
  9
$PLINEGEN
 70
     0
  9
$PSLTSCALE
 70
     1
  0
ENDSEC
  0
SECTION
  2
TABLES
  0
TABLE
  2
VPORT
 70
     1
  0
VPORT
  2
*ACTIVE
 70
     0
 10
0.0
 20
0.0
 11
1.0
 21
1.0
 12
1136.3997664004930357
 22
108.6928204184398936
 13
0.0
 23
0.0
 14
1.0
 24
1.0
 15
0.0
 25
0.0
 16
0.0
 26
0.0
 36
82.6066804857415349
 17
960.5070962207281582
 27
77.0060691833496094
 37
0.0
 40
9.5917883317061996
 41
2.0401567091087172
 42
50.0
 43
0.0
 44
0.0
 50
0.0
 51
0.0
 71
     0
 72
   100
 73
     1
 74
     1
 75
     0
 76
     0
 77
     0
 78
     0
  0
ENDTAB
  0
TABLE
  2
LTYPE
 70
     2
  0
LTYPE
  2
CONTINUOUS
 70
     0
  3
Solid line
 72
    65
 73
     0
 40
0.0
  0
LTYPE
  2
PHANTOM2
 70
     0
  3
___ _ _ ___ _ _ ___ _ _ ___ _ _
 72
    65
 73
     6
 40
1.25
 49
0.625
 49
-0.125
 49
0.125
 49
-0.125
 49
0.125
 49
-0.125
  0
ENDTAB
  0
TABLE
  2
LAYER
 70
     2
  0
LAYER
  2
0
 70
     0
 62
   255
  6
CONTINUOUS
  0
LAYER
  2
DEFPOINTS
 70
     0
 62
     7
  6
CONTINUOUS
  0
ENDTAB
  0
TABLE
  2
STYLE
 70
     1
  0
STYLE
  2
STANDARD
 70
     0
 40
0.0
 41
0.8
 50
0.0
 71
     0
 42
0.2
  3
txt
  4

  0
ENDTAB
  0
TABLE
  2
VIEW
 70
     0
  0
ENDTAB
  0
TABLE
  2
UCS
 70
     0
  0
ENDTAB
  0
TABLE
  2
APPID
 70
     9
  0
APPID
  2
ACAD
 70
     0
  0
APPID
  2
ACAD_MLEADERVER
 70
     0
  0
APPID
  2
ACAD_EXEMPT_FROM_CAD_STANDARDS
 70
     0
  0
APPID
  2
ACAD_NAV_VCDISPLAY
 70
     0
  0
APPID
  2
ACAECLAYERSTANDARD
 70
     0
  0
APPID
  2
ACCMTRANSPARENCY
 70
     0
  0
APPID
  2
ACAD_DSTYLE_DIMJAG
 70
     0
  0
APPID
  2
ACAD_DSTYLE_DIMTALN
 70
     0
  0
APPID
  2
ACDBATTR
 70
     0
  0
ENDTAB
  0
TABLE
  2
DIMSTYLE
 70
     1
  0
DIMSTYLE
  2
STANDARD
 70
     0
  3

  4

  5

  6

  7

 40
1.0
 41
0.1875
 42
0.0625
 43
0.38
 44
0.125
 45
0.0
 46
0.0
 47
0.01
 48
0.01
140
0.15625
141
0.09
142
0.0
143
25.3999999999999986
144
1.0
145
0.0
146
1.0
147
0.09
 71
     1
 72
     0
 73
     1
 74
     1
 75
     0
 76
     0
 77
     0
 78
     4
170
     0
171
     2
172
     0
173
     0
174
     0
175
     0
176
     0
177
     0
178
     0
  0
ENDTAB
  0
ENDSEC
  0
SECTION
  2
BLOCKS
  0
BLOCK
  8
0
  2
$MODEL_SPACE
 70
     0
 10
0.0
 20
0.0
 30
0.0
  3
$MODEL_SPACE
  1

  0
ENDBLK
  5
21
  8
0
  0
BLOCK
 67
     1
  8
0
  2
$PAPER_SPACE
 70
     0
 10
0.0
 20
0.0
 30
0.0
  3
$PAPER_SPACE
  1

  0
ENDBLK
  5
1D
 67
     1
  8
0
  0
ENDSEC
  0
SECTION
  2
ENTITIES
  0
ATTDEF
  5
3930
  8
DEFPOINTS
 10
2099.4246683892010878
 20
189.575525308223888
 30
0.0
 40
0.001
  1
K-23494T-4E2
  3

  2
MODELNUMBER
 70
     0
1001
ACDBATTR
1070
     0
1070
     1
  0
ATTDEF
  5
3931
  8
DEFPOINTS
 10
2099.4246683892010878
 20
189.5738586415573081
 30
0.0
 40
0.001
  1
PARALLEL
  3

  2
TRADENAME
 70
     0
1001
ACDBATTR
1070
     0
1070
     1
  0
ATTDEF
  5
3932
  8
DEFPOINTS
 10
2099.4246683892010878
 20
189.5721919748905862
 30
0.0
 40
0.001
  1
BATH AND SHOWER FAUCET
  3

  2
PRODUCT
 70
     0
1001
ACDBATTR
1070
     0
1070
     1
  0
LINE
  5
9A83
  8
0
 10
2088.3301789706820273
 20
189.5782926404179136
 30
0.0
 11
2088.334491245368099
 21
189.3312426256819947
 31
0.0
  0
LINE
  5
9A84
  8
0
 10
2088.6608199501811214
 20
189.2451217492254045
 30
0.0
 11
2088.6841011819819869
 21
187.9166554156003883
 31
0.0
  0
LINE
  5
9A85
  8
0
 10
2088.6845096792371805
 20
187.0289149415197016
 30
0.0
 11
2088.68450967923809
 21
187.4936469711178972
 31
0.0
  0
LINE
  5
9A86
  8
0
 10
2089.1451395859821787
 20
187.8578203537003901
 30
0.0
 11
2089.1451395831818445
 21
187.5231746845003897
 31
0.0
  0
LINE
  5
9A87
  8
0
 10
2089.5230923418821476
 20
187.8578203505003898
 30
0.0
 11
2089.5230923390818134
 21
187.5231746812004019
 31
0.0
  0
LINE
  5
9A88
  8
0
 10
2089.9837222777377974
 20
187.4936469599178963
 30
0.0
 11
2089.9837222753380956
 21
187.2180564090178905
 31
0.0
  0
LINE
  5
9A89
  8
0
 10
2089.9841307408819375
 20
187.9166550640003948
 30
0.0
 11
2090.0073193338807869
 21
189.2451280182004041
 31
0.0
  0
LINE
  5
9A8A
  8
0
 10
2090.3337407112821893
 20
189.3312428271003967
 30
0.0
 11
2090.3380529861938157
 21
189.5782926404179136
 31
0.0
  0
LINE
  5
9A8B
  8
0
 10
2098.3111345828378944
 20
181.8108998093179025
 30
0.0
 11
2101.0575912758381492
 21
181.8108997859179112
 31
0.0
  0
LINE
  5
9A8C
  8
0
 10
2101.6575912971879916
 20
184.3263578834178986
 30
0.0
 11
2106.3188697732380206
 21
184.3263240689178986
 31
0.0
  0
LINE
  5
9A8D
  8
0
 10
2098.0111346278381461
 20
187.0971902812179053
 30
0.0
 11
2098.0111346278381461
 21
182.1108998118180011
 31
0.0
  0
LINE
  5
9A8E
  8
0
 10
2089.9541947161369535
 20
187.1885288501179048
 30
0.0
 11
2089.592367544183162
 21
187.1885288532158995
 31
0.0
  0
LINE
  5
9A8F
  8
0
 10
2106.3188703350379001
 20
187.3971902097179054
 30
0.0
 11
2098.3111346303380742
 21
187.3971902778179128
 31
0.0
  0
LINE
  5
9A90
  8
0
 10
2101.4524040190381129
 20
187.4168753114678907
 30
0.0
 11
2101.216183546638149
 21
187.4168753228678952
 31
0.0
  0
LINE
  5
9A91
  8
0
 10
2088.7140372210819805
 20
187.5231746881003971
 30
0.0
 11
2089.9541947012821765
 21
187.5231746776003945
 31
0.0
  0
LINE
  5
9A92
  8
0
 10
2089.5309663576817911
 20
187.8578203505003898
 30
0.0
 11
2089.1372655701820804
 21
187.8578203538004061
 31
0.0
  0
LINE
  5
9A93
  8
0
 10
2101.216183546638149
 20
187.4168753228678952
 30
0.0
 11
2101.2161835456381596
 21
187.3971902834678929
 31
0.0
  0
LINE
  5
9A94
  8
0
 10
2090.3380529861938157
 20
189.5782926404179136
 30
0.0
 11
2088.3301789706820273
 21
189.5782926404179136
 31
0.0
  0
LINE
  5
9A95
  8
0
 10
2101.3575575197378384
 20
182.1108997834178922
 30
0.0
 11
2101.3575575197378384
 21
184.0263241110675949
 31
0.0
  0
LINE
  5
9A96
  8
0
 10
2101.4524040190381129
 20
187.4168753114678907
 30
0.0
 11
2101.4524040181381679
 21
187.3971902720678884
 31
0.0
  0
LINE
  5
9A97
  8
0
 10
2106.3582400901382243
 20
184.3656941419179134
 30
0.0
 11
2106.3582401159378605
 21
187.3578202040002907
 31
0.0
  0
ARC
  5
9A98
  8
0
 10
2088.3640143072821047
 20
189.3317579524004088
 30
0.0
 40
0.0295275591
 50
180.9999995263000017
 51
269.3446855437878753
  0
ARC
  5
9A99
  8
0
 10
2089.3259601423369531
 20
186.8149072664178902
 30
0.0
 40
0.4588747039000001
 50
48.4382173743507494
 51
131.7474939202299993
  0
ARC
  5
9A9A
  8
0
 10
2088.7140372081980786
 20
187.493647159239913
 30
0.0
 40
0.0295275289605526
 50
89.9999752886098747
 51
180.0003650354310025
  0
ARC
  5
9A9B
  8
0
 10
2088.7123733696621457
 20
187.9159108236362954
 30
0.0
 40
0.0282819909732063
 50
178.4913754132697079
 51
271.905643865814227
  0
ARC
  5
9A9C
  8
0
 10
2088.6019243202817961
 20
189.2407844975004139
 30
0.0
 40
0.0590551181
 50
4.2118309015984901
 51
89.5059169347024408
  0
ARC
  5
9A9D
  8
0
 10
2089.3341159667820648
 20
188.187361081300395
 30
0.0
 40
0.3838582677
 50
300.8518854992124716
 51
307.994539286394172
  0
ARC
  5
9A9E
  8
0
 10
2089.3341159667820648
 20
188.187361081300395
 30
0.0
 40
0.3838582677
 50
232.0054597399605996
 51
239.1481135271068013
  0
ARC
  5
9A9F
  8
0
 10
2089.9541947163370423
 20
187.2180564091179065
 30
0.0
 40
0.0295275591
 50
269.9999995767868768
 51
359.9999995131000787
  0
ARC
  5
9AA0
  8
0
 10
2089.9541946884969548
 20
187.4936470883604045
 30
0.0
 40
0.0295275892400523
 50
359.9997507684132074
 51
89.9999752245664268
  0
ARC
  5
9AA1
  8
0
 10
2089.9546076790820734
 20
187.9171703911003988
 30
0.0
 40
0.0295275591
 50
270.6023181182055737
 51
358.9999995000987951
  0
ARC
  5
9AA2
  8
0
 10
2090.0665073643431242
 20
189.2404706546261934
 30
0.0
 40
0.0593709860567146
 50
90.6842155697017205
 51
175.500803759709413
  0
ARC
  5
9AA3
  8
0
 10
2090.3045475372409783
 20
189.3314260560825915
 30
0.0
 40
0.0291937490469316
 50
270.0153452690270797
 51
359.6403916375112999
  0
ARC
  5
9AA4
  8
0
 10
2088.3201592303021243
 20
173.0613415214120892
 30
0.0
 40
16.2409491054599506
 50
89.0041257744795047
 51
89.8464766822545471
  0
ARC
  5
9AA5
  8
0
 10
2089.3341166971817984
 20
274.1465342629003885
 30
0.0
 40
84.8498516519999839
 50
270.4940820916082203
 51
270.6553134816091983
  0
ARC
  5
9AA6
  8
0
 10
2089.3341164659818787
 20
246.9394994757003872
 30
0.0
 40
59.0551181102000129
 50
269.3976809093903171
 51
270.6023181169288137
  0
ARC
  5
9AA7
  8
0
 10
2098.3110530408189334
 20
182.110818222312588
 30
0.0
 40
0.2999184240795109
 50
179.9844133137881101
 51
270.0155776143827779
  0
ARC
  5
9AA8
  8
0
 10
2101.6575912946382232
 20
184.026324108517997
 30
0.0
 40
0.3000337749
 50
89.9999995131082784
 51
179.9999995131001072
  0
ARC
  5
9AA9
  8
0
 10
2101.0576966383159743
 20
182.1107606810928132
 30
0.0
 40
0.2998609136855923
 50
269.9798679148190104
 51
0.0265789106542023
  0
ARC
  5
9AAA
  8
0
 10
2098.3110531116381026
 20
187.0972717940184964
 30
0.0
 40
0.299918494877952
 50
89.9844268441666912
 51
180.0155720290183865
  0
ARC
  5
9AAB
  8
0
 10
2106.3188709184091749
 20
184.3656932406404962
 30
0.0
 40
0.0393691717392175
 50
269.9983333794392024
 51
0.0013116708096486
  0
ARC
  5
9AAC
  8
0
 10
2106.3190579504730522
 20
187.3580080431808881
 30
0.0
 40
0.039182615712658
 50
359.7253263135738734
 51
90.2743465050502749
  0
CIRCLE
  5
9AAD
  8
0
 10
2102.832511257745864
 20
186.2456144232133965
 30
0.0
 40
0.3954832699021456
  0
ARC
  5
9AAE
  8
0
 10
2104.4639142789769721
 20
184.3027021550770996
 30
0.0
 40
0.059055119207801
 50
0.5000011125835901
 51
23.5992362980152492
  0
LINE
  5
9AAF
  8
0
 10
2104.5229671495380899
 20
184.303217502817887
 30
0.0
 11
2104.5253784400179029
 21
183.9965871549877932
 31
0.0
  0
LINE
  5
9AB0
  8
0
 10
2104.3551377343419517
 20
183.0192375860241896
 30
0.0
 11
2106.3144854387801388
 21
183.0192376168174064
 31
0.0
  0
ARC
  5
9AB1
  8
0
 10
2089.3462642580338979
 20
174.2864380600298091
 30
0.0
 40
12.8749534129000107
 50
87.9010573579245147
 51
92.0989384168547645
  0
ARC
  5
9AB2
  8
0
 10
2088.8764165391298775
 20
187.1046061145902115
 30
0.0
 40
0.0481771991172198
 50
92.0221043375524062
 51
143.2209963895840872
  0
ARC
  5
9AB3
  8
0
 10
2088.4825471354401998
 20
187.4898272858816028
 30
0.0
 40
0.5032186982639942
 50
293.6620685220412952
 51
314.9119061233503771
  0
ARC
  5
9AB4
  8
0
 10
2088.1243950747798408
 20
188.2744125778046111
 30
0.0
 40
1.365647367411494
 50
282.0556346896403852
 51
294.2139973895863818
  0
ARC
  5
9AB5
  8
0
 10
2088.975171408721053
 20
184.255810887118912
 30
0.0
 40
2.742029176663233
 50
101.9027215008671021
 51
118.0628252241456977
  0
ARC
  5
9AB6
  8
0
 10
2088.18369744722213
 20
185.7036509440482064
 30
0.0
 40
1.0922048413074541
 50
117.155191334374905
 51
146.894666258176386
  0
ARC
  5
9AB7
  8
0
 10
2087.7288865627419909
 20
186.0251350179568135
 30
0.0
 40
0.5360433582835685
 50
149.1279080427520967
 51
176.630533177698112
  0
ARC
  5
9AB8
  8
0
 10
2087.6500536268831638
 20
186.0345369865337091
 30
0.0
 40
0.4568188270158906
 50
177.2266007847273102
 51
195.0222922792846987
  0
ARC
  5
9AB9
  8
0
 10
2088.0112017182427735
 20
186.2208931177850104
 30
0.0
 40
0.8582850341839117
 50
200.7984449420563919
 51
232.0354482918644123
  0
ARC
  5
9ABA
  8
0
 10
2088.9020287054290748
 20
187.6061841652210092
 30
0.0
 40
2.5029413880360472
 50
235.4683325941747114
 51
260.3884815593136182
  0
ARC
  5
9ABB
  8
0
 10
2089.292828946939153
 20
189.2491786676812922
 30
0.0
 40
4.1895934539742203
 50
258.8704533337731277
 51
269.4683845342740938
  0
LINE
  5
9ABC
  8
0
 10
2087.1937698675369575
 20
186.0566406440179037
 30
0.0
 11
2087.1664440778758944
 21
185.5442733049565902
 31
0.0
  0
ARC
  5
9ABD
  8
0
 10
2088.0344837122229364
 20
185.4763888927745086
 30
0.0
 40
0.870690013848532
 50
175.5283262731387879
 51
180.9746599100438118
  0
ARC
  5
9ABE
  8
0
 10
2087.6703779453409879
 20
185.4777696173352979
 30
0.0
 40
0.5067170224220461
 50
181.8311075219127986
 51
199.0680420967254065
  0
ARC
  5
9ABF
  8
0
 10
2088.132770863946007
 20
185.717283355768501
 30
0.0
 40
1.024757175984665
 50
203.2826774068041971
 51
235.7942084552468032
  0
ARC
  5
9AC0
  8
0
 10
2089.1161790231071791
 20
187.4455112351471939
 30
0.0
 40
3.0110437263035439
 50
238.8068776555587931
 51
255.9235164263955937
  0
ARC
  5
9AC1
  8
0
 10
2089.2877847371469215
 20
188.1778447521215014
 30
0.0
 40
3.7631421626846291
 50
256.1010945856385774
 51
269.8651996821121202
  0
ARC
  5
9AC2
  8
0
 10
2089.2246286487738871
 20
187.2527835224985893
 30
0.0
 40
3.0173766681856029
 50
251.8904369216269004
 51
269.916580083548979
  0
ARC
  5
9AC3
  8
0
 10
2089.2176959829771477
 20
187.1846362212212966
 30
0.0
 40
2.9504862952418058
 50
238.0865607832880073
 51
251.6070466103604986
  0
ARC
  5
9AC4
  8
0
 10
2088.4405851768860884
 20
185.7894065302095044
 30
0.0
 40
1.357577001977295
 50
212.7044055588096114
 51
234.7961003908187934
  0
ARC
  5
9AC5
  8
0
 10
2088.1129369944537757
 20
185.554306138362989
 30
0.0
 40
0.9550717305645429
 50
199.9825001517826024
 51
211.4565052111431953
  0
ARC
  5
9AC6
  8
0
 10
2087.8011771329011026
 20
185.4395411035233963
 30
0.0
 40
0.6228631150635652
 50
191.7941943039386956
 51
199.8613364783194015
  0
LINE
  5
9AC7
  8
0
 10
2088.4071594290908251
 20
184.3482515408219911
 30
0.0
 11
2088.4105635680289197
 21
184.3011500563540039
 31
0.0
  0
ARC
  5
9AC8
  8
0
 10
2088.4242601371788624
 20
184.3018930933189949
 30
0.0
 40
0.0137167091681027
 50
183.1052441365337131
 51
241.3895730237877046
  0
ARC
  5
9AC9
  8
0
 10
2088.5479770577690033
 20
184.634580956504891
 30
0.0
 40
0.3685278824528583
 50
249.2967002940424095
 51
264.7037351068283897
  0
ARC
  5
9ACA
  8
0
 10
2088.5170367141540737
 20
184.2921938826773953
 30
0.0
 40
0.0247593857800055
 50
262.8613455511040797
 51
329.532566191699118
  0
LINE
  5
9ACB
  8
0
 10
2088.5383772620380114
 20
184.2796396722179111
 30
0.0
 11
2088.5424716246748176
 21
184.3135278765597036
 31
0.0
  0
LINE
  5
9ACC
  8
0
 10
2089.1066794670960007
 20
184.2377130509752874
 30
0.0
 11
2089.1082023710378053
 21
184.2210963563179007
 31
0.0
  0
ARC
  5
9ACD
  8
0
 10
2089.1226246438841372
 20
184.2231266535181078
 30
0.0
 40
0.014564479419836
 50
188.0131631679149109
 51
225.4745851120900113
  0
ARC
  5
9ACE
  8
0
 10
2089.1792724316160275
 20
184.3732840326381108
 30
0.0
 40
0.1739073503178119
 50
247.3896534223248977
 51
285.9372599561053789
  0
ARC
  5
9ACF
  8
0
 10
2089.2206859821840226
 20
184.2204044111934138
 30
0.0
 40
0.0156814569221245
 50
293.8421350978039754
 51
351.0739943302000938
  0
LINE
  5
9AD0
  8
0
 10
2089.2361775295012194
 20
184.21797129531069
 30
0.0
 11
2089.2378398966379791
 21
184.2339455501179089
 31
0.0
  0
ARC
  5
9AD1
  8
0
 10
2089.8158677538040138
 20
187.104228056943299
 30
0.0
 40
0.0485641901283963
 50
37.5489635354175633
 51
87.7045589155574135
  0
ARC
  5
9AD2
  8
0
 10
2090.1993438626241186
 20
187.4756998952690878
 30
0.0
 40
0.4856796366633406
 50
224.7415791039701105
 51
244.9864155172147946
  0
ARC
  5
9AD3
  8
0
 10
2090.525569768602054
 20
188.1544479631359081
 30
0.0
 40
1.238735459378342
 50
244.5871889847410046
 51
257.5311047624077219
  0
ARC
  5
9AD4
  8
0
 10
2089.6831799951801258
 20
184.1641086228013933
 30
0.0
 40
2.839633479653378
 50
62.6791989089731274
 51
78.3186813675312692
  0
ARC
  5
9AD5
  8
0
 10
2090.471679066220986
 20
185.6611136780429945
 30
0.0
 40
1.147798156197366
 50
34.8148373061724286
 51
63.351056392637652
  0
ARC
  5
9AD6
  8
0
 10
2090.956745950245022
 20
186.0235544081137959
 30
0.0
 40
0.5430225674439871
 50
3.5004617860019631
 51
32.6379079342139207
  0
ARC
  5
9AD7
  8
0
 10
2091.0078300147711161
 20
186.0388654982000105
 30
0.0
 40
0.4912495766194616
 50
324.7384142396575157
 51
2.0816538939965841
  0
ARC
  5
9AD8
  8
0
 10
2090.5369972309081277
 20
186.3768048583634993
 30
0.0
 40
1.070800037715181
 50
297.9158771774227148
 51
324.5180026456486075
  0
ARC
  5
9AD9
  8
0
 10
2089.6445231440980024
 20
188.0430634353888024
 30
0.0
 40
2.9610120303907759
 50
277.3546671111365072
 51
298.0807799511699159
  0
ARC
  5
9ADA
  8
0
 10
2089.3775125805968855
 20
189.3933263657652049
 30
0.0
 40
4.3353218336316637
 50
268.3668584517312183
 51
278.5701762474117231
  0
LINE
  5
9ADB
  8
0
 10
2091.4987554039380484
 20
186.056709511217889
 30
0.0
 11
2091.5282947516379863
 21
185.5030470862178902
 31
0.0
  0
ARC
  5
9ADC
  8
0
 10
2091.0257163375908931
 20
185.4774232098961875
 30
0.0
 40
0.5032312046204918
 50
340.8390530495810822
 51
2.9186884813561189
  0
ARC
  5
9ADD
  8
0
 10
2090.7563040204331628
 20
185.5767502622782104
 30
0.0
 40
0.7903380015170383
 50
315.6997632385337056
 51
340.4477873119766969
  0
ARC
  5
9ADE
  8
0
 10
2089.8966184237760899
 20
186.5472283420889994
 30
0.0
 40
2.0855317078022382
 50
299.6106677741881867
 51
313.1125442586395025
  0
ARC
  5
9ADF
  8
0
 10
2089.6135811917461069
 20
187.5814117905505043
 30
0.0
 40
3.1357145359225949
 50
278.6002141680052091
 51
294.7642627941904721
  0
ARC
  5
9AE0
  8
0
 10
2089.3742242183579947
 20
188.1657021081526011
 30
0.0
 40
3.7521993580480202
 50
268.5447263527726136
 51
280.8804834475076859
  0
ARC
  5
9AE1
  8
0
 10
2089.3833265908351677
 20
187.935435508295086
 30
0.0
 40
3.703618106651188
 50
267.4761290427894096
 51
282.1622912393922888
  0
ARC
  5
9AE2
  8
0
 10
2089.6267996722631324
 20
186.8057288084719119
 30
0.0
 40
2.547972672702997
 50
282.1622912393922888
 51
297.7612393720741011
  0
ARC
  5
9AE3
  8
0
 10
2090.0956707507771171
 20
185.9967915455378886
 30
0.0
 40
1.6142024296390911
 50
296.4084457553008747
 51
315.3493232809552751
  0
ARC
  5
9AE4
  8
0
 10
2090.4291348459701112
 20
185.6506561389236083
 30
0.0
 40
1.1337789151891611
 50
315.9501789448676163
 51
327.4659888282500901
  0
ARC
  5
9AE5
  8
0
 10
2090.6480821606160134
 20
185.5166484456003957
 30
0.0
 40
0.8771341085696018
 50
327.1542911101058166
 51
346.5245629629905011
  0
LINE
  5
9AE6
  8
0
 10
2089.5858166913330933
 20
184.2373569749057935
 30
0.0
 11
2089.5844016339369773
 21
184.2217562082180109
 31
0.0
  0
ARC
  5
9AE7
  8
0
 10
2089.5690531375180399
 20
184.2234617610662042
 30
0.0
 40
0.0154429677475409
 50
303.4763347831723195
 51
353.6592021929786256
  0
ARC
  5
9AE8
  8
0
 10
2089.5132019370021226
 20
184.3902481644562101
 30
0.0
 40
0.1908503800602758
 50
256.4573200990192277
 51
289.7110551133077934
  0
ARC
  5
9AE9
  8
0
 10
2089.4731025289779609
 20
184.2211189182685871
 30
0.0
 40
0.0170448779692268
 50
188.9123394527491087
 51
254.3712128602433893
  0
LINE
  5
9AEA
  8
0
 10
2089.4562634419380629
 20
184.2184782720179044
 30
0.0
 11
2089.4548349061819863
 21
184.2325077962339037
 31
0.0
  0
ARC
  5
9AEB
  8
0
 10
2106.2056855345190343
 20
184.3025916013546919
 30
0.0
 40
0.0594147632935231
 50
156.4569275977517009
 51
179.3963859634158098
  0
LINE
  5
9AEC
  8
0
 10
2106.1462740683377888
 20
184.3032175274178996
 30
0.0
 11
2106.1436091862378817
 21
183.9961942287185934
 31
0.0
  0
LINE
  5
9AED
  8
0
 10
2106.1460852268428425
 20
184.2790801340179883
 30
0.0
 11
2106.3420585470280457
 21
184.2790801371178873
 31
0.0
  0
ARC
  5
9AEE
  8
0
 10
2106.3423022510992269
 20
184.2593940580972003
 30
0.0
 40
0.0196875874318207
 50
359.5049938387932116
 51
90.709257617235636
  0
LINE
  5
9AEF
  8
0
 10
2106.361989103786982
 20
184.2592239695509022
 30
0.0
 11
2106.3538845408729685
 21
183.0583717119114056
 31
0.0
  0
ARC
  5
9AF0
  8
0
 10
2106.3144854381598634
 20
183.058637616817407
 30
0.0
 40
0.0394
 50
270.0000009004643857
 51
359.6133161288714746
  0
ARC
  5
9AF1
  8
0
 10
2106.2985199494100925
 20
184.2593936266696062
 30
0.0
 40
0.0196865097685177
 50
90.0017296071592057
 51
177.9957841287800022
  0
LINE
  5
9AF2
  8
0
 10
2106.2788454827377791
 20
184.2600821236179058
 30
0.0
 11
2106.2738581162598166
 21
184.1172389170623092
 31
0.0
  0
ARC
  5
9AF3
  8
0
 10
2106.1961957202070153
 20
184.1377839610225919
 30
0.0
 40
0.080333969104183
 50
304.6820698911429872
 51
345.1822412554616903
  0
ARC
  5
9AF4
  8
0
 10
2105.8239342684728399
 20
184.5139684272645866
 30
0.0
 40
0.6085081541999906
 50
301.6912723685932178
 51
313.3837918128014053
  0
ARC
  5
9AF5
  8
0
 10
2105.5499794280581227
 20
184.9988515300076983
 30
0.0
 40
1.165211548871832
 50
283.123305008648174
 51
300.6279291639315261
  0
ARC
  5
9AF6
  8
0
 10
2105.6389713454877892
 20
184.5306767717873981
 30
0.0
 40
0.6893379541769185
 50
274.5216719192090977
 51
284.755123537865984
  0
LINE
  5
9AF7
  8
0
 10
2105.693316109936859
 20
183.8434843230178899
 30
0.0
 11
2104.9767065963019377
 21
183.8434528437686879
 31
0.0
  0
LINE
  5
9AF8
  8
0
 10
2088.6024335684742255
 20
189.2998374198674014
 30
0.0
 11
2090.065798383947822
 21
189.2998374074797141
 31
0.0
  0
LINE
  5
9AF9
  8
0
 10
2089.9388400303059825
 20
187.065794463715207
 30
0.0
 11
2098.0111346278381461
 21
186.7345514258232129
 31
0.0
  0
LINE
  5
9AFA
  8
0
 10
2091.3166928523828574
 20
186.4378969866727118
 30
0.0
 11
2098.0111346278381461
 21
186.1632014699262925
 31
0.0
  0
ARC
  5
9AFB
  8
0
 10
2104.4317401755060928
 20
187.3584662180192026
 30
0.0
 40
0.0417239545327501
 50
111.8594285259405012
 51
180.8816304764382892
  0
LINE
  5
9AFC
  8
0
 10
2104.3900211603800017
 20
187.3578242220706045
 30
0.0
 11
2104.3900157875509649
 21
184.3657011516854993
 31
0.0
  0
ARC
  5
9AFD
  8
0
 10
2104.4284809193400179
 20
184.3642988133966014
 30
0.0
 40
0.0384906860976385
 50
177.9120701775636064
 51
260.4835571447060829
  0
LINE
  5
9AFE
  8
0
 10
2098.6811368090761789
 20
188.3479776528504033
 30
0.0
 11
2098.6811368154758384
 21
189.1058516686503879
 31
0.0
  0
LINE
  5
9AFF
  8
0
 10
2098.789352195038191
 20
187.918800076617913
 30
0.0
 11
2098.7893521919718296
 21
188.3184500928823013
 31
0.0
  0
LINE
  5
9B00
  8
0
 10
2098.838564797338222
 20
187.4641194121178955
 30
0.0
 11
2098.8385647938380316
 21
187.8775052389179052
 31
0.0
  0
LINE
  5
9B01
  8
0
 10
2099.0078561365380665
 20
187.3971903867179094
 30
0.0
 11
2099.0078561359378
 21
187.4641194135178921
 31
0.0
  0
LINE
  5
9B02
  8
0
 10
2098.838564797338222
 20
187.4641194121178955
 30
0.0
 11
2100.0196676061150356
 21
187.4641194221179035
 31
0.0
  0
LINE
  5
9B03
  8
0
 10
2098.7106643678757791
 20
188.3184500935504104
 30
0.0
 11
2100.1476955941288907
 21
188.3184500813501927
 31
0.0
  0
LINE
  5
9B04
  8
0
 10
2098.159303826364976
 20
189.1845918305355099
 30
0.0
 11
2100.6989285765880595
 21
189.1845918089661893
 31
0.0
  0
LINE
  5
9B05
  8
0
 10
2098.8385647938380316
 20
187.8775052389179052
 30
0.0
 11
2098.789352195038191
 21
187.918800076617913
 31
0.0
  0
LINE
  5
9B06
  8
0
 10
2098.1593038266159965
 20
189.5782926404679074
 30
0.0
 11
2100.6989285768390801
 21
189.5782926403678914
 31
0.0
  0
ARC
  5
9B07
  8
0
 10
2098.6023966579759872
 20
189.1058516693503861
 30
0.0
 40
0.0787401575
 50
359.9999995131000787
 51
89.9999995131082784
  0
ARC
  5
9B08
  8
0
 10
2098.710664368075868
 20
188.3479776526503997
 30
0.0
 40
0.0295275591
 50
179.9999995131001072
 51
269.999999513108321
  0
LINE
  5
9B09
  8
0
 10
2090.2850805051839416
 20
184.3442595143609992
 30
0.0
 11
2090.2819003976378553
 21
184.3003375187678898
 31
0.0
  0
ARC
  5
9B0A
  8
0
 10
2090.2677193722979609
 20
184.3021313751877983
 30
0.0
 40
0.0142940337398183
 50
292.7223350205546808
 51
352.790550006165688
  0
ARC
  5
9B0B
  8
0
 10
2090.1415908349831625
 20
184.6527290295794046
 30
0.0
 40
0.3868710835372354
 50
275.4194661345107988
 51
289.8947749946407839
  0
ARC
  5
9B0C
  8
0
 10
2090.1754879929299022
 20
184.2922110790592001
 30
0.0
 40
0.0247650689027238
 50
210.5027319049856942
 51
276.1229036905413068
  0
LINE
  5
9B0D
  8
0
 10
2090.1541502867380586
 20
184.2796408391178886
 30
0.0
 11
2090.1502307201790245
 21
184.3120882800666891
 31
0.0
  0
LINE
  5
9B0E
  8
0
 10
2104.5235379448317872
 20
184.2790801340179883
 30
0.0
 11
2104.3275646246470387
 21
184.2790801371178873
 31
0.0
  0
ARC
  5
9B0F
  8
0
 10
2104.3273209205749481
 20
184.2593940580972003
 30
0.0
 40
0.0196875874318207
 50
89.290742382764364
 51
180.4950061612051968
  0
LINE
  5
9B10
  8
0
 10
2104.3076340678871929
 20
184.2592239695509022
 30
0.0
 11
2104.3157386310099355
 21
183.0583716811181034
 31
0.0
  0
ARC
  5
9B11
  8
0
 10
2104.3551377337230406
 20
183.0586375860241901
 30
0.0
 40
0.0394
 50
180.3866838711284117
 51
270.0000009004643857
  0
ARC
  5
9B12
  8
0
 10
2104.3711032222659014
 20
184.2593936266696062
 30
0.0
 40
0.0196865097685177
 50
2.0042158712199298
 51
89.998270392840837
  0
LINE
  5
9B13
  8
0
 10
2104.3907776889368506
 20
184.2600821236179058
 30
0.0
 11
2104.3957650554148131
 21
184.1172389170623092
 31
0.0
  0
ARC
  5
9B14
  8
0
 10
2104.4734274514680692
 20
184.1377839610225919
 30
0.0
 40
0.080333969104183
 50
194.8177587445383097
 51
235.3179301088570128
  0
ARC
  5
9B15
  8
0
 10
2104.8456889032017898
 20
184.5139684272645866
 30
0.0
 40
0.6085081541999906
 50
226.6162081871985947
 51
238.3087276314068106
  0
ARC
  5
9B16
  8
0
 10
2105.1196437436160522
 20
184.9988515300076983
 30
0.0
 40
1.165211548871832
 50
239.3720708360692981
 51
256.876694991351826
  0
ARC
  5
9B17
  8
0
 10
2105.0306518261868405
 20
184.5306767717873981
 30
0.0
 40
0.6893379541769185
 50
255.2448764621339876
 51
265.5116391559861881
  0
ARC
  5
9B18
  8
0
 10
2088.9399298115849888
 20
187.0566662647970873
 30
0.0
 40
2.5569804414560231
 50
232.5047477507243059
 51
261.0183600818074865
  0
ARC
  5
9B19
  8
0
 10
2089.4545315714722165
 20
190.3124859912678062
 30
0.0
 40
5.853217244623421
 50
261.0183600818074865
 51
268.971485744321285
  0
ARC
  5
9B1A
  8
0
 10
2089.4190505631440828
 20
188.3361461842011977
 30
0.0
 40
3.8765589699213701
 50
268.971485744321285
 51
283.2591976463339165
  0
ARC
  5
9B1B
  8
0
 10
2089.5216593087611727
 20
187.9006957587419038
 30
0.0
 40
3.4291825873195751
 50
283.2591976463339165
 51
294.3280727104104812
  0
ARC
  5
9B1C
  8
0
 10
2090.3599116753312046
 20
186.0465952366726015
 30
0.0
 40
1.3943961670782601
 50
294.3280727104104812
 51
318.166672379756676
  0
ARC
  5
9B1D
  8
0
 10
2104.3245302077721135
 20
184.1040932600884048
 30
0.0
 40
0.0159298553228446
 50
186.1690534909336918
 51
226.6691201169049918
  0
ARC
  5
9B1E
  8
0
 10
2104.7378984329920968
 20
184.4341651422805057
 30
0.0
 40
0.5447578481531571
 50
218.8421138660312124
 51
237.0477014411569883
  0
ARC
  5
9B1F
  8
0
 10
2105.0685167124179316
 20
184.97194392630999
 30
0.0
 40
1.1759543124515199
 50
237.7829526161930005
 51
254.5429978622119052
  0
ARC
  5
9B20
  8
0
 10
2104.9208856199438742
 20
184.4974761722079961
 30
0.0
 40
0.6794864083673029
 50
255.8786594801329102
 51
268.4680097219031722
  0
LINE
  5
9B21
  8
0
 10
2104.902719490644813
 20
183.8182326437867005
 30
0.0
 11
2105.7665363369128499
 21
183.8182326437867005
 31
0.0
  0
ARC
  5
9B22
  8
0
 10
2106.3450930764602163
 20
184.1041099377233081
 30
0.0
 40
0.0159298553228446
 50
313.3308798830951218
 51
353.8309465090662798
  0
ARC
  5
9B23
  8
0
 10
2105.9763098048829306
 20
184.3792886591201921
 30
0.0
 40
0.4758339293520885
 50
302.2913263456716777
 51
322.9393447613015837
  0
ARC
  5
9B24
  8
0
 10
2105.6035776952580818
 20
184.97194392630999
 30
0.0
 40
1.1759543124515199
 50
285.4570021377880948
 51
302.2170473838070279
  0
ARC
  5
9B25
  8
0
 10
2105.748370207615153
 20
184.4974761722079961
 30
0.0
 40
0.6794864083673029
 50
271.5319902780968278
 51
284.1213405198669761
  0
LINE
  5
9B26
  8
0
 10
2098.1299038266151911
 20
189.2139918305354911
 30
0.0
 11
2098.1299038266151911
 21
189.5488926404678978
 31
0.0
  0
LINE
  5
9B27
  8
0
 10
2100.7283285768380665
 20
189.2139918089661137
 30
0.0
 11
2100.7283285768380665
 21
189.5488926403679102
 31
0.0
  0
ARC
  5
9B28
  8
0
 10
2098.159303826615087
 20
189.2139918305354911
 30
0.0
 40
0.0294
 50
180.0
 51
269.9999995133687776
  0
ARC
  5
9B29
  8
0
 10
2098.159303826615087
 20
189.5488926404678978
 30
0.0
 40
0.0294
 50
89.9999999977331981
 51
180.0000000000277112
  0
LINE
  5
9B2A
  8
0
 10
2100.1770955943779882
 20
188.3478500815984944
 30
0.0
 11
2100.1770955879769645
 21
189.1058516686503879
 31
0.0
  0
ARC
  5
9B2B
  8
0
 10
2100.1476955943780922
 20
188.3478500813502023
 30
0.0
 40
0.0294
 50
269.9999995135772792
 51
0.000000483853051
  0
LINE
  5
9B2C
  8
0
 10
2100.0688802084150666
 20
187.918800076617913
 30
0.0
 11
2100.0688802114809732
 21
188.3184500928823013
 31
0.0
  0
LINE
  5
9B2D
  8
0
 10
2100.0196676061150356
 20
187.4641194221179035
 30
0.0
 11
2100.019667609615226
 21
187.8775052389179052
 31
0.0
  0
LINE
  5
9B2E
  8
0
 10
2100.019667609615226
 20
187.8775052389179052
 30
0.0
 11
2100.0688802084150666
 21
187.918800076617913
 31
0.0
  0
ARC
  5
9B2F
  8
0
 10
2100.2558357454768156
 20
189.1058516693503861
 30
0.0
 40
0.0787401575
 50
90.0000004868917074
 51
180.0000004868998076
  0
ARC
  5
9B30
  8
0
 10
2100.6989285768381706
 20
189.2139918089661137
 30
0.0
 40
0.0294
 50
269.9999995133687776
 51
0.0000000000276835
  0
ARC
  5
9B31
  8
0
 10
2100.6989285768381706
 20
189.5488926403679102
 30
0.0
 40
0.0294
 50
359.9999999999852776
 51
89.9999999977592609
  0
LINE
  5
9B32
  8
0
 10
2099.8503762669151911
 20
187.3971903867179094
 30
0.0
 11
2099.8503762675150028
 21
187.4641194135178921
 31
0.0
  0
LINE
  5
9B33
  8
0
 10
2106.0826069436561738
 20
188.3479776551259022
 30
0.0
 11
2106.0826069372551501
 21
189.1058516709258868
 31
0.0
  0
LINE
  5
9B34
  8
0
 10
2105.9743915576941617
 20
187.9188000788934971
 30
0.0
 11
2105.9743915607600684
 21
188.3184500951579139
 31
0.0
  0
LINE
  5
9B35
  8
0
 10
2105.9251789553941308
 20
187.4641194143935081
 30
0.0
 11
2105.9251789588929569
 21
187.8775052411934894
 31
0.0
  0
LINE
  5
9B36
  8
0
 10
2105.755887616192922
 20
187.3971903889934083
 30
0.0
 11
2105.7558876167931885
 21
187.464119415793391
 31
0.0
  0
LINE
  5
9B37
  8
0
 10
2105.9251789553941308
 20
187.4641194143935081
 30
0.0
 11
2104.7440761466159529
 21
187.4641194243934876
 31
0.0
  0
LINE
  5
9B38
  8
0
 10
2106.0530793848552094
 20
188.3184500958259093
 30
0.0
 11
2104.6160481586020978
 21
188.3184500836256916
 31
0.0
  0
LINE
  5
9B39
  8
0
 10
2106.6044399263660125
 20
189.184591832811094
 30
0.0
 11
2104.064815176142929
 21
189.1845918112416882
 31
0.0
  0
LINE
  5
9B3A
  8
0
 10
2105.9251789588929569
 20
187.8775052411934894
 30
0.0
 11
2105.9743915576941617
 21
187.9188000788934971
 31
0.0
  0
LINE
  5
9B3B
  8
0
 10
2106.604439926114992
 20
189.5782926427434063
 30
0.0
 11
2104.0648151758919084
 21
189.5782926426433903
 31
0.0
  0
ARC
  5
9B3C
  8
0
 10
2106.1613470947550013
 20
189.1058516716259135
 30
0.0
 40
0.0787401575
 50
90.0000004868917074
 51
180.0000004868998076
  0
ARC
  5
9B3D
  8
0
 10
2106.0530793846551205
 20
188.3479776549258986
 30
0.0
 40
0.0295275591
 50
270.000000486891679
 51
0.0000004868998697
  0
LINE
  5
9B3E
  8
0
 10
2106.6338399261157974
 20
189.2139918328111037
 30
0.0
 11
2106.6338399261157974
 21
189.5488926427433967
 31
0.0
  0
LINE
  5
9B3F
  8
0
 10
2104.035415175892922
 20
189.2139918112416979
 30
0.0
 11
2104.035415175892922
 21
189.5488926426434091
 31
0.0
  0
ARC
  5
9B40
  8
0
 10
2106.6044399261159015
 20
189.2139918328111037
 30
0.0
 40
0.0294
 50
270.0000004866311087
 51
0.0
  0
ARC
  5
9B41
  8
0
 10
2106.6044399261159015
 20
189.5488926427433967
 30
0.0
 40
0.0294
 50
359.9999999999723173
 51
90.0000000022667876
  0
LINE
  5
9B42
  8
0
 10
2104.5866481583530003
 20
188.3478500838739933
 30
0.0
 11
2104.586648164754024
 21
189.1058516709258868
 31
0.0
  0
ARC
  5
9B43
  8
0
 10
2104.6160481583528963
 20
188.3478500836257865
 30
0.0
 40
0.0294
 50
179.999999516146886
 51
270.0000004864227208
  0
LINE
  5
9B44
  8
0
 10
2104.6948635443159219
 20
187.9188000788934971
 30
0.0
 11
2104.6948635412500153
 21
188.3184500951579139
 31
0.0
  0
LINE
  5
9B45
  8
0
 10
2104.7440761466159529
 20
187.4641194243934876
 30
0.0
 11
2104.7440761431162173
 21
187.8775052411934894
 31
0.0
  0
LINE
  5
9B46
  8
0
 10
2104.7440761431162173
 20
187.8775052411934894
 30
0.0
 11
2104.6948635443159219
 21
187.9188000788934971
 31
0.0
  0
ARC
  5
9B47
  8
0
 10
2104.5079080072550823
 20
189.1058516716259135
 30
0.0
 40
0.0787401575
 50
359.9999995131000787
 51
89.9999995131082784
  0
ARC
  5
9B48
  8
0
 10
2104.0648151758941822
 20
189.2139918112416979
 30
0.0
 40
0.0294
 50
179.9999999999722888
 51
270.0000004866311087
  0
ARC
  5
9B49
  8
0
 10
2104.0648151758941822
 20
189.5488926426434944
 30
0.0
 40
0.0294
 50
90.0000000022407391
 51
180.0000000000129887
  0
LINE
  5
9B4A
  8
0
 10
2104.9133674858157974
 20
187.3971903889934083
 30
0.0
 11
2104.9133674852159857
 21
187.464119415793391
 31
0.0
  0
ENDSEC
  0
EOF
