  0
SECTION
  2
HEADER
  9
$ACADVER
  1
AC1009
  9
$INSBASE
 10
3648.050925933239796
 20
145.5556625736763863
 30
0.0
  9
$EXTMIN
 10
3647.1453937779401713
 20
144.5902696901003992
 30
0.0
  9
$EXTMAX
 10
3648.9564580885398755
 20
147.527027925576391
 30
0.0
  9
$LIMMIN
 10
0.0
 20
0.0
  9
$LIMMAX
 10
11.6929133858000007
 20
8.2677165353999982
  9
$ORTHOMODE
 70
     0
  9
$REGENMODE
 70
     1
  9
$FILLMODE
 70
     1
  9
$QTEXTMODE
 70
     0
  9
$MIRRTEXT
 70
     0
  9
$DRAGMODE
 70
     2
  9
$LTSCALE
 40
0.6431102362
  9
$OSMODE
 70
  3839
  9
$ATTMODE
 70
     1
  9
$TEXTSIZE
 40
0.2
  9
$TRACEWID
 40
0.05
  9
$TEXTSTYLE
  7
STANDARD
  9
$CLAYER
  8
0
  9
$CELTYPE
  6
BYLAYER
  9
$CECOLOR
 62
   256
  9
$DIMSCALE
 40
1.0
  9
$DIMASZ
 40
0.1875
  9
$DIMEXO
 40
0.0625
  9
$DIMDLI
 40
0.4443307087
  9
$DIMRND
 40
0.0
  9
$DIMDLE
 40
0.0
  9
$DIMEXE
 40
0.125
  9
$DIMTP
 40
0.01
  9
$DIMTM
 40
0.01
  9
$DIMTXT
 40
2.0
  9
$DIMCEN
 40
0.1052362205
  9
$DIMTSZ
 40
0.0
  9
$DIMTOL
 70
     1
  9
$DIMLIM
 70
     0
  9
$DIMTIH
 70
     1
  9
$DIMTOH
 70
     1
  9
$DIMSE1
 70
     0
  9
$DIMSE2
 70
     0
  9
$DIMTAD
 70
     0
  9
$DIMZIN
 70
     0
  9
$DIMBLK
  1

  9
$DIMASO
 70
     1
  9
$DIMSHO
 70
     1
  9
$DIMPOST
  1
\X
  9
$DIMAPOST
  1

  9
$DIMALT
 70
     1
  9
$DIMALTD
 70
     2
  9
$DIMALTF
 40
25.3999999999999986
  9
$DIMLFAC
 40
1.0
  9
$DIMTOFL
 70
     0
  9
$DIMTVP
 40
0.0
  9
$DIMTIX
 70
     0
  9
$DIMSOXD
 70
     0
  9
$DIMSAH
 70
     0
  9
$DIMBLK1
  1

  9
$DIMBLK2
  1

  9
$DIMSTYLE
  2
STANDARD
  9
$DIMCLRD
 70
     0
  9
$DIMCLRE
 70
     0
  9
$DIMCLRT
 70
     0
  9
$DIMTFAC
 40
1.0
  9
$DIMGAP
 40
0.09
  9
$LUNITS
 70
     2
  9
$LUPREC
 70
     4
  9
$SKETCHINC
 40
0.1
  9
$FILLETRAD
 40
0.0
  9
$AUNITS
 70
     0
  9
$AUPREC
 70
     0
  9
$MENU
  1
.
  9
$ELEVATION
 40
0.0
  9
$PELEVATION
 40
0.0
  9
$THICKNESS
 40
0.0
  9
$LIMCHECK
 70
     0
  9
$BLIPMODE
 70
     0
  9
$CHAMFERA
 40
0.0
  9
$CHAMFERB
 40
0.0
  9
$SKPOLY
 70
     0
  9
$TDCREATE
 40
2458060.468368056230247
  9
$TDUPDATE
 40
2459145.8663194449618459
  9
$TDINDWG
 40
0.7250765045999999
  9
$TDUSRTIMER
 40
0.7250765045999999
  9
$USRTIMER
 70
     1
  9
$ANGBASE
 50
0.0
  9
$ANGDIR
 70
     0
  9
$PDMODE
 70
     0
  9
$PDSIZE
 40
0.3125
  9
$PLINEWID
 40
0.0
  9
$COORDS
 70
     1
  9
$SPLFRAME
 70
     0
  9
$SPLINETYPE
 70
     6
  9
$SPLINESEGS
 70
     8
  9
$ATTDIA
 70
     1
  9
$ATTREQ
 70
     1
  9
$HANDLING
 70
     1
  9
$HANDSEED
  5
10349
  9
$SURFTAB1
 70
     6
  9
$SURFTAB2
 70
     6
  9
$SURFTYPE
 70
     6
  9
$SURFU
 70
     6
  9
$SURFV
 70
     6
  9
$UCSNAME
  2

  9
$UCSORG
 10
0.0
 20
0.0
 30
0.0
  9
$UCSXDIR
 10
1.0
 20
0.0
 30
0.0
  9
$UCSYDIR
 10
0.0
 20
1.0
 30
0.0
  9
$PUCSNAME
  2

  9
$PUCSORG
 10
0.0
 20
0.0
 30
0.0
  9
$PUCSXDIR
 10
1.0
 20
0.0
 30
0.0
  9
$PUCSYDIR
 10
0.0
 20
1.0
 30
0.0
  9
$USERI1
 70
     0
  9
$USERI2
 70
     0
  9
$USERI3
 70
     0
  9
$USERI4
 70
     0
  9
$USERI5
 70
     0
  9
$USERR1
 40
0.0
  9
$USERR2
 40
0.0
  9
$USERR3
 40
0.0
  9
$USERR4
 40
0.0
  9
$USERR5
 40
0.0
  9
$WORLDVIEW
 70
     1
  9
$SHADEDGE
 70
     3
  9
$SHADEDIF
 70
    70
  9
$TILEMODE
 70
     1
  9
$MAXACTVP
 70
    64
  9
$PLIMCHECK
 70
     0
  9
$PEXTMIN
 10
1.0000000000000000E+20
 20
1.0000000000000000E+20
 30
1.0000000000000000E+20
  9
$PEXTMAX
 10
-1.0000000000000000E+20
 20
-1.0000000000000000E+20
 30
-1.0000000000000000E+20
  9
$PLIMMIN
 10
0.0
 20
0.0
  9
$PLIMMAX
 10
12.0
 20
9.0
  9
$UNITMODE
 70
     0
  9
$VISRETAIN
 70
     1
  9
$PLINEGEN
 70
     0
  9
$PSLTSCALE
 70
     1
  0
ENDSEC
  0
SECTION
  2
TABLES
  0
TABLE
  2
VPORT
 70
     1
  0
VPORT
  2
*ACTIVE
 70
     0
 10
0.0
 20
0.0
 11
1.0
 21
1.0
 12
0.0
 22
0.0
 13
0.0
 23
0.0
 14
1.0
 24
1.0
 15
0.0
 25
0.0
 16
0.0
 26
0.0
 36
13.5529083648327902
 17
3648.051025390625
 27
146.0598526000975994
 37
0.0
 40
3.4482180860387981
 41
3.1182994454713491
 42
50.0
 43
0.0
 44
0.0
 50
0.0
 51
0.0
 71
     0
 72
   100
 73
     1
 74
     1
 75
     0
 76
     0
 77
     0
 78
     0
  0
ENDTAB
  0
TABLE
  2
LTYPE
 70
     2
  0
LTYPE
  2
CONTINUOUS
 70
     0
  3
Solid line
 72
    65
 73
     0
 40
0.0
  0
LTYPE
  2
PHANTOM2
 70
     0
  3
___ _ _ ___ _ _ ___ _ _ ___ _ _
 72
    65
 73
     6
 40
1.25
 49
0.625
 49
-0.125
 49
0.125
 49
-0.125
 49
0.125
 49
-0.125
  0
ENDTAB
  0
TABLE
  2
LAYER
 70
     2
  0
LAYER
  2
0
 70
     0
 62
   255
  6
CONTINUOUS
  0
LAYER
  2
DEFPOINTS
 70
     0
 62
     7
  6
CONTINUOUS
  0
ENDTAB
  0
TABLE
  2
STYLE
 70
     1
  0
STYLE
  2
STANDARD
 70
     0
 40
0.0
 41
0.8
 50
0.0
 71
     0
 42
0.2
  3
txt
  4

  0
ENDTAB
  0
TABLE
  2
VIEW
 70
     0
  0
ENDTAB
  0
TABLE
  2
UCS
 70
     0
  0
ENDTAB
  0
TABLE
  2
APPID
 70
    10
  0
APPID
  2
ACAD
 70
     0
  0
APPID
  2
ACAD_MLEADERVER
 70
     0
  0
APPID
  2
ACAD_EXEMPT_FROM_CAD_STANDARDS
 70
     0
  0
APPID
  2
ACAD_NAV_VCDISPLAY
 70
     0
  0
APPID
  2
ACAECLAYERSTANDARD
 70
     0
  0
APPID
  2
ACCMTRANSPARENCY
 70
     0
  0
APPID
  2
ACAD_DSTYLE_DIMJAG
 70
     0
  0
APPID
  2
ACAD_DSTYLE_DIMTALN
 70
     0
  0
APPID
  2
ACDBATTR
 70
     0
  0
APPID
  2
ACAD_PSEXT
 70
     0
  0
ENDTAB
  0
TABLE
  2
DIMSTYLE
 70
     1
  0
DIMSTYLE
  2
STANDARD
 70
     0
  3

  4

  5

  6

  7

 40
1.0
 41
0.1875
 42
0.0625
 43
0.38
 44
0.125
 45
0.0
 46
0.0
 47
0.01
 48
0.01
140
0.15625
141
0.09
142
0.0
143
25.3999999999999986
144
1.0
145
0.0
146
1.0
147
0.09
 71
     1
 72
     0
 73
     1
 74
     1
 75
     0
 76
     0
 77
     0
 78
     4
170
     0
171
     2
172
     0
173
     0
174
     0
175
     0
176
     0
177
     0
178
     0
  0
ENDTAB
  0
ENDSEC
  0
SECTION
  2
BLOCKS
  0
BLOCK
  8
0
  2
$MODEL_SPACE
 70
     0
 10
0.0
 20
0.0
 30
0.0
  3
$MODEL_SPACE
  1

  0
ENDBLK
  5
21
  8
0
  0
BLOCK
 67
     1
  8
0
  2
$PAPER_SPACE
 70
     0
 10
0.0
 20
0.0
 30
0.0
  3
$PAPER_SPACE
  1

  0
ENDBLK
  5
1D
 67
     1
  8
0
  0
BLOCK
  8
0
  2
_FILLED
 70
     0
 10
0.0
 20
0.0
 30
0.0
  3
_FILLED
  1

  0
SOLID
  5
B630
  8
0
  6
BYBLOCK
 62
     0
 10
0.0
 20
0.0
 30
0.0
 11
-1.0
 21
0.1666666667
 31
0.0
 12
-1.0
 22
-0.1666666667
 32
0.0
 13
-1.0
 23
-0.1666666667
 33
0.0
  0
ENDBLK
  5
B631
  8
0
  6
BYBLOCK
 62
     0
  0
ENDSEC
  0
SECTION
  2
ENTITIES
  0
ATTDEF
  5
AA11
  8
DEFPOINTS
 10
3648.0512364698911369
 20
145.5540597810943098
 30
0.0
 40
0.001
  1
K-23513IN-4
  3

  2
MODELNUMBER
 70
     0
1001
ACDBATTR
1070
     0
1070
     1
  0
ATTDEF
  5
AA12
  8
DEFPOINTS
 10
3648.0512364698911369
 20
145.5523931144275878
 30
0.0
 40
0.001
  1

  3

  2
TRADENAME
 70
     0
1001
ACDBATTR
1070
     0
1070
     1
  0
ATTDEF
  5
AA13
  8
DEFPOINTS
 10
3648.0512364698911369
 20
145.5507264477608942
 30
0.0
 40
0.001
  1
BATHROOM SINK FAUCET
  3

  2
PRODUCT
 70
     0
1001
ACDBATTR
1070
     0
1070
     1
  0
LINE
  5
FDFB
  8
0
 10
3648.9564580885398755
 20
146.1646683454679021
 30
0.0
 11
3648.9564580885398755
 21
144.9466568018848136
 31
0.0
  0
LINE
  5
FDFC
  8
0
 10
3648.6808471930899032
 20
147.4787630807585117
 30
0.0
 11
3648.6808471930899032
 21
146.4804397553193098
 31
0.0
  0
LINE
  5
FDFD
  8
0
 10
3648.6808471930899032
 20
146.3900699704784927
 30
0.0
 11
3648.6808471930899032
 21
144.8479943829069896
 31
0.0
  0
LINE
  5
FDFE
  8
0
 10
3648.6510107952899489
 20
147.2908074530764111
 30
0.0
 11
3647.4508410711900979
 21
147.2908074530764111
 31
0.0
  0
LINE
  5
FDFF
  8
0
 10
3648.6620076649351176
 20
146.4640357994763917
 30
0.0
 11
3647.4398442015449291
 21
146.4640357994763917
 31
0.0
  0
LINE
  5
FE00
  8
0
 10
3648.6611731988459724
 20
146.4077592287763991
 30
0.0
 11
3647.4406786676349839
 21
146.4077592287763991
 31
0.0
  0
LINE
  5
FE01
  8
0
 10
3648.6410269546818199
 20
145.3754620625263954
 30
0.0
 11
3647.4608249117991363
 21
145.3754620625263954
 31
0.0
  0
ARC
  5
FE03
  8
0
 10
3648.6564383322979666
 20
146.1611749796217055
 30
0.0
 40
0.300040093555261
 50
0.6671096497135512
 51
90.0001123054187673
  0
ARC
  5
FE05
  8
0
 10
3648.641445606166144
 20
147.4769685771159118
 30
0.0
 40
0.0394424301414062
 50
2.6076737424937351
 51
88.2183525320028252
  0
ARC
  5
FE06
  8
0
 10
3648.6509080383330001
 20
147.3207464979728911
 30
0.0
 40
0.0299392212374548
 50
270.1966501210185925
 51
0.1207438538553342
  0
ARC
  5
FE07
  8
0
 10
3648.6508833626899104
 20
144.8495053658263885
 30
0.0
 40
0.0300019033
 50
270.2430778768820119
 51
357.1131970278573249
  0
ARC
  5
FE08
  8
0
 10
3648.6406405612237904
 20
145.335256763199709
 30
0.0
 40
0.0402071560030119
 50
0.2925557172446942
 51
89.4493752513081404
  0
ARC
  5
FE09
  8
0
 10
3648.3732842665472162
 20
144.7853214133662902
 30
0.0
 40
0.1454040445926078
 50
296.0561529877468843
 51
322.165103954699191
  0
ARC
  5
FE0A
  8
0
 10
3648.2168915934089455
 20
145.117133512397686
 30
0.0
 40
0.5122147700227992
 50
279.5104296140725069
 51
295.4687137422528167
  0
ARC
  5
FE0B
  8
0
 10
3648.2011396829047953
 20
144.9753660965616007
 30
0.0
 40
0.3608904860580113
 50
273.9615900301724878
 51
303.2540172503931899
  0
ARC
  5
FE0C
  8
0
 10
3648.380378722587011
 20
144.6981513555693084
 30
0.0
 40
0.0308573492569449
 50
307.1990790041502919
 51
57.8520703321067984
  0
ARC
  5
FE0D
  8
0
 10
3648.271639519683049
 20
144.5582796324763137
 30
0.0
 40
0.2078941872907501
 50
52.9845486223142998
 51
75.4019217937854194
  0
ARC
  5
FE0E
  8
0
 10
3648.1273240197870109
 20
144.0812926732241976
 30
0.0
 40
0.7061233081094458
 50
73.8244700175221311
 51
82.8125034803747582
  0
ARC
  5
FE0F
  8
0
 10
3648.1221332639420325
 20
145.334079579998587
 30
0.0
 40
0.6965670721663128
 50
274.0607582326741749
 51
289.4782122990067137
  0
ARC
  5
FE10
  8
0
 10
3648.31398021888117
 20
144.7916650717070866
 30
0.0
 40
0.1212247802004799
 50
289.4782122990067137
 51
320.0705776383458101
  0
ARC
  5
FE11
  8
0
 10
3648.0982348683628516
 20
145.2816788671316033
 30
0.0
 40
0.6167723324597583
 50
273.4847547625604989
 51
288.7928943551190741
  0
ARC
  5
FE12
  8
0
 10
3648.2670236595299684
 20
144.789010408113711
 30
0.0
 40
0.0959994481161169
 50
288.1493582600056129
 51
319.4457112216110772
  0
ARC
  5
FE13
  8
0
 10
3648.3209203616620471
 20
144.7400786472931031
 30
0.0
 40
0.0233333500501442
 50
324.6979582229237735
 51
39.7832084423956829
  0
ARC
  5
FE14
  8
0
 10
3648.0983033991519733
 20
145.2412483990694909
 30
0.0
 40
0.5715366510499428
 50
273.8860941103445725
 51
288.272177627850624
  0
ARC
  5
FE15
  8
0
 10
3648.2465957301587878
 20
144.7965182082826061
 30
0.0
 40
0.1027456623280291
 50
287.5035846240983233
 51
317.4074775413411089
  0
ARC
  5
FE16
  8
0
 10
3648.3051166887139516
 20
144.7396950234964947
 30
0.0
 40
0.0213231671696193
 50
323.4013007611018224
 51
38.5962090926857329
  0
ARC
  5
FE17
  8
0
 10
3648.2825280147671947
 20
144.723636997124089
 30
0.0
 40
0.0490192865603686
 50
36.7946039931253566
 51
53.1379814479224279
  0
ARC
  5
FE18
  8
0
 10
3648.1973685918328556
 20
145.0226947463339116
 30
0.0
 40
0.3442235097456656
 50
276.6710513540188003
 51
298.171803713597285
  0
ARC
  5
FE19
  8
0
 10
3648.3224928816989632
 20
144.782058885538305
 30
0.0
 40
0.0730958894797681
 50
300.7646479433769855
 51
321.0460808082788731
  0
ARC
  5
FE1A
  8
0
 10
3648.1068050907661018
 20
145.2131132281429871
 30
0.0
 40
0.523731154634297
 50
274.3425804617214112
 51
290.0851052377096835
  0
ARC
  5
FE1B
  8
0
 10
3648.2562287866330735
 20
144.801292249505309
 30
0.0
 40
0.085648170225219
 50
290.8139313077464863
 51
322.5330421936100151
  0
LINE
  5
FE1C
  8
0
 10
3648.0712229591399591
 20
144.6928559830263907
 30
0.0
 11
3648.0626990870400732
 21
144.6967268886263867
 31
0.0
  0
LINE
  5
FE1D
  8
0
 10
3648.0626990870400732
 20
144.6967268886263867
 30
0.0
 11
3648.0712229591399591
 21
144.700597794226411
 31
0.0
  0
LINE
  5
FE1E
  8
0
 10
3648.0712229591399591
 20
144.700597794226411
 30
0.0
 11
3648.0882707032401413
 21
144.700597794226411
 31
0.0
  0
LINE
  5
FE1F
  8
0
 10
3648.0882707032401413
 20
144.700597794226411
 30
0.0
 11
3648.0967945753400272
 21
144.6967268886263867
 31
0.0
  0
LINE
  5
FE20
  8
0
 10
3648.0967945753400272
 20
144.6967268886263867
 30
0.0
 11
3648.0882707032401413
 21
144.6928559830263907
 31
0.0
  0
LINE
  5
FE21
  8
0
 10
3648.0882707032401413
 20
144.6928559830263907
 30
0.0
 11
3648.0712229591399591
 21
144.6928559830263907
 31
0.0
  0
LINE
  5
FE22
  8
0
 10
3648.0712229591399591
 20
144.7031783979263935
 30
0.0
 11
3648.0626990870400732
 21
144.7070493035263894
 31
0.0
  0
LINE
  5
FE23
  8
0
 10
3648.0626990870400732
 20
144.7070493035263894
 30
0.0
 11
3648.0712229591399591
 21
144.7109202091264137
 31
0.0
  0
LINE
  5
FE24
  8
0
 10
3648.0712229591399591
 20
144.7109202091264137
 30
0.0
 11
3648.0882707032401413
 21
144.7109202091264137
 31
0.0
  0
LINE
  5
FE25
  8
0
 10
3648.0882707032401413
 20
144.7109202091264137
 30
0.0
 11
3648.0967945753400272
 21
144.7070493035263894
 31
0.0
  0
LINE
  5
FE26
  8
0
 10
3648.0967945753400272
 20
144.7070493035263894
 30
0.0
 11
3648.0882707032401413
 21
144.7031783979263935
 31
0.0
  0
LINE
  5
FE27
  8
0
 10
3648.0882707032401413
 20
144.7031783979263935
 30
0.0
 11
3648.0712229591399591
 21
144.7031783979263935
 31
0.0
  0
LINE
  5
FE28
  8
0
 10
3648.0712229591399591
 20
144.7135008128263962
 30
0.0
 11
3648.0626990870400732
 21
144.7173717184263921
 31
0.0
  0
LINE
  5
FE29
  8
0
 10
3648.0626990870400732
 20
144.7173717184263921
 30
0.0
 11
3648.0712229591399591
 21
144.7212426240263881
 31
0.0
  0
LINE
  5
FE2A
  8
0
 10
3648.0712229591399591
 20
144.7212426240263881
 30
0.0
 11
3648.0882707032401413
 21
144.7212426240263881
 31
0.0
  0
LINE
  5
FE2B
  8
0
 10
3648.0882707032401413
 20
144.7212426240263881
 30
0.0
 11
3648.0967945753400272
 21
144.7173717184263921
 31
0.0
  0
LINE
  5
FE2C
  8
0
 10
3648.0967945753400272
 20
144.7173717184263921
 30
0.0
 11
3648.0882707032401413
 21
144.7135008128263962
 31
0.0
  0
LINE
  5
FE2D
  8
0
 10
3648.0882707032401413
 20
144.7135008128263962
 30
0.0
 11
3648.0712229591399591
 21
144.7135008128263962
 31
0.0
  0
LINE
  5
FE2E
  8
0
 10
3648.0712229591399591
 20
144.723823227726399
 30
0.0
 11
3648.0626990870400732
 21
144.7276941333263949
 31
0.0
  0
LINE
  5
FE2F
  8
0
 10
3648.0626990870400732
 20
144.7276941333263949
 30
0.0
 11
3648.0712229591399591
 21
144.7315650389263908
 31
0.0
  0
LINE
  5
FE30
  8
0
 10
3648.0712229591399591
 20
144.7315650389263908
 30
0.0
 11
3648.0882707032401413
 21
144.7315650389263908
 31
0.0
  0
LINE
  5
FE31
  8
0
 10
3648.0882707032401413
 20
144.7315650389263908
 30
0.0
 11
3648.0967945753400272
 21
144.7276941333263949
 31
0.0
  0
LINE
  5
FE32
  8
0
 10
3648.0967945753400272
 20
144.7276941333263949
 30
0.0
 11
3648.0882707032401413
 21
144.723823227726399
 31
0.0
  0
LINE
  5
FE33
  8
0
 10
3648.0882707032401413
 20
144.723823227726399
 30
0.0
 11
3648.0712229591399591
 21
144.723823227726399
 31
0.0
  0
LINE
  5
FE34
  8
0
 10
3648.0712229591399591
 20
144.7341456426264017
 30
0.0
 11
3648.0626990870400732
 21
144.7380165482263976
 31
0.0
  0
LINE
  5
FE35
  8
0
 10
3648.0626990870400732
 20
144.7380165482263976
 30
0.0
 11
3648.0712229591399591
 21
144.7418874538263935
 31
0.0
  0
LINE
  5
FE36
  8
0
 10
3648.0712229591399591
 20
144.7418874538263935
 30
0.0
 11
3648.0882707032401413
 21
144.7418874538263935
 31
0.0
  0
LINE
  5
FE37
  8
0
 10
3648.0882707032401413
 20
144.7418874538263935
 30
0.0
 11
3648.0967945753400272
 21
144.7380165482263976
 31
0.0
  0
LINE
  5
FE38
  8
0
 10
3648.0967945753400272
 20
144.7380165482263976
 30
0.0
 11
3648.0882707032401413
 21
144.7341456426264017
 31
0.0
  0
LINE
  5
FE39
  8
0
 10
3648.0882707032401413
 20
144.7341456426264017
 30
0.0
 11
3648.0712229591399591
 21
144.7341456426264017
 31
0.0
  0
LINE
  5
FE3A
  8
0
 10
3648.0712229591399591
 20
144.7444680575264044
 30
0.0
 11
3648.0626990870400732
 21
144.7483389631264004
 31
0.0
  0
LINE
  5
FE3B
  8
0
 10
3648.0626990870400732
 20
144.7483389631264004
 30
0.0
 11
3648.0712229591399591
 21
144.7522098687263963
 31
0.0
  0
LINE
  5
FE3C
  8
0
 10
3648.0712229591399591
 20
144.7522098687263963
 30
0.0
 11
3648.0882707032401413
 21
144.7522098687263963
 31
0.0
  0
LINE
  5
FE3D
  8
0
 10
3648.0882707032401413
 20
144.7522098687263963
 30
0.0
 11
3648.0967945753400272
 21
144.7483389631264004
 31
0.0
  0
LINE
  5
FE3E
  8
0
 10
3648.0967945753400272
 20
144.7483389631264004
 30
0.0
 11
3648.0882707032401413
 21
144.7444680575264044
 31
0.0
  0
LINE
  5
FE3F
  8
0
 10
3648.0882707032401413
 20
144.7444680575264044
 30
0.0
 11
3648.0712229591399591
 21
144.7444680575264044
 31
0.0
  0
LINE
  5
FE40
  8
0
 10
3648.0712229591399591
 20
144.7547904724264072
 30
0.0
 11
3648.0626990870400732
 21
144.7586613780264031
 31
0.0
  0
LINE
  5
FE41
  8
0
 10
3648.0626990870400732
 20
144.7586613780264031
 30
0.0
 11
3648.0712229591399591
 21
144.762532283626399
 31
0.0
  0
LINE
  5
FE42
  8
0
 10
3648.0712229591399591
 20
144.762532283626399
 30
0.0
 11
3648.0882707032401413
 21
144.762532283626399
 31
0.0
  0
LINE
  5
FE43
  8
0
 10
3648.0882707032401413
 20
144.762532283626399
 30
0.0
 11
3648.0967945753400272
 21
144.7586613780264031
 31
0.0
  0
LINE
  5
FE44
  8
0
 10
3648.0967945753400272
 20
144.7586613780264031
 30
0.0
 11
3648.0882707032401413
 21
144.7547904724264072
 31
0.0
  0
LINE
  5
FE45
  8
0
 10
3648.0882707032401413
 20
144.7547904724264072
 30
0.0
 11
3648.0712229591399591
 21
144.7547904724264072
 31
0.0
  0
LINE
  5
FE46
  8
0
 10
3648.0712229591399591
 20
144.7651128873264099
 30
0.0
 11
3648.0626990870400732
 21
144.7689837929264058
 31
0.0
  0
LINE
  5
FE47
  8
0
 10
3648.0626990870400732
 20
144.7689837929264058
 30
0.0
 11
3648.0712229591399591
 21
144.7728546985264018
 31
0.0
  0
LINE
  5
FE48
  8
0
 10
3648.0712229591399591
 20
144.7728546985264018
 30
0.0
 11
3648.0882707032401413
 21
144.7728546985264018
 31
0.0
  0
LINE
  5
FE49
  8
0
 10
3648.0882707032401413
 20
144.7728546985264018
 30
0.0
 11
3648.0967945753400272
 21
144.7689837929264058
 31
0.0
  0
LINE
  5
FE4A
  8
0
 10
3648.0967945753400272
 20
144.7689837929264058
 30
0.0
 11
3648.0882707032401413
 21
144.7651128873264099
 31
0.0
  0
LINE
  5
FE4B
  8
0
 10
3648.0882707032401413
 20
144.7651128873264099
 30
0.0
 11
3648.0712229591399591
 21
144.7651128873264099
 31
0.0
  0
LINE
  5
FE4C
  8
0
 10
3648.0712229591399591
 20
144.7754353022264127
 30
0.0
 11
3648.0626990870400732
 21
144.7793062078264086
 31
0.0
  0
LINE
  5
FE4D
  8
0
 10
3648.0626990870400732
 20
144.7793062078264086
 30
0.0
 11
3648.0712229591399591
 21
144.7831771134264045
 31
0.0
  0
LINE
  5
FE4E
  8
0
 10
3648.0712229591399591
 20
144.7831771134264045
 30
0.0
 11
3648.0882707032401413
 21
144.7831771134264045
 31
0.0
  0
LINE
  5
FE4F
  8
0
 10
3648.0882707032401413
 20
144.7831771134264045
 30
0.0
 11
3648.0967945753400272
 21
144.7793062078264086
 31
0.0
  0
LINE
  5
FE50
  8
0
 10
3648.0967945753400272
 20
144.7793062078264086
 30
0.0
 11
3648.0882707032401413
 21
144.7754353022264127
 31
0.0
  0
LINE
  5
FE51
  8
0
 10
3648.0882707032401413
 20
144.7754353022264127
 30
0.0
 11
3648.0712229591399591
 21
144.7754353022264127
 31
0.0
  0
LINE
  5
FE52
  8
0
 10
3648.0712229591399591
 20
144.785757717226403
 30
0.0
 11
3648.0626990870400732
 21
144.7896286228263989
 31
0.0
  0
LINE
  5
FE53
  8
0
 10
3648.0626990870400732
 20
144.7896286228263989
 30
0.0
 11
3648.0683747679308908
 21
144.7922060928640917
 31
0.0
  0
LINE
  5
FE54
  8
0
 10
3648.0923089275152051
 20
144.7916656687933141
 30
0.0
 11
3648.0967945753400272
 21
144.7896286228263989
 31
0.0
  0
LINE
  5
FE55
  8
0
 10
3648.0967945753400272
 20
144.7896286228263989
 30
0.0
 11
3648.0882707032401413
 21
144.785757717226403
 31
0.0
  0
LINE
  5
FE56
  8
0
 10
3648.0882707032401413
 20
144.785757717226403
 30
0.0
 11
3648.0712229591399591
 21
144.785757717226403
 31
0.0
  0
LINE
  5
FE57
  8
0
 10
3648.1053184474899354
 20
144.6876947755264098
 30
0.0
 11
3648.0967945753900494
 21
144.6915656811264057
 31
0.0
  0
LINE
  5
FE58
  8
0
 10
3648.0967945753900494
 20
144.6915656811264057
 30
0.0
 11
3648.1053184474899354
 21
144.6954365867264016
 31
0.0
  0
LINE
  5
FE59
  8
0
 10
3648.1053184474899354
 20
144.6954365867264016
 30
0.0
 11
3648.1223661915901175
 21
144.6954365867264016
 31
0.0
  0
LINE
  5
FE5A
  8
0
 10
3648.1223661915901175
 20
144.6954365867264016
 30
0.0
 11
3648.1308900636900034
 21
144.6915656811264057
 31
0.0
  0
LINE
  5
FE5B
  8
0
 10
3648.1308900636900034
 20
144.6915656811264057
 30
0.0
 11
3648.1223661915901175
 21
144.6876947755264098
 31
0.0
  0
LINE
  5
FE5C
  8
0
 10
3648.1223661915901175
 20
144.6876947755264098
 30
0.0
 11
3648.1053184474899354
 21
144.6876947755264098
 31
0.0
  0
LINE
  5
FE5D
  8
0
 10
3648.1053184474899354
 20
144.6980171904264125
 30
0.0
 11
3648.0967945753900494
 21
144.7018880960264084
 31
0.0
  0
LINE
  5
FE5E
  8
0
 10
3648.0967945753900494
 20
144.7018880960264084
 30
0.0
 11
3648.1053184474899354
 21
144.7057590016264044
 31
0.0
  0
LINE
  5
FE5F
  8
0
 10
3648.1053184474899354
 20
144.7057590016264044
 30
0.0
 11
3648.1223661915901175
 21
144.7057590016264044
 31
0.0
  0
LINE
  5
FE60
  8
0
 10
3648.1223661915901175
 20
144.7057590016264044
 30
0.0
 11
3648.1308900636900034
 21
144.7018880960264084
 31
0.0
  0
LINE
  5
FE61
  8
0
 10
3648.1308900636900034
 20
144.7018880960264084
 30
0.0
 11
3648.1223661915901175
 21
144.6980171904264125
 31
0.0
  0
LINE
  5
FE62
  8
0
 10
3648.1223661915901175
 20
144.6980171904264125
 30
0.0
 11
3648.1053184474899354
 21
144.6980171904264125
 31
0.0
  0
LINE
  5
FE63
  8
0
 10
3648.1053184474899354
 20
144.7083396053263868
 30
0.0
 11
3648.0967945753900494
 21
144.7122105109264112
 31
0.0
  0
LINE
  5
FE64
  8
0
 10
3648.0967945753900494
 20
144.7122105109264112
 30
0.0
 11
3648.1053184474899354
 21
144.7160814165264071
 31
0.0
  0
LINE
  5
FE65
  8
0
 10
3648.1053184474899354
 20
144.7160814165264071
 30
0.0
 11
3648.1223661915901175
 21
144.7160814165264071
 31
0.0
  0
LINE
  5
FE66
  8
0
 10
3648.1223661915901175
 20
144.7160814165264071
 30
0.0
 11
3648.1308900636900034
 21
144.7122105109264112
 31
0.0
  0
LINE
  5
FE67
  8
0
 10
3648.1308900636900034
 20
144.7122105109264112
 30
0.0
 11
3648.1223661915901175
 21
144.7083396053263868
 31
0.0
  0
LINE
  5
FE68
  8
0
 10
3648.1223661915901175
 20
144.7083396053263868
 30
0.0
 11
3648.1053184474899354
 21
144.7083396053263868
 31
0.0
  0
LINE
  5
FE69
  8
0
 10
3648.1053184474899354
 20
144.7186620202263896
 30
0.0
 11
3648.0967945753900494
 21
144.7225329258264139
 31
0.0
  0
LINE
  5
FE6A
  8
0
 10
3648.0967945753900494
 20
144.7225329258264139
 30
0.0
 11
3648.1053184474899354
 21
144.7264038314264099
 31
0.0
  0
LINE
  5
FE6B
  8
0
 10
3648.1053184474899354
 20
144.7264038314264099
 30
0.0
 11
3648.1223661915901175
 21
144.7264038314264099
 31
0.0
  0
LINE
  5
FE6C
  8
0
 10
3648.1223661915901175
 20
144.7264038314264099
 30
0.0
 11
3648.1308900636900034
 21
144.7225329258264139
 31
0.0
  0
LINE
  5
FE6D
  8
0
 10
3648.1308900636900034
 20
144.7225329258264139
 30
0.0
 11
3648.1223661915901175
 21
144.7186620202263896
 31
0.0
  0
LINE
  5
FE6E
  8
0
 10
3648.1223661915901175
 20
144.7186620202263896
 30
0.0
 11
3648.1053184474899354
 21
144.7186620202263896
 31
0.0
  0
LINE
  5
FE6F
  8
0
 10
3648.1053184474899354
 20
144.7289844351263923
 30
0.0
 11
3648.0967945753900494
 21
144.7328553407263882
 31
0.0
  0
LINE
  5
FE70
  8
0
 10
3648.0967945753900494
 20
144.7328553407263882
 30
0.0
 11
3648.1053184474899354
 21
144.7367262463264126
 31
0.0
  0
LINE
  5
FE71
  8
0
 10
3648.1053184474899354
 20
144.7367262463264126
 30
0.0
 11
3648.1223661915901175
 21
144.7367262463264126
 31
0.0
  0
LINE
  5
FE72
  8
0
 10
3648.1223661915901175
 20
144.7367262463264126
 30
0.0
 11
3648.1308900636900034
 21
144.7328553407263882
 31
0.0
  0
LINE
  5
FE73
  8
0
 10
3648.1308900636900034
 20
144.7328553407263882
 30
0.0
 11
3648.1223661915901175
 21
144.7289844351263923
 31
0.0
  0
LINE
  5
FE74
  8
0
 10
3648.1223661915901175
 20
144.7289844351263923
 30
0.0
 11
3648.1053184474899354
 21
144.7289844351263923
 31
0.0
  0
LINE
  5
FE75
  8
0
 10
3648.1053184474899354
 20
144.7393068500263951
 30
0.0
 11
3648.0967945753900494
 21
144.743177755626391
 31
0.0
  0
LINE
  5
FE76
  8
0
 10
3648.0967945753900494
 20
144.743177755626391
 30
0.0
 11
3648.1053184474899354
 21
144.7470486612263869
 31
0.0
  0
LINE
  5
FE77
  8
0
 10
3648.1053184474899354
 20
144.7470486612263869
 30
0.0
 11
3648.1223661915901175
 21
144.7470486612263869
 31
0.0
  0
LINE
  5
FE78
  8
0
 10
3648.1223661915901175
 20
144.7470486612263869
 30
0.0
 11
3648.1308900636900034
 21
144.743177755626391
 31
0.0
  0
LINE
  5
FE79
  8
0
 10
3648.1308900636900034
 20
144.743177755626391
 30
0.0
 11
3648.1223661915901175
 21
144.7393068500263951
 31
0.0
  0
LINE
  5
FE7A
  8
0
 10
3648.1223661915901175
 20
144.7393068500263951
 30
0.0
 11
3648.1053184474899354
 21
144.7393068500263951
 31
0.0
  0
LINE
  5
FE7B
  8
0
 10
3648.1053184474899354
 20
144.7496292649263978
 30
0.0
 11
3648.0967945753900494
 21
144.7535001705263937
 31
0.0
  0
LINE
  5
FE7C
  8
0
 10
3648.0967945753900494
 20
144.7535001705263937
 30
0.0
 11
3648.1053184474899354
 21
144.7573710761263897
 31
0.0
  0
LINE
  5
FE7D
  8
0
 10
3648.1053184474899354
 20
144.7573710761263897
 30
0.0
 11
3648.1223661915901175
 21
144.7573710761263897
 31
0.0
  0
LINE
  5
FE7E
  8
0
 10
3648.1223661915901175
 20
144.7573710761263897
 30
0.0
 11
3648.1308900636900034
 21
144.7535001705263937
 31
0.0
  0
LINE
  5
FE7F
  8
0
 10
3648.1308900636900034
 20
144.7535001705263937
 30
0.0
 11
3648.1223661915901175
 21
144.7496292649263978
 31
0.0
  0
LINE
  5
FE80
  8
0
 10
3648.1223661915901175
 20
144.7496292649263978
 30
0.0
 11
3648.1053184474899354
 21
144.7496292649263978
 31
0.0
  0
LINE
  5
FE81
  8
0
 10
3648.1053184474899354
 20
144.7599516798264006
 30
0.0
 11
3648.0967945753900494
 21
144.7638225854263965
 31
0.0
  0
LINE
  5
FE82
  8
0
 10
3648.0967945753900494
 20
144.7638225854263965
 30
0.0
 11
3648.1053184474899354
 21
144.7676934910263924
 31
0.0
  0
LINE
  5
FE83
  8
0
 10
3648.1053184474899354
 20
144.7676934910263924
 30
0.0
 11
3648.1223661915901175
 21
144.7676934910263924
 31
0.0
  0
LINE
  5
FE84
  8
0
 10
3648.1223661915901175
 20
144.7676934910263924
 30
0.0
 11
3648.1308900636900034
 21
144.7638225854263965
 31
0.0
  0
LINE
  5
FE85
  8
0
 10
3648.1308900636900034
 20
144.7638225854263965
 30
0.0
 11
3648.1223661915901175
 21
144.7599516798264006
 31
0.0
  0
LINE
  5
FE86
  8
0
 10
3648.1223661915901175
 20
144.7599516798264006
 30
0.0
 11
3648.1053184474899354
 21
144.7599516798264006
 31
0.0
  0
LINE
  5
FE87
  8
0
 10
3648.1053184474899354
 20
144.7702740947264033
 30
0.0
 11
3648.0967945753900494
 21
144.7741450003263992
 31
0.0
  0
LINE
  5
FE88
  8
0
 10
3648.0967945753900494
 20
144.7741450003263992
 30
0.0
 11
3648.1053184474899354
 21
144.7780159059263951
 31
0.0
  0
LINE
  5
FE89
  8
0
 10
3648.1053184474899354
 20
144.7780159059263951
 30
0.0
 11
3648.1223661915901175
 21
144.7780159059263951
 31
0.0
  0
LINE
  5
FE8A
  8
0
 10
3648.1223661915901175
 20
144.7780159059263951
 30
0.0
 11
3648.1308900636900034
 21
144.7741450003263992
 31
0.0
  0
LINE
  5
FE8B
  8
0
 10
3648.1308900636900034
 20
144.7741450003263992
 30
0.0
 11
3648.1223661915901175
 21
144.7702740947264033
 31
0.0
  0
LINE
  5
FE8C
  8
0
 10
3648.1223661915901175
 20
144.7702740947264033
 30
0.0
 11
3648.1053184474899354
 21
144.7702740947264033
 31
0.0
  0
LINE
  5
FE8D
  8
0
 10
3648.1053184474899354
 20
144.7805965097263936
 30
0.0
 11
3648.0967945753900494
 21
144.7844674153263895
 31
0.0
  0
LINE
  5
FE8E
  8
0
 10
3648.0967945753900494
 20
144.7844674153263895
 30
0.0
 11
3648.1053184474899354
 21
144.7883383209264139
 31
0.0
  0
LINE
  5
FE8F
  8
0
 10
3648.1053184474899354
 20
144.7883383209264139
 30
0.0
 11
3648.1223661915901175
 21
144.7883383209264139
 31
0.0
  0
LINE
  5
FE90
  8
0
 10
3648.1223661915901175
 20
144.7883383209264139
 30
0.0
 11
3648.1308900636900034
 21
144.7844674153263895
 31
0.0
  0
LINE
  5
FE91
  8
0
 10
3648.1308900636900034
 20
144.7844674153263895
 30
0.0
 11
3648.1223661915901175
 21
144.7805965097263936
 31
0.0
  0
LINE
  5
FE92
  8
0
 10
3648.1223661915901175
 20
144.7805965097263936
 30
0.0
 11
3648.1053184474899354
 21
144.7805965097263936
 31
0.0
  0
LINE
  5
FE93
  8
0
 10
3648.1394139357898894
 20
144.6928559830263907
 30
0.0
 11
3648.1308900636900034
 21
144.6967268886263867
 31
0.0
  0
LINE
  5
FE94
  8
0
 10
3648.1308900636900034
 20
144.6967268886263867
 30
0.0
 11
3648.1394139357898894
 21
144.700597794226411
 31
0.0
  0
LINE
  5
FE95
  8
0
 10
3648.1394139357898894
 20
144.700597794226411
 30
0.0
 11
3648.1564616798900715
 21
144.700597794226411
 31
0.0
  0
LINE
  5
FE96
  8
0
 10
3648.1564616798900715
 20
144.700597794226411
 30
0.0
 11
3648.1649855519899575
 21
144.6967268886263867
 31
0.0
  0
LINE
  5
FE97
  8
0
 10
3648.1649855519899575
 20
144.6967268886263867
 30
0.0
 11
3648.1564616798900715
 21
144.6928559830263907
 31
0.0
  0
LINE
  5
FE98
  8
0
 10
3648.1564616798900715
 20
144.6928559830263907
 30
0.0
 11
3648.1394139357898894
 21
144.6928559830263907
 31
0.0
  0
LINE
  5
FE99
  8
0
 10
3648.1394139357898894
 20
144.7031783979263935
 30
0.0
 11
3648.1308900636900034
 21
144.7070493035263894
 31
0.0
  0
LINE
  5
FE9A
  8
0
 10
3648.1308900636900034
 20
144.7070493035263894
 30
0.0
 11
3648.1394139357898894
 21
144.7109202091264137
 31
0.0
  0
LINE
  5
FE9B
  8
0
 10
3648.1394139357898894
 20
144.7109202091264137
 30
0.0
 11
3648.1564616798900715
 21
144.7109202091264137
 31
0.0
  0
LINE
  5
FE9C
  8
0
 10
3648.1564616798900715
 20
144.7109202091264137
 30
0.0
 11
3648.1649855519899575
 21
144.7070493035263894
 31
0.0
  0
LINE
  5
FE9D
  8
0
 10
3648.1649855519899575
 20
144.7070493035263894
 30
0.0
 11
3648.1564616798900715
 21
144.7031783979263935
 31
0.0
  0
LINE
  5
FE9E
  8
0
 10
3648.1564616798900715
 20
144.7031783979263935
 30
0.0
 11
3648.1394139357898894
 21
144.7031783979263935
 31
0.0
  0
LINE
  5
FE9F
  8
0
 10
3648.1394139357898894
 20
144.7135008128263962
 30
0.0
 11
3648.1308900636900034
 21
144.7173717184263921
 31
0.0
  0
LINE
  5
FEA0
  8
0
 10
3648.1308900636900034
 20
144.7173717184263921
 30
0.0
 11
3648.1394139357898894
 21
144.7212426240263881
 31
0.0
  0
LINE
  5
FEA1
  8
0
 10
3648.1394139357898894
 20
144.7212426240263881
 30
0.0
 11
3648.1564616798900715
 21
144.7212426240263881
 31
0.0
  0
LINE
  5
FEA2
  8
0
 10
3648.1564616798900715
 20
144.7212426240263881
 30
0.0
 11
3648.1649855519899575
 21
144.7173717184263921
 31
0.0
  0
LINE
  5
FEA3
  8
0
 10
3648.1649855519899575
 20
144.7173717184263921
 30
0.0
 11
3648.1564616798900715
 21
144.7135008128263962
 31
0.0
  0
LINE
  5
FEA4
  8
0
 10
3648.1564616798900715
 20
144.7135008128263962
 30
0.0
 11
3648.1394139357898894
 21
144.7135008128263962
 31
0.0
  0
LINE
  5
FEA5
  8
0
 10
3648.1394139357898894
 20
144.723823227726399
 30
0.0
 11
3648.1308900636900034
 21
144.7276941333263949
 31
0.0
  0
LINE
  5
FEA6
  8
0
 10
3648.1308900636900034
 20
144.7276941333263949
 30
0.0
 11
3648.1394139357898894
 21
144.7315650389263908
 31
0.0
  0
LINE
  5
FEA7
  8
0
 10
3648.1394139357898894
 20
144.7315650389263908
 30
0.0
 11
3648.1564616798900715
 21
144.7315650389263908
 31
0.0
  0
LINE
  5
FEA8
  8
0
 10
3648.1564616798900715
 20
144.7315650389263908
 30
0.0
 11
3648.1649855519899575
 21
144.7276941333263949
 31
0.0
  0
LINE
  5
FEA9
  8
0
 10
3648.1649855519899575
 20
144.7276941333263949
 30
0.0
 11
3648.1564616798900715
 21
144.723823227726399
 31
0.0
  0
LINE
  5
FEAA
  8
0
 10
3648.1564616798900715
 20
144.723823227726399
 30
0.0
 11
3648.1394139357898894
 21
144.723823227726399
 31
0.0
  0
LINE
  5
FEAB
  8
0
 10
3648.1394139357898894
 20
144.7341456426264017
 30
0.0
 11
3648.1308900636900034
 21
144.7380165482263976
 31
0.0
  0
LINE
  5
FEAC
  8
0
 10
3648.1308900636900034
 20
144.7380165482263976
 30
0.0
 11
3648.1394139357898894
 21
144.7418874538263935
 31
0.0
  0
LINE
  5
FEAD
  8
0
 10
3648.1394139357898894
 20
144.7418874538263935
 30
0.0
 11
3648.1564616798900715
 21
144.7418874538263935
 31
0.0
  0
LINE
  5
FEAE
  8
0
 10
3648.1564616798900715
 20
144.7418874538263935
 30
0.0
 11
3648.1649855519899575
 21
144.7380165482263976
 31
0.0
  0
LINE
  5
FEAF
  8
0
 10
3648.1649855519899575
 20
144.7380165482263976
 30
0.0
 11
3648.1564616798900715
 21
144.7341456426264017
 31
0.0
  0
LINE
  5
FEB0
  8
0
 10
3648.1564616798900715
 20
144.7341456426264017
 30
0.0
 11
3648.1394139357898894
 21
144.7341456426264017
 31
0.0
  0
LINE
  5
FEB1
  8
0
 10
3648.1394139357898894
 20
144.7444680575264044
 30
0.0
 11
3648.1308900636900034
 21
144.7483389631264004
 31
0.0
  0
LINE
  5
FEB2
  8
0
 10
3648.1308900636900034
 20
144.7483389631264004
 30
0.0
 11
3648.1394139357898894
 21
144.7522098687263963
 31
0.0
  0
LINE
  5
FEB3
  8
0
 10
3648.1394139357898894
 20
144.7522098687263963
 30
0.0
 11
3648.1564616798900715
 21
144.7522098687263963
 31
0.0
  0
LINE
  5
FEB4
  8
0
 10
3648.1564616798900715
 20
144.7522098687263963
 30
0.0
 11
3648.1649855519899575
 21
144.7483389631264004
 31
0.0
  0
LINE
  5
FEB5
  8
0
 10
3648.1649855519899575
 20
144.7483389631264004
 30
0.0
 11
3648.1564616798900715
 21
144.7444680575264044
 31
0.0
  0
LINE
  5
FEB6
  8
0
 10
3648.1564616798900715
 20
144.7444680575264044
 30
0.0
 11
3648.1394139357898894
 21
144.7444680575264044
 31
0.0
  0
LINE
  5
FEB7
  8
0
 10
3648.1394139357898894
 20
144.7547904724264072
 30
0.0
 11
3648.1308900636900034
 21
144.7586613780264031
 31
0.0
  0
LINE
  5
FEB8
  8
0
 10
3648.1308900636900034
 20
144.7586613780264031
 30
0.0
 11
3648.1394139357898894
 21
144.762532283626399
 31
0.0
  0
LINE
  5
FEB9
  8
0
 10
3648.1394139357898894
 20
144.762532283626399
 30
0.0
 11
3648.1564616798900715
 21
144.762532283626399
 31
0.0
  0
LINE
  5
FEBA
  8
0
 10
3648.1564616798900715
 20
144.762532283626399
 30
0.0
 11
3648.1649855519899575
 21
144.7586613780264031
 31
0.0
  0
LINE
  5
FEBB
  8
0
 10
3648.1649855519899575
 20
144.7586613780264031
 30
0.0
 11
3648.1564616798900715
 21
144.7547904724264072
 31
0.0
  0
LINE
  5
FEBC
  8
0
 10
3648.1564616798900715
 20
144.7547904724264072
 30
0.0
 11
3648.1394139357898894
 21
144.7547904724264072
 31
0.0
  0
LINE
  5
FEBD
  8
0
 10
3648.1394139357898894
 20
144.7651128873264099
 30
0.0
 11
3648.1308900636900034
 21
144.7689837929264058
 31
0.0
  0
LINE
  5
FEBE
  8
0
 10
3648.1308900636900034
 20
144.7689837929264058
 30
0.0
 11
3648.1394139357898894
 21
144.7728546985264018
 31
0.0
  0
LINE
  5
FEBF
  8
0
 10
3648.1394139357898894
 20
144.7728546985264018
 30
0.0
 11
3648.1564616798900715
 21
144.7728546985264018
 31
0.0
  0
LINE
  5
FEC0
  8
0
 10
3648.1564616798900715
 20
144.7728546985264018
 30
0.0
 11
3648.1649855519899575
 21
144.7689837929264058
 31
0.0
  0
LINE
  5
FEC1
  8
0
 10
3648.1649855519899575
 20
144.7689837929264058
 30
0.0
 11
3648.1564616798900715
 21
144.7651128873264099
 31
0.0
  0
LINE
  5
FEC2
  8
0
 10
3648.1564616798900715
 20
144.7651128873264099
 30
0.0
 11
3648.1394139357898894
 21
144.7651128873264099
 31
0.0
  0
LINE
  5
FEC3
  8
0
 10
3648.1394139357898894
 20
144.7754353022264127
 30
0.0
 11
3648.1308900636900034
 21
144.7793062078264086
 31
0.0
  0
LINE
  5
FEC4
  8
0
 10
3648.1308900636900034
 20
144.7793062078264086
 30
0.0
 11
3648.1394139357898894
 21
144.7831771134264045
 31
0.0
  0
LINE
  5
FEC5
  8
0
 10
3648.1394139357898894
 20
144.7831771134264045
 30
0.0
 11
3648.1564616798900715
 21
144.7831771134264045
 31
0.0
  0
LINE
  5
FEC6
  8
0
 10
3648.1564616798900715
 20
144.7831771134264045
 30
0.0
 11
3648.1649855519899575
 21
144.7793062078264086
 31
0.0
  0
LINE
  5
FEC7
  8
0
 10
3648.1649855519899575
 20
144.7793062078264086
 30
0.0
 11
3648.1564616798900715
 21
144.7754353022264127
 31
0.0
  0
LINE
  5
FEC8
  8
0
 10
3648.1564616798900715
 20
144.7754353022264127
 30
0.0
 11
3648.1394139357898894
 21
144.7754353022264127
 31
0.0
  0
LINE
  5
FEC9
  8
0
 10
3648.1394139357898894
 20
144.785757717226403
 30
0.0
 11
3648.1308900636900034
 21
144.7896286228263989
 31
0.0
  0
LINE
  5
FECA
  8
0
 10
3648.1308900636900034
 20
144.7896286228263989
 30
0.0
 11
3648.1313526521607855
 21
144.7898386959342929
 31
0.0
  0
LINE
  5
FECB
  8
0
 10
3648.1607161481110779
 20
144.7876897786966026
 30
0.0
 11
3648.1564616798900715
 21
144.785757717226403
 31
0.0
  0
LINE
  5
FECC
  8
0
 10
3648.1564616798900715
 20
144.785757717226403
 30
0.0
 11
3648.1394139357898894
 21
144.785757717226403
 31
0.0
  0
LINE
  5
FECD
  8
0
 10
3648.1735094241398656
 20
144.6980171904264125
 30
0.0
 11
3648.1649855520390702
 21
144.7018880960264084
 31
0.0
  0
LINE
  5
FECE
  8
0
 10
3648.1649855520390702
 20
144.7018880960264084
 30
0.0
 11
3648.1735094241398656
 21
144.7057590016264044
 31
0.0
  0
LINE
  5
FECF
  8
0
 10
3648.1735094241398656
 20
144.7057590016264044
 30
0.0
 11
3648.1905571682400478
 21
144.7057590016264044
 31
0.0
  0
LINE
  5
FED0
  8
0
 10
3648.1905571682400478
 20
144.7057590016264044
 30
0.0
 11
3648.1990810403408432
 21
144.7018880960264084
 31
0.0
  0
LINE
  5
FED1
  8
0
 10
3648.1990810403408432
 20
144.7018880960264084
 30
0.0
 11
3648.1905571682400478
 21
144.6980171904264125
 31
0.0
  0
LINE
  5
FED2
  8
0
 10
3648.1905571682400478
 20
144.6980171904264125
 30
0.0
 11
3648.1735094241398656
 21
144.6980171904264125
 31
0.0
  0
LINE
  5
FED3
  8
0
 10
3648.1735094241398656
 20
144.7083396053263868
 30
0.0
 11
3648.1649855520390702
 21
144.7122105109264112
 31
0.0
  0
LINE
  5
FED4
  8
0
 10
3648.1649855520390702
 20
144.7122105109264112
 30
0.0
 11
3648.1735094241398656
 21
144.7160814165264071
 31
0.0
  0
LINE
  5
FED5
  8
0
 10
3648.1735094241398656
 20
144.7160814165264071
 30
0.0
 11
3648.1905571682400478
 21
144.7160814165264071
 31
0.0
  0
LINE
  5
FED6
  8
0
 10
3648.1905571682400478
 20
144.7160814165264071
 30
0.0
 11
3648.1990810403408432
 21
144.7122105109264112
 31
0.0
  0
LINE
  5
FED7
  8
0
 10
3648.1990810403408432
 20
144.7122105109264112
 30
0.0
 11
3648.1905571682400478
 21
144.7083396053263868
 31
0.0
  0
LINE
  5
FED8
  8
0
 10
3648.1905571682400478
 20
144.7083396053263868
 30
0.0
 11
3648.1735094241398656
 21
144.7083396053263868
 31
0.0
  0
LINE
  5
FED9
  8
0
 10
3648.1735094241398656
 20
144.7186620202263896
 30
0.0
 11
3648.1649855520390702
 21
144.7225329258264139
 31
0.0
  0
LINE
  5
FEDA
  8
0
 10
3648.1649855520390702
 20
144.7225329258264139
 30
0.0
 11
3648.1735094241398656
 21
144.7264038314264099
 31
0.0
  0
LINE
  5
FEDB
  8
0
 10
3648.1735094241398656
 20
144.7264038314264099
 30
0.0
 11
3648.1905571682400478
 21
144.7264038314264099
 31
0.0
  0
LINE
  5
FEDC
  8
0
 10
3648.1905571682400478
 20
144.7264038314264099
 30
0.0
 11
3648.1990810403408432
 21
144.7225329258264139
 31
0.0
  0
LINE
  5
FEDD
  8
0
 10
3648.1990810403408432
 20
144.7225329258264139
 30
0.0
 11
3648.1905571682400478
 21
144.7186620202263896
 31
0.0
  0
LINE
  5
FEDE
  8
0
 10
3648.1905571682400478
 20
144.7186620202263896
 30
0.0
 11
3648.1735094241398656
 21
144.7186620202263896
 31
0.0
  0
LINE
  5
FEDF
  8
0
 10
3648.1735094241398656
 20
144.7289844351263923
 30
0.0
 11
3648.1649855520390702
 21
144.7328553407263882
 31
0.0
  0
LINE
  5
FEE0
  8
0
 10
3648.1649855520390702
 20
144.7328553407263882
 30
0.0
 11
3648.1735094241398656
 21
144.7367262463264126
 31
0.0
  0
LINE
  5
FEE1
  8
0
 10
3648.1735094241398656
 20
144.7367262463264126
 30
0.0
 11
3648.1905571682400478
 21
144.7367262463264126
 31
0.0
  0
LINE
  5
FEE2
  8
0
 10
3648.1905571682400478
 20
144.7367262463264126
 30
0.0
 11
3648.1990810403408432
 21
144.7328553407263882
 31
0.0
  0
LINE
  5
FEE3
  8
0
 10
3648.1990810403408432
 20
144.7328553407263882
 30
0.0
 11
3648.1905571682400478
 21
144.7289844351263923
 31
0.0
  0
LINE
  5
FEE4
  8
0
 10
3648.1905571682400478
 20
144.7289844351263923
 30
0.0
 11
3648.1735094241398656
 21
144.7289844351263923
 31
0.0
  0
LINE
  5
FEE5
  8
0
 10
3648.1735094241398656
 20
144.7393068500263951
 30
0.0
 11
3648.1649855520390702
 21
144.743177755626391
 31
0.0
  0
LINE
  5
FEE6
  8
0
 10
3648.1649855520390702
 20
144.743177755626391
 30
0.0
 11
3648.1735094241398656
 21
144.7470486612263869
 31
0.0
  0
LINE
  5
FEE7
  8
0
 10
3648.1735094241398656
 20
144.7470486612263869
 30
0.0
 11
3648.1905571682400478
 21
144.7470486612263869
 31
0.0
  0
LINE
  5
FEE8
  8
0
 10
3648.1905571682400478
 20
144.7470486612263869
 30
0.0
 11
3648.1990810403408432
 21
144.743177755626391
 31
0.0
  0
LINE
  5
FEE9
  8
0
 10
3648.1990810403408432
 20
144.743177755626391
 30
0.0
 11
3648.1905571682400478
 21
144.7393068500263951
 31
0.0
  0
LINE
  5
FEEA
  8
0
 10
3648.1905571682400478
 20
144.7393068500263951
 30
0.0
 11
3648.1735094241398656
 21
144.7393068500263951
 31
0.0
  0
LINE
  5
FEEB
  8
0
 10
3648.1735094241398656
 20
144.7496292649263978
 30
0.0
 11
3648.1649855520390702
 21
144.7535001705263937
 31
0.0
  0
LINE
  5
FEEC
  8
0
 10
3648.1649855520390702
 20
144.7535001705263937
 30
0.0
 11
3648.1735094241398656
 21
144.7573710761263897
 31
0.0
  0
LINE
  5
FEED
  8
0
 10
3648.1735094241398656
 20
144.7573710761263897
 30
0.0
 11
3648.1905571682400478
 21
144.7573710761263897
 31
0.0
  0
LINE
  5
FEEE
  8
0
 10
3648.1905571682400478
 20
144.7573710761263897
 30
0.0
 11
3648.1990810403408432
 21
144.7535001705263937
 31
0.0
  0
LINE
  5
FEEF
  8
0
 10
3648.1990810403408432
 20
144.7535001705263937
 30
0.0
 11
3648.1905571682400478
 21
144.7496292649263978
 31
0.0
  0
LINE
  5
FEF0
  8
0
 10
3648.1905571682400478
 20
144.7496292649263978
 30
0.0
 11
3648.1735094241398656
 21
144.7496292649263978
 31
0.0
  0
LINE
  5
FEF1
  8
0
 10
3648.1735094241398656
 20
144.7599516798264006
 30
0.0
 11
3648.1649855520390702
 21
144.7638225854263965
 31
0.0
  0
LINE
  5
FEF2
  8
0
 10
3648.1649855520390702
 20
144.7638225854263965
 30
0.0
 11
3648.1735094241398656
 21
144.7676934910263924
 31
0.0
  0
LINE
  5
FEF3
  8
0
 10
3648.1735094241398656
 20
144.7676934910263924
 30
0.0
 11
3648.1905571682400478
 21
144.7676934910263924
 31
0.0
  0
LINE
  5
FEF4
  8
0
 10
3648.1905571682400478
 20
144.7676934910263924
 30
0.0
 11
3648.1990810403408432
 21
144.7638225854263965
 31
0.0
  0
LINE
  5
FEF5
  8
0
 10
3648.1990810403408432
 20
144.7638225854263965
 30
0.0
 11
3648.1905571682400478
 21
144.7599516798264006
 31
0.0
  0
LINE
  5
FEF6
  8
0
 10
3648.1905571682400478
 20
144.7599516798264006
 30
0.0
 11
3648.1735094241398656
 21
144.7599516798264006
 31
0.0
  0
LINE
  5
FEF7
  8
0
 10
3648.1735094241398656
 20
144.7702740947264033
 30
0.0
 11
3648.1649855520390702
 21
144.7741450003263992
 31
0.0
  0
LINE
  5
FEF8
  8
0
 10
3648.1649855520390702
 20
144.7741450003263992
 30
0.0
 11
3648.1735094241398656
 21
144.7780159059263951
 31
0.0
  0
LINE
  5
FEF9
  8
0
 10
3648.1735094241398656
 20
144.7780159059263951
 30
0.0
 11
3648.1905571682400478
 21
144.7780159059263951
 31
0.0
  0
LINE
  5
FEFA
  8
0
 10
3648.1905571682400478
 20
144.7780159059263951
 30
0.0
 11
3648.1990810403408432
 21
144.7741450003263992
 31
0.0
  0
LINE
  5
FEFB
  8
0
 10
3648.1990810403408432
 20
144.7741450003263992
 30
0.0
 11
3648.1905571682400478
 21
144.7702740947264033
 31
0.0
  0
LINE
  5
FEFC
  8
0
 10
3648.1905571682400478
 20
144.7702740947264033
 30
0.0
 11
3648.1735094241398656
 21
144.7702740947264033
 31
0.0
  0
LINE
  5
FEFD
  8
0
 10
3648.1735094241398656
 20
144.780596509626406
 30
0.0
 11
3648.1649855520390702
 21
144.784467415226402
 31
0.0
  0
LINE
  5
FEFE
  8
0
 10
3648.1649855520390702
 20
144.784467415226402
 30
0.0
 11
3648.1702322037831436
 21
144.786850052292607
 31
0.0
  0
LINE
  5
FEFF
  8
0
 10
3648.1980359639010203
 20
144.7839928196206074
 30
0.0
 11
3648.1905571682400478
 21
144.780596509626406
 31
0.0
  0
LINE
  5
FF00
  8
0
 10
3648.1905571682400478
 20
144.780596509626406
 30
0.0
 11
3648.1735094241398656
 21
144.780596509626406
 31
0.0
  0
LINE
  5
FF01
  8
0
 10
3648.2076049124898418
 20
144.7031783979263935
 30
0.0
 11
3648.1990810403890464
 21
144.7070493035263894
 31
0.0
  0
LINE
  5
FF02
  8
0
 10
3648.1990810403890464
 20
144.7070493035263894
 30
0.0
 11
3648.2076049124898418
 21
144.7109202091264137
 31
0.0
  0
LINE
  5
FF03
  8
0
 10
3648.2076049124898418
 20
144.7109202091264137
 30
0.0
 11
3648.224652656590024
 21
144.7109202091264137
 31
0.0
  0
LINE
  5
FF04
  8
0
 10
3648.224652656590024
 20
144.7109202091264137
 30
0.0
 11
3648.2331765286899099
 21
144.7070493035263894
 31
0.0
  0
LINE
  5
FF05
  8
0
 10
3648.2331765286899099
 20
144.7070493035263894
 30
0.0
 11
3648.224652656590024
 21
144.7031783979263935
 31
0.0
  0
LINE
  5
FF06
  8
0
 10
3648.224652656590024
 20
144.7031783979263935
 30
0.0
 11
3648.2076049124898418
 21
144.7031783979263935
 31
0.0
  0
LINE
  5
FF07
  8
0
 10
3648.2076049124898418
 20
144.7135008128263962
 30
0.0
 11
3648.1990810403890464
 21
144.7173717184263921
 31
0.0
  0
LINE
  5
FF08
  8
0
 10
3648.1990810403890464
 20
144.7173717184263921
 30
0.0
 11
3648.2076049124898418
 21
144.7212426240263881
 31
0.0
  0
LINE
  5
FF09
  8
0
 10
3648.2076049124898418
 20
144.7212426240263881
 30
0.0
 11
3648.224652656590024
 21
144.7212426240263881
 31
0.0
  0
LINE
  5
FF0A
  8
0
 10
3648.224652656590024
 20
144.7212426240263881
 30
0.0
 11
3648.2331765286899099
 21
144.7173717184263921
 31
0.0
  0
LINE
  5
FF0B
  8
0
 10
3648.2331765286899099
 20
144.7173717184263921
 30
0.0
 11
3648.224652656590024
 21
144.7135008128263962
 31
0.0
  0
LINE
  5
FF0C
  8
0
 10
3648.224652656590024
 20
144.7135008128263962
 30
0.0
 11
3648.2076049124898418
 21
144.7135008128263962
 31
0.0
  0
LINE
  5
FF0D
  8
0
 10
3648.2076049124898418
 20
144.723823227726399
 30
0.0
 11
3648.1990810403890464
 21
144.7276941333263949
 31
0.0
  0
LINE
  5
FF0E
  8
0
 10
3648.1990810403890464
 20
144.7276941333263949
 30
0.0
 11
3648.2076049124898418
 21
144.7315650389263908
 31
0.0
  0
LINE
  5
FF0F
  8
0
 10
3648.2076049124898418
 20
144.7315650389263908
 30
0.0
 11
3648.224652656590024
 21
144.7315650389263908
 31
0.0
  0
LINE
  5
FF10
  8
0
 10
3648.224652656590024
 20
144.7315650389263908
 30
0.0
 11
3648.2331765286899099
 21
144.7276941333263949
 31
0.0
  0
LINE
  5
FF11
  8
0
 10
3648.2331765286899099
 20
144.7276941333263949
 30
0.0
 11
3648.224652656590024
 21
144.723823227726399
 31
0.0
  0
LINE
  5
FF12
  8
0
 10
3648.224652656590024
 20
144.723823227726399
 30
0.0
 11
3648.2076049124898418
 21
144.723823227726399
 31
0.0
  0
LINE
  5
FF13
  8
0
 10
3648.2076049124898418
 20
144.7341456426264017
 30
0.0
 11
3648.1990810403890464
 21
144.7380165482263976
 31
0.0
  0
LINE
  5
FF14
  8
0
 10
3648.1990810403890464
 20
144.7380165482263976
 30
0.0
 11
3648.2076049124898418
 21
144.7418874538263935
 31
0.0
  0
LINE
  5
FF15
  8
0
 10
3648.2076049124898418
 20
144.7418874538263935
 30
0.0
 11
3648.224652656590024
 21
144.7418874538263935
 31
0.0
  0
LINE
  5
FF16
  8
0
 10
3648.224652656590024
 20
144.7418874538263935
 30
0.0
 11
3648.2331765286899099
 21
144.7380165482263976
 31
0.0
  0
LINE
  5
FF17
  8
0
 10
3648.2331765286899099
 20
144.7380165482263976
 30
0.0
 11
3648.224652656590024
 21
144.7341456426264017
 31
0.0
  0
LINE
  5
FF18
  8
0
 10
3648.224652656590024
 20
144.7341456426264017
 30
0.0
 11
3648.2076049124898418
 21
144.7341456426264017
 31
0.0
  0
LINE
  5
FF19
  8
0
 10
3648.2076049124898418
 20
144.7444680575264044
 30
0.0
 11
3648.1990810403890464
 21
144.7483389631264004
 31
0.0
  0
LINE
  5
FF1A
  8
0
 10
3648.1990810403890464
 20
144.7483389631264004
 30
0.0
 11
3648.2076049124898418
 21
144.7522098687263963
 31
0.0
  0
LINE
  5
FF1B
  8
0
 10
3648.2076049124898418
 20
144.7522098687263963
 30
0.0
 11
3648.224652656590024
 21
144.7522098687263963
 31
0.0
  0
LINE
  5
FF1C
  8
0
 10
3648.224652656590024
 20
144.7522098687263963
 30
0.0
 11
3648.2331765286899099
 21
144.7483389631264004
 31
0.0
  0
LINE
  5
FF1D
  8
0
 10
3648.2331765286899099
 20
144.7483389631264004
 30
0.0
 11
3648.224652656590024
 21
144.7444680575264044
 31
0.0
  0
LINE
  5
FF1E
  8
0
 10
3648.224652656590024
 20
144.7444680575264044
 30
0.0
 11
3648.2076049124898418
 21
144.7444680575264044
 31
0.0
  0
LINE
  5
FF1F
  8
0
 10
3648.2076049124898418
 20
144.7547904724264072
 30
0.0
 11
3648.1990810403890464
 21
144.7586613780264031
 31
0.0
  0
LINE
  5
FF20
  8
0
 10
3648.1990810403890464
 20
144.7586613780264031
 30
0.0
 11
3648.2076049124898418
 21
144.762532283626399
 31
0.0
  0
LINE
  5
FF21
  8
0
 10
3648.2076049124898418
 20
144.762532283626399
 30
0.0
 11
3648.224652656590024
 21
144.762532283626399
 31
0.0
  0
LINE
  5
FF22
  8
0
 10
3648.224652656590024
 20
144.762532283626399
 30
0.0
 11
3648.2331765286899099
 21
144.7586613780264031
 31
0.0
  0
LINE
  5
FF23
  8
0
 10
3648.2331765286899099
 20
144.7586613780264031
 30
0.0
 11
3648.224652656590024
 21
144.7547904724264072
 31
0.0
  0
LINE
  5
FF24
  8
0
 10
3648.224652656590024
 20
144.7547904724264072
 30
0.0
 11
3648.2076049124898418
 21
144.7547904724264072
 31
0.0
  0
LINE
  5
FF25
  8
0
 10
3648.2076049124898418
 20
144.7651128873264099
 30
0.0
 11
3648.1990810403890464
 21
144.7689837929264058
 31
0.0
  0
LINE
  5
FF26
  8
0
 10
3648.1990810403890464
 20
144.7689837929264058
 30
0.0
 11
3648.2076049124898418
 21
144.7728546985264018
 31
0.0
  0
LINE
  5
FF27
  8
0
 10
3648.2076049124898418
 20
144.7728546985264018
 30
0.0
 11
3648.224652656590024
 21
144.7728546985264018
 31
0.0
  0
LINE
  5
FF28
  8
0
 10
3648.224652656590024
 20
144.7728546985264018
 30
0.0
 11
3648.2331765286899099
 21
144.7689837929264058
 31
0.0
  0
LINE
  5
FF29
  8
0
 10
3648.2331765286899099
 20
144.7689837929264058
 30
0.0
 11
3648.224652656590024
 21
144.7651128873264099
 31
0.0
  0
LINE
  5
FF2A
  8
0
 10
3648.224652656590024
 20
144.7651128873264099
 30
0.0
 11
3648.2076049124898418
 21
144.7651128873264099
 31
0.0
  0
LINE
  5
FF2B
  8
0
 10
3648.2076049124898418
 20
144.7754353022264127
 30
0.0
 11
3648.1990810403890464
 21
144.7793062078264086
 31
0.0
  0
LINE
  5
FF2C
  8
0
 10
3648.1990810403890464
 20
144.7793062078264086
 30
0.0
 11
3648.2070704889019908
 21
144.7829344181776037
 31
0.0
  0
LINE
  5
FF2D
  8
0
 10
3648.2327449207309655
 20
144.7795022119011037
 30
0.0
 11
3648.2331765286899099
 21
144.7793062078264086
 31
0.0
  0
LINE
  5
FF2E
  8
0
 10
3648.2331765286899099
 20
144.7793062078264086
 30
0.0
 11
3648.224652656590024
 21
144.7754353022264127
 31
0.0
  0
LINE
  5
FF2F
  8
0
 10
3648.224652656590024
 20
144.7754353022264127
 30
0.0
 11
3648.2076049124898418
 21
144.7754353022264127
 31
0.0
  0
LINE
  5
FF30
  8
0
 10
3648.2417004007897958
 20
144.7083396053263868
 30
0.0
 11
3648.2331765286899099
 21
144.7122105109264112
 31
0.0
  0
LINE
  5
FF31
  8
0
 10
3648.2331765286899099
 20
144.7122105109264112
 30
0.0
 11
3648.2417004007897958
 21
144.7160814165264071
 31
0.0
  0
LINE
  5
FF32
  8
0
 10
3648.2417004007897958
 20
144.7160814165264071
 30
0.0
 11
3648.258748144889978
 21
144.7160814165264071
 31
0.0
  0
LINE
  5
FF33
  8
0
 10
3648.258748144889978
 20
144.7160814165264071
 30
0.0
 11
3648.2642172881460283
 21
144.7135977404446976
 31
0.0
  0
LINE
  5
FF34
  8
0
 10
3648.2464400149187895
 20
144.7083396053263868
 30
0.0
 11
3648.2417004007897958
 21
144.7083396053263868
 31
0.0
  0
LINE
  5
FF35
  8
0
 10
3648.2417004007897958
 20
144.7186620202263896
 30
0.0
 11
3648.2331765286899099
 21
144.7225329258264139
 31
0.0
  0
LINE
  5
FF36
  8
0
 10
3648.2331765286899099
 20
144.7225329258264139
 30
0.0
 11
3648.2417004007897958
 21
144.7264038314264099
 31
0.0
  0
LINE
  5
FF37
  8
0
 10
3648.2417004007897958
 20
144.7264038314264099
 30
0.0
 11
3648.258748144889978
 21
144.7264038314264099
 31
0.0
  0
LINE
  5
FF38
  8
0
 10
3648.258748144889978
 20
144.7264038314264099
 30
0.0
 11
3648.2672720169898639
 21
144.7225329258264139
 31
0.0
  0
LINE
  5
FF39
  8
0
 10
3648.2672720169898639
 20
144.7225329258264139
 30
0.0
 11
3648.258748144889978
 21
144.7186620202263896
 31
0.0
  0
LINE
  5
FF3A
  8
0
 10
3648.258748144889978
 20
144.7186620202263896
 30
0.0
 11
3648.2417004007897958
 21
144.7186620202263896
 31
0.0
  0
LINE
  5
FF3B
  8
0
 10
3648.2417004007897958
 20
144.7289844351263923
 30
0.0
 11
3648.2331765286899099
 21
144.7328553407263882
 31
0.0
  0
LINE
  5
FF3C
  8
0
 10
3648.2331765286899099
 20
144.7328553407263882
 30
0.0
 11
3648.2417004007897958
 21
144.7367262463264126
 31
0.0
  0
LINE
  5
FF3D
  8
0
 10
3648.2417004007897958
 20
144.7367262463264126
 30
0.0
 11
3648.258748144889978
 21
144.7367262463264126
 31
0.0
  0
LINE
  5
FF3E
  8
0
 10
3648.258748144889978
 20
144.7367262463264126
 30
0.0
 11
3648.2672720169898639
 21
144.7328553407263882
 31
0.0
  0
LINE
  5
FF3F
  8
0
 10
3648.2672720169898639
 20
144.7328553407263882
 30
0.0
 11
3648.258748144889978
 21
144.7289844351263923
 31
0.0
  0
LINE
  5
FF40
  8
0
 10
3648.258748144889978
 20
144.7289844351263923
 30
0.0
 11
3648.2417004007897958
 21
144.7289844351263923
 31
0.0
  0
LINE
  5
FF41
  8
0
 10
3648.2417004007897958
 20
144.7393068500263951
 30
0.0
 11
3648.2331765286899099
 21
144.743177755626391
 31
0.0
  0
LINE
  5
FF42
  8
0
 10
3648.2331765286899099
 20
144.743177755626391
 30
0.0
 11
3648.2417004007897958
 21
144.7470486612263869
 31
0.0
  0
LINE
  5
FF43
  8
0
 10
3648.2417004007897958
 20
144.7470486612263869
 30
0.0
 11
3648.258748144889978
 21
144.7470486612263869
 31
0.0
  0
LINE
  5
FF44
  8
0
 10
3648.258748144889978
 20
144.7470486612263869
 30
0.0
 11
3648.2672720169898639
 21
144.743177755626391
 31
0.0
  0
LINE
  5
FF45
  8
0
 10
3648.2672720169898639
 20
144.743177755626391
 30
0.0
 11
3648.258748144889978
 21
144.7393068500263951
 31
0.0
  0
LINE
  5
FF46
  8
0
 10
3648.258748144889978
 20
144.7393068500263951
 30
0.0
 11
3648.2417004007897958
 21
144.7393068500263951
 31
0.0
  0
LINE
  5
FF47
  8
0
 10
3648.2417004007897958
 20
144.7496292649263978
 30
0.0
 11
3648.2331765286899099
 21
144.7535001705263937
 31
0.0
  0
LINE
  5
FF48
  8
0
 10
3648.2331765286899099
 20
144.7535001705263937
 30
0.0
 11
3648.2417004007897958
 21
144.7573710761263897
 31
0.0
  0
LINE
  5
FF49
  8
0
 10
3648.2417004007897958
 20
144.7573710761263897
 30
0.0
 11
3648.258748144889978
 21
144.7573710761263897
 31
0.0
  0
LINE
  5
FF4A
  8
0
 10
3648.258748144889978
 20
144.7573710761263897
 30
0.0
 11
3648.2672720169898639
 21
144.7535001705263937
 31
0.0
  0
LINE
  5
FF4B
  8
0
 10
3648.2672720169898639
 20
144.7535001705263937
 30
0.0
 11
3648.258748144889978
 21
144.7496292649263978
 31
0.0
  0
LINE
  5
FF4C
  8
0
 10
3648.258748144889978
 20
144.7496292649263978
 30
0.0
 11
3648.2417004007897958
 21
144.7496292649263978
 31
0.0
  0
LINE
  5
FF4D
  8
0
 10
3648.2417004007897958
 20
144.7599516798264006
 30
0.0
 11
3648.2331765286899099
 21
144.7638225854263965
 31
0.0
  0
LINE
  5
FF4E
  8
0
 10
3648.2331765286899099
 20
144.7638225854263965
 30
0.0
 11
3648.2417004007897958
 21
144.7676934910263924
 31
0.0
  0
LINE
  5
FF4F
  8
0
 10
3648.2417004007897958
 20
144.7676934910263924
 30
0.0
 11
3648.258748144889978
 21
144.7676934910263924
 31
0.0
  0
LINE
  5
FF50
  8
0
 10
3648.258748144889978
 20
144.7676934910263924
 30
0.0
 11
3648.2672720169898639
 21
144.7638225854263965
 31
0.0
  0
LINE
  5
FF51
  8
0
 10
3648.2672720169898639
 20
144.7638225854263965
 30
0.0
 11
3648.258748144889978
 21
144.7599516798264006
 31
0.0
  0
LINE
  5
FF52
  8
0
 10
3648.258748144889978
 20
144.7599516798264006
 30
0.0
 11
3648.2417004007897958
 21
144.7599516798264006
 31
0.0
  0
LINE
  5
FF53
  8
0
 10
3648.2417004007897958
 20
144.7702740947264033
 30
0.0
 11
3648.2331765286899099
 21
144.7741450003263992
 31
0.0
  0
LINE
  5
FF54
  8
0
 10
3648.2331765286899099
 20
144.7741450003263992
 30
0.0
 11
3648.2417004007897958
 21
144.7780159059263951
 31
0.0
  0
LINE
  5
FF55
  8
0
 10
3648.2417004007897958
 20
144.7780159059263951
 30
0.0
 11
3648.2421580882000853
 21
144.7780159059263951
 31
0.0
  0
LINE
  5
FF56
  8
0
 10
3648.2661488233848104
 20
144.7736349297429115
 30
0.0
 11
3648.258748144889978
 21
144.7702740947264033
 31
0.0
  0
LINE
  5
FF57
  8
0
 10
3648.258748144889978
 20
144.7702740947264033
 30
0.0
 11
3648.2417004007897958
 21
144.7702740947264033
 31
0.0
  0
LINE
  5
FF58
  8
0
 10
3648.2757958891897943
 20
144.723823227726399
 30
0.0
 11
3648.2672720170899083
 21
144.7276941333263949
 31
0.0
  0
LINE
  5
FF59
  8
0
 10
3648.2672720170899083
 20
144.7276941333263949
 30
0.0
 11
3648.2757958891897943
 21
144.7315650389263908
 31
0.0
  0
LINE
  5
FF5A
  8
0
 10
3648.2757958891897943
 20
144.7315650389263908
 30
0.0
 11
3648.2928436332899764
 21
144.7315650389263908
 31
0.0
  0
LINE
  5
FF5B
  8
0
 10
3648.2928436332899764
 20
144.7315650389263908
 30
0.0
 11
3648.3006084015250963
 21
144.7280388615635047
 31
0.0
  0
LINE
  5
FF5C
  8
0
 10
3648.2927549379160155
 20
144.723823227726399
 30
0.0
 11
3648.2757958891897943
 21
144.723823227726399
 31
0.0
  0
LINE
  5
FF5D
  8
0
 10
3648.2757958891897943
 20
144.7341456426264017
 30
0.0
 11
3648.2672720170899083
 21
144.7380165482263976
 31
0.0
  0
LINE
  5
FF5E
  8
0
 10
3648.2672720170899083
 20
144.7380165482263976
 30
0.0
 11
3648.2757958891897943
 21
144.7418874538263935
 31
0.0
  0
LINE
  5
FF5F
  8
0
 10
3648.2757958891897943
 20
144.7418874538263935
 30
0.0
 11
3648.2928436332899764
 21
144.7418874538263935
 31
0.0
  0
LINE
  5
FF60
  8
0
 10
3648.2928436332899764
 20
144.7418874538263935
 30
0.0
 11
3648.3013675053898623
 21
144.7380165482263976
 31
0.0
  0
LINE
  5
FF61
  8
0
 10
3648.3013675053898623
 20
144.7380165482263976
 30
0.0
 11
3648.2928436332899764
 21
144.7341456426264017
 31
0.0
  0
LINE
  5
FF62
  8
0
 10
3648.2928436332899764
 20
144.7341456426264017
 30
0.0
 11
3648.2757958891897943
 21
144.7341456426264017
 31
0.0
  0
LINE
  5
FF63
  8
0
 10
3648.2757958891897943
 20
144.7444680575264044
 30
0.0
 11
3648.2672720170899083
 21
144.7483389631264004
 31
0.0
  0
LINE
  5
FF64
  8
0
 10
3648.2672720170899083
 20
144.7483389631264004
 30
0.0
 11
3648.2757958891897943
 21
144.7522098687263963
 31
0.0
  0
LINE
  5
FF65
  8
0
 10
3648.2757958891897943
 20
144.7522098687263963
 30
0.0
 11
3648.2928436332899764
 21
144.7522098687263963
 31
0.0
  0
LINE
  5
FF66
  8
0
 10
3648.2928436332899764
 20
144.7522098687263963
 30
0.0
 11
3648.3013675053898623
 21
144.7483389631264004
 31
0.0
  0
LINE
  5
FF67
  8
0
 10
3648.3013675053898623
 20
144.7483389631264004
 30
0.0
 11
3648.2928436332899764
 21
144.7444680575264044
 31
0.0
  0
LINE
  5
FF68
  8
0
 10
3648.2928436332899764
 20
144.7444680575264044
 30
0.0
 11
3648.2757958891897943
 21
144.7444680575264044
 31
0.0
  0
LINE
  5
FF69
  8
0
 10
3648.2757958891897943
 20
144.7547904724264072
 30
0.0
 11
3648.2672720170899083
 21
144.7586613780264031
 31
0.0
  0
LINE
  5
FF6A
  8
0
 10
3648.2672720170899083
 20
144.7586613780264031
 30
0.0
 11
3648.2757958891897943
 21
144.762532283626399
 31
0.0
  0
LINE
  5
FF6B
  8
0
 10
3648.2757958891897943
 20
144.762532283626399
 30
0.0
 11
3648.2928436332899764
 21
144.762532283626399
 31
0.0
  0
LINE
  5
FF6C
  8
0
 10
3648.2928436332899764
 20
144.762532283626399
 30
0.0
 11
3648.3013675053898623
 21
144.7586613780264031
 31
0.0
  0
LINE
  5
FF6D
  8
0
 10
3648.3013675053898623
 20
144.7586613780264031
 30
0.0
 11
3648.2928436332899764
 21
144.7547904724264072
 31
0.0
  0
LINE
  5
FF6E
  8
0
 10
3648.2928436332899764
 20
144.7547904724264072
 30
0.0
 11
3648.2757958891897943
 21
144.7547904724264072
 31
0.0
  0
LINE
  5
FF6F
  8
0
 10
3648.2757958891897943
 20
144.7651128873264099
 30
0.0
 11
3648.2672720170899083
 21
144.7689837929264058
 31
0.0
  0
LINE
  5
FF70
  8
0
 10
3648.2672720170899083
 20
144.7689837929264058
 30
0.0
 11
3648.2739626382558527
 21
144.7720221729769037
 31
0.0
  0
LINE
  5
FF71
  8
0
 10
3648.2966101635520317
 20
144.7668233638459867
 30
0.0
 11
3648.2928436332899764
 21
144.7651128873264099
 31
0.0
  0
LINE
  5
FF72
  8
0
 10
3648.2928436332899764
 20
144.7651128873264099
 30
0.0
 11
3648.2757958891897943
 21
144.7651128873264099
 31
0.0
  0
LINE
  5
FF73
  8
0
 10
3648.0371274707899829
 20
144.6876947755264098
 30
0.0
 11
3648.028603598690097
 21
144.6915656811264057
 31
0.0
  0
LINE
  5
FF74
  8
0
 10
3648.028603598690097
 20
144.6915656811264057
 30
0.0
 11
3648.0371274707899829
 21
144.6954365867264016
 31
0.0
  0
LINE
  5
FF75
  8
0
 10
3648.0371274707899829
 20
144.6954365867264016
 30
0.0
 11
3648.0541752148901651
 21
144.6954365867264016
 31
0.0
  0
LINE
  5
FF76
  8
0
 10
3648.0541752148901651
 20
144.6954365867264016
 30
0.0
 11
3648.0626990869891415
 21
144.6915656811264057
 31
0.0
  0
LINE
  5
FF77
  8
0
 10
3648.0626990869891415
 20
144.6915656811264057
 30
0.0
 11
3648.0541752148901651
 21
144.6876947755264098
 31
0.0
  0
LINE
  5
FF78
  8
0
 10
3648.0541752148901651
 20
144.6876947755264098
 30
0.0
 11
3648.0371274707899829
 21
144.6876947755264098
 31
0.0
  0
LINE
  5
FF79
  8
0
 10
3648.0371274707899829
 20
144.6980171904264125
 30
0.0
 11
3648.028603598690097
 21
144.7018880960264084
 31
0.0
  0
LINE
  5
FF7A
  8
0
 10
3648.028603598690097
 20
144.7018880960264084
 30
0.0
 11
3648.0371274707899829
 21
144.7057590016264044
 31
0.0
  0
LINE
  5
FF7B
  8
0
 10
3648.0371274707899829
 20
144.7057590016264044
 30
0.0
 11
3648.0541752148901651
 21
144.7057590016264044
 31
0.0
  0
LINE
  5
FF7C
  8
0
 10
3648.0541752148901651
 20
144.7057590016264044
 30
0.0
 11
3648.0626990869891415
 21
144.7018880960264084
 31
0.0
  0
LINE
  5
FF7D
  8
0
 10
3648.0626990869891415
 20
144.7018880960264084
 30
0.0
 11
3648.0541752148901651
 21
144.6980171904264125
 31
0.0
  0
LINE
  5
FF7E
  8
0
 10
3648.0541752148901651
 20
144.6980171904264125
 30
0.0
 11
3648.0371274707899829
 21
144.6980171904264125
 31
0.0
  0
LINE
  5
FF7F
  8
0
 10
3648.0371274707899829
 20
144.7083396053263868
 30
0.0
 11
3648.028603598690097
 21
144.7122105109264112
 31
0.0
  0
LINE
  5
FF80
  8
0
 10
3648.028603598690097
 20
144.7122105109264112
 30
0.0
 11
3648.0371274707899829
 21
144.7160814165264071
 31
0.0
  0
LINE
  5
FF81
  8
0
 10
3648.0371274707899829
 20
144.7160814165264071
 30
0.0
 11
3648.0541752148901651
 21
144.7160814165264071
 31
0.0
  0
LINE
  5
FF82
  8
0
 10
3648.0541752148901651
 20
144.7160814165264071
 30
0.0
 11
3648.0626990869891415
 21
144.7122105109264112
 31
0.0
  0
LINE
  5
FF83
  8
0
 10
3648.0626990869891415
 20
144.7122105109264112
 30
0.0
 11
3648.0541752148901651
 21
144.7083396053263868
 31
0.0
  0
LINE
  5
FF84
  8
0
 10
3648.0541752148901651
 20
144.7083396053263868
 30
0.0
 11
3648.0371274707899829
 21
144.7083396053263868
 31
0.0
  0
LINE
  5
FF85
  8
0
 10
3648.0371274707899829
 20
144.7186620202263896
 30
0.0
 11
3648.028603598690097
 21
144.7225329258264139
 31
0.0
  0
LINE
  5
FF86
  8
0
 10
3648.028603598690097
 20
144.7225329258264139
 30
0.0
 11
3648.0371274707899829
 21
144.7264038314264099
 31
0.0
  0
LINE
  5
FF87
  8
0
 10
3648.0371274707899829
 20
144.7264038314264099
 30
0.0
 11
3648.0541752148901651
 21
144.7264038314264099
 31
0.0
  0
LINE
  5
FF88
  8
0
 10
3648.0541752148901651
 20
144.7264038314264099
 30
0.0
 11
3648.0626990869891415
 21
144.7225329258264139
 31
0.0
  0
LINE
  5
FF89
  8
0
 10
3648.0626990869891415
 20
144.7225329258264139
 30
0.0
 11
3648.0541752148901651
 21
144.7186620202263896
 31
0.0
  0
LINE
  5
FF8A
  8
0
 10
3648.0541752148901651
 20
144.7186620202263896
 30
0.0
 11
3648.0371274707899829
 21
144.7186620202263896
 31
0.0
  0
LINE
  5
FF8B
  8
0
 10
3648.0371274707899829
 20
144.7289844351263923
 30
0.0
 11
3648.028603598690097
 21
144.7328553407263882
 31
0.0
  0
LINE
  5
FF8C
  8
0
 10
3648.028603598690097
 20
144.7328553407263882
 30
0.0
 11
3648.0371274707899829
 21
144.7367262463264126
 31
0.0
  0
LINE
  5
FF8D
  8
0
 10
3648.0371274707899829
 20
144.7367262463264126
 30
0.0
 11
3648.0541752148901651
 21
144.7367262463264126
 31
0.0
  0
LINE
  5
FF8E
  8
0
 10
3648.0541752148901651
 20
144.7367262463264126
 30
0.0
 11
3648.0626990869891415
 21
144.7328553407263882
 31
0.0
  0
LINE
  5
FF8F
  8
0
 10
3648.0626990869891415
 20
144.7328553407263882
 30
0.0
 11
3648.0541752148901651
 21
144.7289844351263923
 31
0.0
  0
LINE
  5
FF90
  8
0
 10
3648.0541752148901651
 20
144.7289844351263923
 30
0.0
 11
3648.0371274707899829
 21
144.7289844351263923
 31
0.0
  0
LINE
  5
FF91
  8
0
 10
3648.0371274707899829
 20
144.7393068500263951
 30
0.0
 11
3648.028603598690097
 21
144.743177755626391
 31
0.0
  0
LINE
  5
FF92
  8
0
 10
3648.028603598690097
 20
144.743177755626391
 30
0.0
 11
3648.0371274707899829
 21
144.7470486612263869
 31
0.0
  0
LINE
  5
FF93
  8
0
 10
3648.0371274707899829
 20
144.7470486612263869
 30
0.0
 11
3648.0541752148901651
 21
144.7470486612263869
 31
0.0
  0
LINE
  5
FF94
  8
0
 10
3648.0541752148901651
 20
144.7470486612263869
 30
0.0
 11
3648.0626990869891415
 21
144.743177755626391
 31
0.0
  0
LINE
  5
FF95
  8
0
 10
3648.0626990869891415
 20
144.743177755626391
 30
0.0
 11
3648.0541752148901651
 21
144.7393068500263951
 31
0.0
  0
LINE
  5
FF96
  8
0
 10
3648.0541752148901651
 20
144.7393068500263951
 30
0.0
 11
3648.0371274707899829
 21
144.7393068500263951
 31
0.0
  0
LINE
  5
FF97
  8
0
 10
3648.0371274707899829
 20
144.7496292649263978
 30
0.0
 11
3648.028603598690097
 21
144.7535001705263937
 31
0.0
  0
LINE
  5
FF98
  8
0
 10
3648.028603598690097
 20
144.7535001705263937
 30
0.0
 11
3648.0371274707899829
 21
144.7573710761263897
 31
0.0
  0
LINE
  5
FF99
  8
0
 10
3648.0371274707899829
 20
144.7573710761263897
 30
0.0
 11
3648.0541752148901651
 21
144.7573710761263897
 31
0.0
  0
LINE
  5
FF9A
  8
0
 10
3648.0541752148901651
 20
144.7573710761263897
 30
0.0
 11
3648.0626990869891415
 21
144.7535001705263937
 31
0.0
  0
LINE
  5
FF9B
  8
0
 10
3648.0626990869891415
 20
144.7535001705263937
 30
0.0
 11
3648.0541752148901651
 21
144.7496292649263978
 31
0.0
  0
LINE
  5
FF9C
  8
0
 10
3648.0541752148901651
 20
144.7496292649263978
 30
0.0
 11
3648.0371274707899829
 21
144.7496292649263978
 31
0.0
  0
LINE
  5
FF9D
  8
0
 10
3648.0371274707899829
 20
144.7599516798264006
 30
0.0
 11
3648.028603598690097
 21
144.7638225854263965
 31
0.0
  0
LINE
  5
FF9E
  8
0
 10
3648.028603598690097
 20
144.7638225854263965
 30
0.0
 11
3648.0371274707899829
 21
144.7676934910263924
 31
0.0
  0
LINE
  5
FF9F
  8
0
 10
3648.0371274707899829
 20
144.7676934910263924
 30
0.0
 11
3648.0541752148901651
 21
144.7676934910263924
 31
0.0
  0
LINE
  5
FFA0
  8
0
 10
3648.0541752148901651
 20
144.7676934910263924
 30
0.0
 11
3648.0626990869891415
 21
144.7638225854263965
 31
0.0
  0
LINE
  5
FFA1
  8
0
 10
3648.0626990869891415
 20
144.7638225854263965
 30
0.0
 11
3648.0541752148901651
 21
144.7599516798264006
 31
0.0
  0
LINE
  5
FFA2
  8
0
 10
3648.0541752148901651
 20
144.7599516798264006
 30
0.0
 11
3648.0371274707899829
 21
144.7599516798264006
 31
0.0
  0
LINE
  5
FFA3
  8
0
 10
3648.0371274707899829
 20
144.7702740947264033
 30
0.0
 11
3648.028603598690097
 21
144.7741450003263992
 31
0.0
  0
LINE
  5
FFA4
  8
0
 10
3648.028603598690097
 20
144.7741450003263992
 30
0.0
 11
3648.0371274707899829
 21
144.7780159059263951
 31
0.0
  0
LINE
  5
FFA5
  8
0
 10
3648.0371274707899829
 20
144.7780159059263951
 30
0.0
 11
3648.0541752148901651
 21
144.7780159059263951
 31
0.0
  0
LINE
  5
FFA6
  8
0
 10
3648.0541752148901651
 20
144.7780159059263951
 30
0.0
 11
3648.0626990869891415
 21
144.7741450003263992
 31
0.0
  0
LINE
  5
FFA7
  8
0
 10
3648.0626990869891415
 20
144.7741450003263992
 30
0.0
 11
3648.0541752148901651
 21
144.7702740947264033
 31
0.0
  0
LINE
  5
FFA8
  8
0
 10
3648.0541752148901651
 20
144.7702740947264033
 30
0.0
 11
3648.0371274707899829
 21
144.7702740947264033
 31
0.0
  0
LINE
  5
FFA9
  8
0
 10
3648.0371274707899829
 20
144.7805965097263936
 30
0.0
 11
3648.028603598690097
 21
144.7844674153263895
 31
0.0
  0
LINE
  5
FFAA
  8
0
 10
3648.028603598690097
 20
144.7844674153263895
 30
0.0
 11
3648.0371274707899829
 21
144.7883383209264139
 31
0.0
  0
LINE
  5
FFAB
  8
0
 10
3648.0371274707899829
 20
144.7883383209264139
 30
0.0
 11
3648.0541752148901651
 21
144.7883383209264139
 31
0.0
  0
LINE
  5
FFAC
  8
0
 10
3648.0541752148901651
 20
144.7883383209264139
 30
0.0
 11
3648.0626990869891415
 21
144.7844674153263895
 31
0.0
  0
LINE
  5
FFAD
  8
0
 10
3648.0626990869891415
 20
144.7844674153263895
 30
0.0
 11
3648.0541752148901651
 21
144.7805965097263936
 31
0.0
  0
LINE
  5
FFAE
  8
0
 10
3648.0541752148901651
 20
144.7805965097263936
 30
0.0
 11
3648.0371274707899829
 21
144.7805965097263936
 31
0.0
  0
LINE
  5
FFAF
  8
0
 10
3648.0030319824390972
 20
144.6928559830263907
 30
0.0
 11
3647.9945081103401208
 21
144.6967268886263867
 31
0.0
  0
LINE
  5
FFB0
  8
0
 10
3647.9945081103401208
 20
144.6967268886263867
 30
0.0
 11
3648.0030319824390972
 21
144.700597794226411
 31
0.0
  0
LINE
  5
FFB1
  8
0
 10
3648.0030319824390972
 20
144.700597794226411
 30
0.0
 11
3648.0200797265401889
 21
144.700597794226411
 31
0.0
  0
LINE
  5
FFB2
  8
0
 10
3648.0200797265401889
 20
144.700597794226411
 30
0.0
 11
3648.0286035986400748
 21
144.6967268886263867
 31
0.0
  0
LINE
  5
FFB3
  8
0
 10
3648.0286035986400748
 20
144.6967268886263867
 30
0.0
 11
3648.0200797265401889
 21
144.6928559830263907
 31
0.0
  0
LINE
  5
FFB4
  8
0
 10
3648.0200797265401889
 20
144.6928559830263907
 30
0.0
 11
3648.0030319824390972
 21
144.6928559830263907
 31
0.0
  0
LINE
  5
FFB5
  8
0
 10
3648.0030319824390972
 20
144.7031783979263935
 30
0.0
 11
3647.9945081103401208
 21
144.7070493035263894
 31
0.0
  0
LINE
  5
FFB6
  8
0
 10
3647.9945081103401208
 20
144.7070493035263894
 30
0.0
 11
3648.0030319824390972
 21
144.7109202091264137
 31
0.0
  0
LINE
  5
FFB7
  8
0
 10
3648.0030319824390972
 20
144.7109202091264137
 30
0.0
 11
3648.0200797265401889
 21
144.7109202091264137
 31
0.0
  0
LINE
  5
FFB8
  8
0
 10
3648.0200797265401889
 20
144.7109202091264137
 30
0.0
 11
3648.0286035986400748
 21
144.7070493035263894
 31
0.0
  0
LINE
  5
FFB9
  8
0
 10
3648.0286035986400748
 20
144.7070493035263894
 30
0.0
 11
3648.0200797265401889
 21
144.7031783979263935
 31
0.0
  0
LINE
  5
FFBA
  8
0
 10
3648.0200797265401889
 20
144.7031783979263935
 30
0.0
 11
3648.0030319824390972
 21
144.7031783979263935
 31
0.0
  0
LINE
  5
FFBB
  8
0
 10
3648.0030319824390972
 20
144.7135008128263962
 30
0.0
 11
3647.9945081103401208
 21
144.7173717184263921
 31
0.0
  0
LINE
  5
FFBC
  8
0
 10
3647.9945081103401208
 20
144.7173717184263921
 30
0.0
 11
3648.0030319824390972
 21
144.7212426240263881
 31
0.0
  0
LINE
  5
FFBD
  8
0
 10
3648.0030319824390972
 20
144.7212426240263881
 30
0.0
 11
3648.0200797265401889
 21
144.7212426240263881
 31
0.0
  0
LINE
  5
FFBE
  8
0
 10
3648.0200797265401889
 20
144.7212426240263881
 30
0.0
 11
3648.0286035986400748
 21
144.7173717184263921
 31
0.0
  0
LINE
  5
FFBF
  8
0
 10
3648.0286035986400748
 20
144.7173717184263921
 30
0.0
 11
3648.0200797265401889
 21
144.7135008128263962
 31
0.0
  0
LINE
  5
FFC0
  8
0
 10
3648.0200797265401889
 20
144.7135008128263962
 30
0.0
 11
3648.0030319824390972
 21
144.7135008128263962
 31
0.0
  0
LINE
  5
FFC1
  8
0
 10
3648.0030319824390972
 20
144.723823227726399
 30
0.0
 11
3647.9945081103401208
 21
144.7276941333263949
 31
0.0
  0
LINE
  5
FFC2
  8
0
 10
3647.9945081103401208
 20
144.7276941333263949
 30
0.0
 11
3648.0030319824390972
 21
144.7315650389263908
 31
0.0
  0
LINE
  5
FFC3
  8
0
 10
3648.0030319824390972
 20
144.7315650389263908
 30
0.0
 11
3648.0200797265401889
 21
144.7315650389263908
 31
0.0
  0
LINE
  5
FFC4
  8
0
 10
3648.0200797265401889
 20
144.7315650389263908
 30
0.0
 11
3648.0286035986400748
 21
144.7276941333263949
 31
0.0
  0
LINE
  5
FFC5
  8
0
 10
3648.0286035986400748
 20
144.7276941333263949
 30
0.0
 11
3648.0200797265401889
 21
144.723823227726399
 31
0.0
  0
LINE
  5
FFC6
  8
0
 10
3648.0200797265401889
 20
144.723823227726399
 30
0.0
 11
3648.0030319824390972
 21
144.723823227726399
 31
0.0
  0
LINE
  5
FFC7
  8
0
 10
3648.0030319824390972
 20
144.7341456426264017
 30
0.0
 11
3647.9945081103401208
 21
144.7380165482263976
 31
0.0
  0
LINE
  5
FFC8
  8
0
 10
3647.9945081103401208
 20
144.7380165482263976
 30
0.0
 11
3648.0030319824390972
 21
144.7418874538263935
 31
0.0
  0
LINE
  5
FFC9
  8
0
 10
3648.0030319824390972
 20
144.7418874538263935
 30
0.0
 11
3648.0200797265401889
 21
144.7418874538263935
 31
0.0
  0
LINE
  5
FFCA
  8
0
 10
3648.0200797265401889
 20
144.7418874538263935
 30
0.0
 11
3648.0286035986400748
 21
144.7380165482263976
 31
0.0
  0
LINE
  5
FFCB
  8
0
 10
3648.0286035986400748
 20
144.7380165482263976
 30
0.0
 11
3648.0200797265401889
 21
144.7341456426264017
 31
0.0
  0
LINE
  5
FFCC
  8
0
 10
3648.0200797265401889
 20
144.7341456426264017
 30
0.0
 11
3648.0030319824390972
 21
144.7341456426264017
 31
0.0
  0
LINE
  5
FFCD
  8
0
 10
3648.0030319824390972
 20
144.7444680575264044
 30
0.0
 11
3647.9945081103401208
 21
144.7483389631264004
 31
0.0
  0
LINE
  5
FFCE
  8
0
 10
3647.9945081103401208
 20
144.7483389631264004
 30
0.0
 11
3648.0030319824390972
 21
144.7522098687263963
 31
0.0
  0
LINE
  5
FFCF
  8
0
 10
3648.0030319824390972
 20
144.7522098687263963
 30
0.0
 11
3648.0200797265401889
 21
144.7522098687263963
 31
0.0
  0
LINE
  5
FFD0
  8
0
 10
3648.0200797265401889
 20
144.7522098687263963
 30
0.0
 11
3648.0286035986400748
 21
144.7483389631264004
 31
0.0
  0
LINE
  5
FFD1
  8
0
 10
3648.0286035986400748
 20
144.7483389631264004
 30
0.0
 11
3648.0200797265401889
 21
144.7444680575264044
 31
0.0
  0
LINE
  5
FFD2
  8
0
 10
3648.0200797265401889
 20
144.7444680575264044
 30
0.0
 11
3648.0030319824390972
 21
144.7444680575264044
 31
0.0
  0
LINE
  5
FFD3
  8
0
 10
3648.0030319824390972
 20
144.7547904724264072
 30
0.0
 11
3647.9945081103401208
 21
144.7586613780264031
 31
0.0
  0
LINE
  5
FFD4
  8
0
 10
3647.9945081103401208
 20
144.7586613780264031
 30
0.0
 11
3648.0030319824390972
 21
144.762532283626399
 31
0.0
  0
LINE
  5
FFD5
  8
0
 10
3648.0030319824390972
 20
144.762532283626399
 30
0.0
 11
3648.0200797265401889
 21
144.762532283626399
 31
0.0
  0
LINE
  5
FFD6
  8
0
 10
3648.0200797265401889
 20
144.762532283626399
 30
0.0
 11
3648.0286035986400748
 21
144.7586613780264031
 31
0.0
  0
LINE
  5
FFD7
  8
0
 10
3648.0286035986400748
 20
144.7586613780264031
 30
0.0
 11
3648.0200797265401889
 21
144.7547904724264072
 31
0.0
  0
LINE
  5
FFD8
  8
0
 10
3648.0200797265401889
 20
144.7547904724264072
 30
0.0
 11
3648.0030319824390972
 21
144.7547904724264072
 31
0.0
  0
LINE
  5
FFD9
  8
0
 10
3648.0030319824390972
 20
144.7651128873264099
 30
0.0
 11
3647.9945081103401208
 21
144.7689837929264058
 31
0.0
  0
LINE
  5
FFDA
  8
0
 10
3647.9945081103401208
 20
144.7689837929264058
 30
0.0
 11
3648.0030319824390972
 21
144.7728546985264018
 31
0.0
  0
LINE
  5
FFDB
  8
0
 10
3648.0030319824390972
 20
144.7728546985264018
 30
0.0
 11
3648.0200797265401889
 21
144.7728546985264018
 31
0.0
  0
LINE
  5
FFDC
  8
0
 10
3648.0200797265401889
 20
144.7728546985264018
 30
0.0
 11
3648.0286035986400748
 21
144.7689837929264058
 31
0.0
  0
LINE
  5
FFDD
  8
0
 10
3648.0286035986400748
 20
144.7689837929264058
 30
0.0
 11
3648.0200797265401889
 21
144.7651128873264099
 31
0.0
  0
LINE
  5
FFDE
  8
0
 10
3648.0200797265401889
 20
144.7651128873264099
 30
0.0
 11
3648.0030319824390972
 21
144.7651128873264099
 31
0.0
  0
LINE
  5
FFDF
  8
0
 10
3648.0030319824390972
 20
144.7754353022264127
 30
0.0
 11
3647.9945081103401208
 21
144.7793062078264086
 31
0.0
  0
LINE
  5
FFE0
  8
0
 10
3647.9945081103401208
 20
144.7793062078264086
 30
0.0
 11
3648.0030319824390972
 21
144.7831771134264045
 31
0.0
  0
LINE
  5
FFE1
  8
0
 10
3648.0030319824390972
 20
144.7831771134264045
 30
0.0
 11
3648.0200797265401889
 21
144.7831771134264045
 31
0.0
  0
LINE
  5
FFE2
  8
0
 10
3648.0200797265401889
 20
144.7831771134264045
 30
0.0
 11
3648.0286035986400748
 21
144.7793062078264086
 31
0.0
  0
LINE
  5
FFE3
  8
0
 10
3648.0286035986400748
 20
144.7793062078264086
 30
0.0
 11
3648.0200797265401889
 21
144.7754353022264127
 31
0.0
  0
LINE
  5
FFE4
  8
0
 10
3648.0200797265401889
 20
144.7754353022264127
 30
0.0
 11
3648.0030319824390972
 21
144.7754353022264127
 31
0.0
  0
LINE
  5
FFE5
  8
0
 10
3648.0030319824390972
 20
144.785757717226403
 30
0.0
 11
3647.9945081103401208
 21
144.7896286228263989
 31
0.0
  0
LINE
  5
FFE6
  8
0
 10
3647.9945081103401208
 20
144.7896286228263989
 30
0.0
 11
3647.9980806081998708
 21
144.7912509843320095
 31
0.0
  0
LINE
  5
FFE7
  8
0
 10
3648.0233148610582248
 20
144.7920303721348887
 30
0.0
 11
3648.0286035986400748
 21
144.7896286228263989
 31
0.0
  0
LINE
  5
FFE8
  8
0
 10
3648.0286035986400748
 20
144.7896286228263989
 30
0.0
 11
3648.0200797265401889
 21
144.785757717226403
 31
0.0
  0
LINE
  5
FFE9
  8
0
 10
3648.0200797265401889
 20
144.785757717226403
 30
0.0
 11
3648.0030319824390972
 21
144.785757717226403
 31
0.0
  0
LINE
  5
FFEA
  8
0
 10
3647.9689364940900305
 20
144.6980171904264125
 30
0.0
 11
3647.9604126219901445
 21
144.7018880960264084
 31
0.0
  0
LINE
  5
FFEB
  8
0
 10
3647.9604126219901445
 20
144.7018880960264084
 30
0.0
 11
3647.9689364940900305
 21
144.7057590016264044
 31
0.0
  0
LINE
  5
FFEC
  8
0
 10
3647.9689364940900305
 20
144.7057590016264044
 30
0.0
 11
3647.9859842381902126
 21
144.7057590016264044
 31
0.0
  0
LINE
  5
FFED
  8
0
 10
3647.9859842381902126
 20
144.7057590016264044
 30
0.0
 11
3647.9945081102900986
 21
144.7018880960264084
 31
0.0
  0
LINE
  5
FFEE
  8
0
 10
3647.9945081102900986
 20
144.7018880960264084
 30
0.0
 11
3647.9859842381902126
 21
144.6980171904264125
 31
0.0
  0
LINE
  5
FFEF
  8
0
 10
3647.9859842381902126
 20
144.6980171904264125
 30
0.0
 11
3647.9689364940900305
 21
144.6980171904264125
 31
0.0
  0
LINE
  5
FFF0
  8
0
 10
3647.9689364940900305
 20
144.7083396053263868
 30
0.0
 11
3647.9604126219901445
 21
144.7122105109264112
 31
0.0
  0
LINE
  5
FFF1
  8
0
 10
3647.9604126219901445
 20
144.7122105109264112
 30
0.0
 11
3647.9689364940900305
 21
144.7160814165264071
 31
0.0
  0
LINE
  5
FFF2
  8
0
 10
3647.9689364940900305
 20
144.7160814165264071
 30
0.0
 11
3647.9859842381902126
 21
144.7160814165264071
 31
0.0
  0
LINE
  5
FFF3
  8
0
 10
3647.9859842381902126
 20
144.7160814165264071
 30
0.0
 11
3647.9945081102900986
 21
144.7122105109264112
 31
0.0
  0
LINE
  5
FFF4
  8
0
 10
3647.9945081102900986
 20
144.7122105109264112
 30
0.0
 11
3647.9859842381902126
 21
144.7083396053263868
 31
0.0
  0
LINE
  5
FFF5
  8
0
 10
3647.9859842381902126
 20
144.7083396053263868
 30
0.0
 11
3647.9689364940900305
 21
144.7083396053263868
 31
0.0
  0
LINE
  5
FFF6
  8
0
 10
3647.9689364940900305
 20
144.7186620202263896
 30
0.0
 11
3647.9604126219901445
 21
144.7225329258264139
 31
0.0
  0
LINE
  5
FFF7
  8
0
 10
3647.9604126219901445
 20
144.7225329258264139
 30
0.0
 11
3647.9689364940900305
 21
144.7264038314264099
 31
0.0
  0
LINE
  5
FFF8
  8
0
 10
3647.9689364940900305
 20
144.7264038314264099
 30
0.0
 11
3647.9859842381902126
 21
144.7264038314264099
 31
0.0
  0
LINE
  5
FFF9
  8
0
 10
3647.9859842381902126
 20
144.7264038314264099
 30
0.0
 11
3647.9945081102900986
 21
144.7225329258264139
 31
0.0
  0
LINE
  5
FFFA
  8
0
 10
3647.9945081102900986
 20
144.7225329258264139
 30
0.0
 11
3647.9859842381902126
 21
144.7186620202263896
 31
0.0
  0
LINE
  5
FFFB
  8
0
 10
3647.9859842381902126
 20
144.7186620202263896
 30
0.0
 11
3647.9689364940900305
 21
144.7186620202263896
 31
0.0
  0
LINE
  5
FFFC
  8
0
 10
3647.9689364940900305
 20
144.7289844351263923
 30
0.0
 11
3647.9604126219901445
 21
144.7328553407263882
 31
0.0
  0
LINE
  5
FFFD
  8
0
 10
3647.9604126219901445
 20
144.7328553407263882
 30
0.0
 11
3647.9689364940900305
 21
144.7367262463264126
 31
0.0
  0
LINE
  5
FFFE
  8
0
 10
3647.9689364940900305
 20
144.7367262463264126
 30
0.0
 11
3647.9859842381902126
 21
144.7367262463264126
 31
0.0
  0
LINE
  5
FFFF
  8
0
 10
3647.9859842381902126
 20
144.7367262463264126
 30
0.0
 11
3647.9945081102900986
 21
144.7328553407263882
 31
0.0
  0
LINE
  5
10000
  8
0
 10
3647.9945081102900986
 20
144.7328553407263882
 30
0.0
 11
3647.9859842381902126
 21
144.7289844351263923
 31
0.0
  0
LINE
  5
10001
  8
0
 10
3647.9859842381902126
 20
144.7289844351263923
 30
0.0
 11
3647.9689364940900305
 21
144.7289844351263923
 31
0.0
  0
LINE
  5
10002
  8
0
 10
3647.9689364940900305
 20
144.7393068500263951
 30
0.0
 11
3647.9604126219901445
 21
144.743177755626391
 31
0.0
  0
LINE
  5
10003
  8
0
 10
3647.9604126219901445
 20
144.743177755626391
 30
0.0
 11
3647.9689364940900305
 21
144.7470486612263869
 31
0.0
  0
LINE
  5
10004
  8
0
 10
3647.9689364940900305
 20
144.7470486612263869
 30
0.0
 11
3647.9859842381902126
 21
144.7470486612263869
 31
0.0
  0
LINE
  5
10005
  8
0
 10
3647.9859842381902126
 20
144.7470486612263869
 30
0.0
 11
3647.9945081102900986
 21
144.743177755626391
 31
0.0
  0
LINE
  5
10006
  8
0
 10
3647.9945081102900986
 20
144.743177755626391
 30
0.0
 11
3647.9859842381902126
 21
144.7393068500263951
 31
0.0
  0
LINE
  5
10007
  8
0
 10
3647.9859842381902126
 20
144.7393068500263951
 30
0.0
 11
3647.9689364940900305
 21
144.7393068500263951
 31
0.0
  0
LINE
  5
10008
  8
0
 10
3647.9689364940900305
 20
144.7496292649263978
 30
0.0
 11
3647.9604126219901445
 21
144.7535001705263937
 31
0.0
  0
LINE
  5
10009
  8
0
 10
3647.9604126219901445
 20
144.7535001705263937
 30
0.0
 11
3647.9689364940900305
 21
144.7573710761263897
 31
0.0
  0
LINE
  5
1000A
  8
0
 10
3647.9689364940900305
 20
144.7573710761263897
 30
0.0
 11
3647.9859842381902126
 21
144.7573710761263897
 31
0.0
  0
LINE
  5
1000B
  8
0
 10
3647.9859842381902126
 20
144.7573710761263897
 30
0.0
 11
3647.9945081102900986
 21
144.7535001705263937
 31
0.0
  0
LINE
  5
1000C
  8
0
 10
3647.9945081102900986
 20
144.7535001705263937
 30
0.0
 11
3647.9859842381902126
 21
144.7496292649263978
 31
0.0
  0
LINE
  5
1000D
  8
0
 10
3647.9859842381902126
 20
144.7496292649263978
 30
0.0
 11
3647.9689364940900305
 21
144.7496292649263978
 31
0.0
  0
LINE
  5
1000E
  8
0
 10
3647.9689364940900305
 20
144.7599516798264006
 30
0.0
 11
3647.9604126219901445
 21
144.7638225854263965
 31
0.0
  0
LINE
  5
1000F
  8
0
 10
3647.9604126219901445
 20
144.7638225854263965
 30
0.0
 11
3647.9689364940900305
 21
144.7676934910263924
 31
0.0
  0
LINE
  5
10010
  8
0
 10
3647.9689364940900305
 20
144.7676934910263924
 30
0.0
 11
3647.9859842381902126
 21
144.7676934910263924
 31
0.0
  0
LINE
  5
10011
  8
0
 10
3647.9859842381902126
 20
144.7676934910263924
 30
0.0
 11
3647.9945081102900986
 21
144.7638225854263965
 31
0.0
  0
LINE
  5
10012
  8
0
 10
3647.9945081102900986
 20
144.7638225854263965
 30
0.0
 11
3647.9859842381902126
 21
144.7599516798264006
 31
0.0
  0
LINE
  5
10013
  8
0
 10
3647.9859842381902126
 20
144.7599516798264006
 30
0.0
 11
3647.9689364940900305
 21
144.7599516798264006
 31
0.0
  0
LINE
  5
10014
  8
0
 10
3647.9689364940900305
 20
144.7702740947264033
 30
0.0
 11
3647.9604126219901445
 21
144.7741450003263992
 31
0.0
  0
LINE
  5
10015
  8
0
 10
3647.9604126219901445
 20
144.7741450003263992
 30
0.0
 11
3647.9689364940900305
 21
144.7780159059263951
 31
0.0
  0
LINE
  5
10016
  8
0
 10
3647.9689364940900305
 20
144.7780159059263951
 30
0.0
 11
3647.9859842381902126
 21
144.7780159059263951
 31
0.0
  0
LINE
  5
10017
  8
0
 10
3647.9859842381902126
 20
144.7780159059263951
 30
0.0
 11
3647.9945081102900986
 21
144.7741450003263992
 31
0.0
  0
LINE
  5
10018
  8
0
 10
3647.9945081102900986
 20
144.7741450003263992
 30
0.0
 11
3647.9859842381902126
 21
144.7702740947264033
 31
0.0
  0
LINE
  5
10019
  8
0
 10
3647.9859842381902126
 20
144.7702740947264033
 30
0.0
 11
3647.9689364940900305
 21
144.7702740947264033
 31
0.0
  0
LINE
  5
1001A
  8
0
 10
3647.9689364940900305
 20
144.780596509626406
 30
0.0
 11
3647.9604126219901445
 21
144.784467415226402
 31
0.0
  0
LINE
  5
1001B
  8
0
 10
3647.9604126219901445
 20
144.784467415226402
 30
0.0
 11
3647.9689364940900305
 21
144.7883383208263979
 31
0.0
  0
LINE
  5
1001C
  8
0
 10
3647.9689364940900305
 20
144.7883383208263979
 30
0.0
 11
3647.9859842381902126
 21
144.7883383208263979
 31
0.0
  0
LINE
  5
1001D
  8
0
 10
3647.9859842381902126
 20
144.7883383208263979
 30
0.0
 11
3647.9945081102900986
 21
144.784467415226402
 31
0.0
  0
LINE
  5
1001E
  8
0
 10
3647.9945081102900986
 20
144.784467415226402
 30
0.0
 11
3647.9859842381902126
 21
144.780596509626406
 31
0.0
  0
LINE
  5
1001F
  8
0
 10
3647.9859842381902126
 20
144.780596509626406
 30
0.0
 11
3647.9689364940900305
 21
144.780596509626406
 31
0.0
  0
LINE
  5
10020
  8
0
 10
3647.9348410057900765
 20
144.6928559830263907
 30
0.0
 11
3647.9263171336901905
 21
144.6967268886263867
 31
0.0
  0
LINE
  5
10021
  8
0
 10
3647.9263171336901905
 20
144.6967268886263867
 30
0.0
 11
3647.9348410057900765
 21
144.700597794226411
 31
0.0
  0
LINE
  5
10022
  8
0
 10
3647.9348410057900765
 20
144.700597794226411
 30
0.0
 11
3647.9518887498898039
 21
144.700597794226411
 31
0.0
  0
LINE
  5
10023
  8
0
 10
3647.9518887498898039
 20
144.700597794226411
 30
0.0
 11
3647.9604126219901445
 21
144.6967268886263867
 31
0.0
  0
LINE
  5
10024
  8
0
 10
3647.9604126219901445
 20
144.6967268886263867
 30
0.0
 11
3647.9518887498898039
 21
144.6928559830263907
 31
0.0
  0
LINE
  5
10025
  8
0
 10
3647.9518887498898039
 20
144.6928559830263907
 30
0.0
 11
3647.9348410057900765
 21
144.6928559830263907
 31
0.0
  0
LINE
  5
10026
  8
0
 10
3647.9348410057900765
 20
144.7031783979263935
 30
0.0
 11
3647.9263171336901905
 21
144.7070493035263894
 31
0.0
  0
LINE
  5
10027
  8
0
 10
3647.9263171336901905
 20
144.7070493035263894
 30
0.0
 11
3647.9348410057900765
 21
144.7109202091264137
 31
0.0
  0
LINE
  5
10028
  8
0
 10
3647.9348410057900765
 20
144.7109202091264137
 30
0.0
 11
3647.9518887498898039
 21
144.7109202091264137
 31
0.0
  0
LINE
  5
10029
  8
0
 10
3647.9518887498898039
 20
144.7109202091264137
 30
0.0
 11
3647.9604126219901445
 21
144.7070493035263894
 31
0.0
  0
LINE
  5
1002A
  8
0
 10
3647.9604126219901445
 20
144.7070493035263894
 30
0.0
 11
3647.9518887498898039
 21
144.7031783979263935
 31
0.0
  0
LINE
  5
1002B
  8
0
 10
3647.9518887498898039
 20
144.7031783979263935
 30
0.0
 11
3647.9348410057900765
 21
144.7031783979263935
 31
0.0
  0
LINE
  5
1002C
  8
0
 10
3647.9348410057900765
 20
144.7135008128263962
 30
0.0
 11
3647.9263171336901905
 21
144.7173717184263921
 31
0.0
  0
LINE
  5
1002D
  8
0
 10
3647.9263171336901905
 20
144.7173717184263921
 30
0.0
 11
3647.9348410057900765
 21
144.7212426240263881
 31
0.0
  0
LINE
  5
1002E
  8
0
 10
3647.9348410057900765
 20
144.7212426240263881
 30
0.0
 11
3647.9518887498898039
 21
144.7212426240263881
 31
0.0
  0
LINE
  5
1002F
  8
0
 10
3647.9518887498898039
 20
144.7212426240263881
 30
0.0
 11
3647.9604126219901445
 21
144.7173717184263921
 31
0.0
  0
LINE
  5
10030
  8
0
 10
3647.9604126219901445
 20
144.7173717184263921
 30
0.0
 11
3647.9518887498898039
 21
144.7135008128263962
 31
0.0
  0
LINE
  5
10031
  8
0
 10
3647.9518887498898039
 20
144.7135008128263962
 30
0.0
 11
3647.9348410057900765
 21
144.7135008128263962
 31
0.0
  0
LINE
  5
10032
  8
0
 10
3647.9348410057900765
 20
144.723823227726399
 30
0.0
 11
3647.9263171336901905
 21
144.7276941333263949
 31
0.0
  0
LINE
  5
10033
  8
0
 10
3647.9263171336901905
 20
144.7276941333263949
 30
0.0
 11
3647.9348410057900765
 21
144.7315650389263908
 31
0.0
  0
LINE
  5
10034
  8
0
 10
3647.9348410057900765
 20
144.7315650389263908
 30
0.0
 11
3647.9518887498898039
 21
144.7315650389263908
 31
0.0
  0
LINE
  5
10035
  8
0
 10
3647.9518887498898039
 20
144.7315650389263908
 30
0.0
 11
3647.9604126219901445
 21
144.7276941333263949
 31
0.0
  0
LINE
  5
10036
  8
0
 10
3647.9604126219901445
 20
144.7276941333263949
 30
0.0
 11
3647.9518887498898039
 21
144.723823227726399
 31
0.0
  0
LINE
  5
10037
  8
0
 10
3647.9518887498898039
 20
144.723823227726399
 30
0.0
 11
3647.9348410057900765
 21
144.723823227726399
 31
0.0
  0
LINE
  5
10038
  8
0
 10
3647.9348410057900765
 20
144.7341456426264017
 30
0.0
 11
3647.9263171336901905
 21
144.7380165482263976
 31
0.0
  0
LINE
  5
10039
  8
0
 10
3647.9263171336901905
 20
144.7380165482263976
 30
0.0
 11
3647.9348410057900765
 21
144.7418874538263935
 31
0.0
  0
LINE
  5
1003A
  8
0
 10
3647.9348410057900765
 20
144.7418874538263935
 30
0.0
 11
3647.9518887498898039
 21
144.7418874538263935
 31
0.0
  0
LINE
  5
1003B
  8
0
 10
3647.9518887498898039
 20
144.7418874538263935
 30
0.0
 11
3647.9604126219901445
 21
144.7380165482263976
 31
0.0
  0
LINE
  5
1003C
  8
0
 10
3647.9604126219901445
 20
144.7380165482263976
 30
0.0
 11
3647.9518887498898039
 21
144.7341456426264017
 31
0.0
  0
LINE
  5
1003D
  8
0
 10
3647.9518887498898039
 20
144.7341456426264017
 30
0.0
 11
3647.9348410057900765
 21
144.7341456426264017
 31
0.0
  0
LINE
  5
1003E
  8
0
 10
3647.9348410057900765
 20
144.7444680575264044
 30
0.0
 11
3647.9263171336901905
 21
144.7483389631264004
 31
0.0
  0
LINE
  5
1003F
  8
0
 10
3647.9263171336901905
 20
144.7483389631264004
 30
0.0
 11
3647.9348410057900765
 21
144.7522098687263963
 31
0.0
  0
LINE
  5
10040
  8
0
 10
3647.9348410057900765
 20
144.7522098687263963
 30
0.0
 11
3647.9518887498898039
 21
144.7522098687263963
 31
0.0
  0
LINE
  5
10041
  8
0
 10
3647.9518887498898039
 20
144.7522098687263963
 30
0.0
 11
3647.9604126219901445
 21
144.7483389631264004
 31
0.0
  0
LINE
  5
10042
  8
0
 10
3647.9604126219901445
 20
144.7483389631264004
 30
0.0
 11
3647.9518887498898039
 21
144.7444680575264044
 31
0.0
  0
LINE
  5
10043
  8
0
 10
3647.9518887498898039
 20
144.7444680575264044
 30
0.0
 11
3647.9348410057900765
 21
144.7444680575264044
 31
0.0
  0
LINE
  5
10044
  8
0
 10
3647.9348410057900765
 20
144.7547904724264072
 30
0.0
 11
3647.9263171336901905
 21
144.7586613780264031
 31
0.0
  0
LINE
  5
10045
  8
0
 10
3647.9263171336901905
 20
144.7586613780264031
 30
0.0
 11
3647.9348410057900765
 21
144.762532283626399
 31
0.0
  0
LINE
  5
10046
  8
0
 10
3647.9348410057900765
 20
144.762532283626399
 30
0.0
 11
3647.9518887498898039
 21
144.762532283626399
 31
0.0
  0
LINE
  5
10047
  8
0
 10
3647.9518887498898039
 20
144.762532283626399
 30
0.0
 11
3647.9604126219901445
 21
144.7586613780264031
 31
0.0
  0
LINE
  5
10048
  8
0
 10
3647.9604126219901445
 20
144.7586613780264031
 30
0.0
 11
3647.9518887498898039
 21
144.7547904724264072
 31
0.0
  0
LINE
  5
10049
  8
0
 10
3647.9518887498898039
 20
144.7547904724264072
 30
0.0
 11
3647.9348410057900765
 21
144.7547904724264072
 31
0.0
  0
LINE
  5
1004A
  8
0
 10
3647.9348410057900765
 20
144.7651128873264099
 30
0.0
 11
3647.9263171336901905
 21
144.7689837929264058
 31
0.0
  0
LINE
  5
1004B
  8
0
 10
3647.9263171336901905
 20
144.7689837929264058
 30
0.0
 11
3647.9348410057900765
 21
144.7728546985264018
 31
0.0
  0
LINE
  5
1004C
  8
0
 10
3647.9348410057900765
 20
144.7728546985264018
 30
0.0
 11
3647.9518887498898039
 21
144.7728546985264018
 31
0.0
  0
LINE
  5
1004D
  8
0
 10
3647.9518887498898039
 20
144.7728546985264018
 30
0.0
 11
3647.9604126219901445
 21
144.7689837929264058
 31
0.0
  0
LINE
  5
1004E
  8
0
 10
3647.9604126219901445
 20
144.7689837929264058
 30
0.0
 11
3647.9518887498898039
 21
144.7651128873264099
 31
0.0
  0
LINE
  5
1004F
  8
0
 10
3647.9518887498898039
 20
144.7651128873264099
 30
0.0
 11
3647.9348410057900765
 21
144.7651128873264099
 31
0.0
  0
LINE
  5
10050
  8
0
 10
3647.9348410057900765
 20
144.7754353022264127
 30
0.0
 11
3647.9263171336901905
 21
144.7793062078264086
 31
0.0
  0
LINE
  5
10051
  8
0
 10
3647.9263171336901905
 20
144.7793062078264086
 30
0.0
 11
3647.9348410057900765
 21
144.7831771134264045
 31
0.0
  0
LINE
  5
10052
  8
0
 10
3647.9348410057900765
 20
144.7831771134264045
 30
0.0
 11
3647.9518887498898039
 21
144.7831771134264045
 31
0.0
  0
LINE
  5
10053
  8
0
 10
3647.9518887498898039
 20
144.7831771134264045
 30
0.0
 11
3647.9604126219901445
 21
144.7793062078264086
 31
0.0
  0
LINE
  5
10054
  8
0
 10
3647.9604126219901445
 20
144.7793062078264086
 30
0.0
 11
3647.9518887498898039
 21
144.7754353022264127
 31
0.0
  0
LINE
  5
10055
  8
0
 10
3647.9518887498898039
 20
144.7754353022264127
 30
0.0
 11
3647.9348410057900765
 21
144.7754353022264127
 31
0.0
  0
LINE
  5
10056
  8
0
 10
3647.9348410057900765
 20
144.785757717226403
 30
0.0
 11
3647.9322985897651961
 21
144.7869122925546037
 31
0.0
  0
LINE
  5
10057
  8
0
 10
3647.9592333028481335
 20
144.7890930642190881
 30
0.0
 11
3647.9518887498898039
 21
144.785757717226403
 31
0.0
  0
LINE
  5
10058
  8
0
 10
3647.9518887498898039
 20
144.785757717226403
 30
0.0
 11
3647.9348410057900765
 21
144.785757717226403
 31
0.0
  0
LINE
  5
10059
  8
0
 10
3647.9007455174401002
 20
144.6980171904264125
 30
0.0
 11
3647.8922216453402143
 21
144.7018880960264084
 31
0.0
  0
LINE
  5
1005A
  8
0
 10
3647.8922216453402143
 20
144.7018880960264084
 30
0.0
 11
3647.9007455174401002
 21
144.7057590016264044
 31
0.0
  0
LINE
  5
1005B
  8
0
 10
3647.9007455174401002
 20
144.7057590016264044
 30
0.0
 11
3647.9177932615398277
 21
144.7057590016264044
 31
0.0
  0
LINE
  5
1005C
  8
0
 10
3647.9177932615398277
 20
144.7057590016264044
 30
0.0
 11
3647.9263171336401683
 21
144.7018880960264084
 31
0.0
  0
LINE
  5
1005D
  8
0
 10
3647.9263171336401683
 20
144.7018880960264084
 30
0.0
 11
3647.9177932615398277
 21
144.6980171904264125
 31
0.0
  0
LINE
  5
1005E
  8
0
 10
3647.9177932615398277
 20
144.6980171904264125
 30
0.0
 11
3647.9007455174401002
 21
144.6980171904264125
 31
0.0
  0
LINE
  5
1005F
  8
0
 10
3647.9007455174401002
 20
144.7083396053263868
 30
0.0
 11
3647.8922216453402143
 21
144.7122105109264112
 31
0.0
  0
LINE
  5
10060
  8
0
 10
3647.8922216453402143
 20
144.7122105109264112
 30
0.0
 11
3647.9007455174401002
 21
144.7160814165264071
 31
0.0
  0
LINE
  5
10061
  8
0
 10
3647.9007455174401002
 20
144.7160814165264071
 30
0.0
 11
3647.9177932615398277
 21
144.7160814165264071
 31
0.0
  0
LINE
  5
10062
  8
0
 10
3647.9177932615398277
 20
144.7160814165264071
 30
0.0
 11
3647.9263171336401683
 21
144.7122105109264112
 31
0.0
  0
LINE
  5
10063
  8
0
 10
3647.9263171336401683
 20
144.7122105109264112
 30
0.0
 11
3647.9177932615398277
 21
144.7083396053263868
 31
0.0
  0
LINE
  5
10064
  8
0
 10
3647.9177932615398277
 20
144.7083396053263868
 30
0.0
 11
3647.9007455174401002
 21
144.7083396053263868
 31
0.0
  0
LINE
  5
10065
  8
0
 10
3647.9007455174401002
 20
144.7186620202263896
 30
0.0
 11
3647.8922216453402143
 21
144.7225329258264139
 31
0.0
  0
LINE
  5
10066
  8
0
 10
3647.8922216453402143
 20
144.7225329258264139
 30
0.0
 11
3647.9007455174401002
 21
144.7264038314264099
 31
0.0
  0
LINE
  5
10067
  8
0
 10
3647.9007455174401002
 20
144.7264038314264099
 30
0.0
 11
3647.9177932615398277
 21
144.7264038314264099
 31
0.0
  0
LINE
  5
10068
  8
0
 10
3647.9177932615398277
 20
144.7264038314264099
 30
0.0
 11
3647.9263171336401683
 21
144.7225329258264139
 31
0.0
  0
LINE
  5
10069
  8
0
 10
3647.9263171336401683
 20
144.7225329258264139
 30
0.0
 11
3647.9177932615398277
 21
144.7186620202263896
 31
0.0
  0
LINE
  5
1006A
  8
0
 10
3647.9177932615398277
 20
144.7186620202263896
 30
0.0
 11
3647.9007455174401002
 21
144.7186620202263896
 31
0.0
  0
LINE
  5
1006B
  8
0
 10
3647.9007455174401002
 20
144.7289844351263923
 30
0.0
 11
3647.8922216453402143
 21
144.7328553407263882
 31
0.0
  0
LINE
  5
1006C
  8
0
 10
3647.8922216453402143
 20
144.7328553407263882
 30
0.0
 11
3647.9007455174401002
 21
144.7367262463264126
 31
0.0
  0
LINE
  5
1006D
  8
0
 10
3647.9007455174401002
 20
144.7367262463264126
 30
0.0
 11
3647.9177932615398277
 21
144.7367262463264126
 31
0.0
  0
LINE
  5
1006E
  8
0
 10
3647.9177932615398277
 20
144.7367262463264126
 30
0.0
 11
3647.9263171336401683
 21
144.7328553407263882
 31
0.0
  0
LINE
  5
1006F
  8
0
 10
3647.9263171336401683
 20
144.7328553407263882
 30
0.0
 11
3647.9177932615398277
 21
144.7289844351263923
 31
0.0
  0
LINE
  5
10070
  8
0
 10
3647.9177932615398277
 20
144.7289844351263923
 30
0.0
 11
3647.9007455174401002
 21
144.7289844351263923
 31
0.0
  0
LINE
  5
10071
  8
0
 10
3647.9007455174401002
 20
144.7393068500263951
 30
0.0
 11
3647.8922216453402143
 21
144.743177755626391
 31
0.0
  0
LINE
  5
10072
  8
0
 10
3647.8922216453402143
 20
144.743177755626391
 30
0.0
 11
3647.9007455174401002
 21
144.7470486612263869
 31
0.0
  0
LINE
  5
10073
  8
0
 10
3647.9007455174401002
 20
144.7470486612263869
 30
0.0
 11
3647.9177932615398277
 21
144.7470486612263869
 31
0.0
  0
LINE
  5
10074
  8
0
 10
3647.9177932615398277
 20
144.7470486612263869
 30
0.0
 11
3647.9263171336401683
 21
144.743177755626391
 31
0.0
  0
LINE
  5
10075
  8
0
 10
3647.9263171336401683
 20
144.743177755626391
 30
0.0
 11
3647.9177932615398277
 21
144.7393068500263951
 31
0.0
  0
LINE
  5
10076
  8
0
 10
3647.9177932615398277
 20
144.7393068500263951
 30
0.0
 11
3647.9007455174401002
 21
144.7393068500263951
 31
0.0
  0
LINE
  5
10077
  8
0
 10
3647.9007455174401002
 20
144.7496292649263978
 30
0.0
 11
3647.8922216453402143
 21
144.7535001705263937
 31
0.0
  0
LINE
  5
10078
  8
0
 10
3647.8922216453402143
 20
144.7535001705263937
 30
0.0
 11
3647.9007455174401002
 21
144.7573710761263897
 31
0.0
  0
LINE
  5
10079
  8
0
 10
3647.9007455174401002
 20
144.7573710761263897
 30
0.0
 11
3647.9177932615398277
 21
144.7573710761263897
 31
0.0
  0
LINE
  5
1007A
  8
0
 10
3647.9177932615398277
 20
144.7573710761263897
 30
0.0
 11
3647.9263171336401683
 21
144.7535001705263937
 31
0.0
  0
LINE
  5
1007B
  8
0
 10
3647.9263171336401683
 20
144.7535001705263937
 30
0.0
 11
3647.9177932615398277
 21
144.7496292649263978
 31
0.0
  0
LINE
  5
1007C
  8
0
 10
3647.9177932615398277
 20
144.7496292649263978
 30
0.0
 11
3647.9007455174401002
 21
144.7496292649263978
 31
0.0
  0
LINE
  5
1007D
  8
0
 10
3647.9007455174401002
 20
144.7599516798264006
 30
0.0
 11
3647.8922216453402143
 21
144.7638225854263965
 31
0.0
  0
LINE
  5
1007E
  8
0
 10
3647.8922216453402143
 20
144.7638225854263965
 30
0.0
 11
3647.9007455174401002
 21
144.7676934910263924
 31
0.0
  0
LINE
  5
1007F
  8
0
 10
3647.9007455174401002
 20
144.7676934910263924
 30
0.0
 11
3647.9177932615398277
 21
144.7676934910263924
 31
0.0
  0
LINE
  5
10080
  8
0
 10
3647.9177932615398277
 20
144.7676934910263924
 30
0.0
 11
3647.9263171336401683
 21
144.7638225854263965
 31
0.0
  0
LINE
  5
10081
  8
0
 10
3647.9263171336401683
 20
144.7638225854263965
 30
0.0
 11
3647.9177932615398277
 21
144.7599516798264006
 31
0.0
  0
LINE
  5
10082
  8
0
 10
3647.9177932615398277
 20
144.7599516798264006
 30
0.0
 11
3647.9007455174401002
 21
144.7599516798264006
 31
0.0
  0
LINE
  5
10083
  8
0
 10
3647.9007455174401002
 20
144.7702740947264033
 30
0.0
 11
3647.8922216453402143
 21
144.7741450003263992
 31
0.0
  0
LINE
  5
10084
  8
0
 10
3647.8922216453402143
 20
144.7741450003263992
 30
0.0
 11
3647.9007455174401002
 21
144.7780159059263951
 31
0.0
  0
LINE
  5
10085
  8
0
 10
3647.9007455174401002
 20
144.7780159059263951
 30
0.0
 11
3647.9177932615398277
 21
144.7780159059263951
 31
0.0
  0
LINE
  5
10086
  8
0
 10
3647.9177932615398277
 20
144.7780159059263951
 30
0.0
 11
3647.9263171336401683
 21
144.7741450003263992
 31
0.0
  0
LINE
  5
10087
  8
0
 10
3647.9263171336401683
 20
144.7741450003263992
 30
0.0
 11
3647.9177932615398277
 21
144.7702740947264033
 31
0.0
  0
LINE
  5
10088
  8
0
 10
3647.9177932615398277
 20
144.7702740947264033
 30
0.0
 11
3647.9007455174401002
 21
144.7702740947264033
 31
0.0
  0
LINE
  5
10089
  8
0
 10
3647.9007455174401002
 20
144.780596509626406
 30
0.0
 11
3647.895426316817975
 21
144.7830120929704947
 31
0.0
  0
LINE
  5
1008A
  8
0
 10
3647.9229007268681926
 20
144.7860188918261883
 30
0.0
 11
3647.9263171336401683
 21
144.784467415226402
 31
0.0
  0
LINE
  5
1008B
  8
0
 10
3647.9263171336401683
 20
144.784467415226402
 30
0.0
 11
3647.9177932615398277
 21
144.780596509626406
 31
0.0
  0
LINE
  5
1008C
  8
0
 10
3647.9177932615398277
 20
144.780596509626406
 30
0.0
 11
3647.9007455174401002
 21
144.780596509626406
 31
0.0
  0
LINE
  5
1008D
  8
0
 10
3647.8588819004639845
 20
144.707392505725096
 30
0.0
 11
3647.866650029090124
 21
144.7109202091264137
 31
0.0
  0
LINE
  5
1008E
  8
0
 10
3647.866650029090124
 20
144.7109202091264137
 30
0.0
 11
3647.8836977731898514
 21
144.7109202091264137
 31
0.0
  0
LINE
  5
1008F
  8
0
 10
3647.8836977731898514
 20
144.7109202091264137
 30
0.0
 11
3647.8922216452901921
 21
144.7070493035263894
 31
0.0
  0
LINE
  5
10090
  8
0
 10
3647.8922216452901921
 20
144.7070493035263894
 30
0.0
 11
3647.8836977731898514
 21
144.7031783979263935
 31
0.0
  0
LINE
  5
10091
  8
0
 10
3647.8836977731898514
 20
144.7031783979263935
 30
0.0
 11
3647.8756282207627919
 21
144.7031783979263935
 31
0.0
  0
LINE
  5
10092
  8
0
 10
3647.866650029090124
 20
144.7135008128263962
 30
0.0
 11
3647.8581261569897833
 21
144.7173717184263921
 31
0.0
  0
LINE
  5
10093
  8
0
 10
3647.8581261569897833
 20
144.7173717184263921
 30
0.0
 11
3647.866650029090124
 21
144.7212426240263881
 31
0.0
  0
LINE
  5
10094
  8
0
 10
3647.866650029090124
 20
144.7212426240263881
 30
0.0
 11
3647.8836977731898514
 21
144.7212426240263881
 31
0.0
  0
LINE
  5
10095
  8
0
 10
3647.8836977731898514
 20
144.7212426240263881
 30
0.0
 11
3647.8922216452901921
 21
144.7173717184263921
 31
0.0
  0
LINE
  5
10096
  8
0
 10
3647.8922216452901921
 20
144.7173717184263921
 30
0.0
 11
3647.8836977731898514
 21
144.7135008128263962
 31
0.0
  0
LINE
  5
10097
  8
0
 10
3647.8836977731898514
 20
144.7135008128263962
 30
0.0
 11
3647.866650029090124
 21
144.7135008128263962
 31
0.0
  0
LINE
  5
10098
  8
0
 10
3647.866650029090124
 20
144.723823227726399
 30
0.0
 11
3647.8581261569897833
 21
144.7276941333263949
 31
0.0
  0
LINE
  5
10099
  8
0
 10
3647.8581261569897833
 20
144.7276941333263949
 30
0.0
 11
3647.866650029090124
 21
144.7315650389263908
 31
0.0
  0
LINE
  5
1009A
  8
0
 10
3647.866650029090124
 20
144.7315650389263908
 30
0.0
 11
3647.8836977731898514
 21
144.7315650389263908
 31
0.0
  0
LINE
  5
1009B
  8
0
 10
3647.8836977731898514
 20
144.7315650389263908
 30
0.0
 11
3647.8922216452901921
 21
144.7276941333263949
 31
0.0
  0
LINE
  5
1009C
  8
0
 10
3647.8922216452901921
 20
144.7276941333263949
 30
0.0
 11
3647.8836977731898514
 21
144.723823227726399
 31
0.0
  0
LINE
  5
1009D
  8
0
 10
3647.8836977731898514
 20
144.723823227726399
 30
0.0
 11
3647.866650029090124
 21
144.723823227726399
 31
0.0
  0
LINE
  5
1009E
  8
0
 10
3647.866650029090124
 20
144.7341456426264017
 30
0.0
 11
3647.8581261569897833
 21
144.7380165482263976
 31
0.0
  0
LINE
  5
1009F
  8
0
 10
3647.8581261569897833
 20
144.7380165482263976
 30
0.0
 11
3647.866650029090124
 21
144.7418874538263935
 31
0.0
  0
LINE
  5
100A0
  8
0
 10
3647.866650029090124
 20
144.7418874538263935
 30
0.0
 11
3647.8836977731898514
 21
144.7418874538263935
 31
0.0
  0
LINE
  5
100A1
  8
0
 10
3647.8836977731898514
 20
144.7418874538263935
 30
0.0
 11
3647.8922216452901921
 21
144.7380165482263976
 31
0.0
  0
LINE
  5
100A2
  8
0
 10
3647.8922216452901921
 20
144.7380165482263976
 30
0.0
 11
3647.8836977731898514
 21
144.7341456426264017
 31
0.0
  0
LINE
  5
100A3
  8
0
 10
3647.8836977731898514
 20
144.7341456426264017
 30
0.0
 11
3647.866650029090124
 21
144.7341456426264017
 31
0.0
  0
LINE
  5
100A4
  8
0
 10
3647.866650029090124
 20
144.7444680575264044
 30
0.0
 11
3647.8581261569897833
 21
144.7483389631264004
 31
0.0
  0
LINE
  5
100A5
  8
0
 10
3647.8581261569897833
 20
144.7483389631264004
 30
0.0
 11
3647.866650029090124
 21
144.7522098687263963
 31
0.0
  0
LINE
  5
100A6
  8
0
 10
3647.866650029090124
 20
144.7522098687263963
 30
0.0
 11
3647.8836977731898514
 21
144.7522098687263963
 31
0.0
  0
LINE
  5
100A7
  8
0
 10
3647.8836977731898514
 20
144.7522098687263963
 30
0.0
 11
3647.8922216452901921
 21
144.7483389631264004
 31
0.0
  0
LINE
  5
100A8
  8
0
 10
3647.8922216452901921
 20
144.7483389631264004
 30
0.0
 11
3647.8836977731898514
 21
144.7444680575264044
 31
0.0
  0
LINE
  5
100A9
  8
0
 10
3647.8836977731898514
 20
144.7444680575264044
 30
0.0
 11
3647.866650029090124
 21
144.7444680575264044
 31
0.0
  0
LINE
  5
100AA
  8
0
 10
3647.866650029090124
 20
144.7547904724264072
 30
0.0
 11
3647.8581261569897833
 21
144.7586613780264031
 31
0.0
  0
LINE
  5
100AB
  8
0
 10
3647.8581261569897833
 20
144.7586613780264031
 30
0.0
 11
3647.866650029090124
 21
144.762532283626399
 31
0.0
  0
LINE
  5
100AC
  8
0
 10
3647.866650029090124
 20
144.762532283626399
 30
0.0
 11
3647.8836977731898514
 21
144.762532283626399
 31
0.0
  0
LINE
  5
100AD
  8
0
 10
3647.8836977731898514
 20
144.762532283626399
 30
0.0
 11
3647.8922216452901921
 21
144.7586613780264031
 31
0.0
  0
LINE
  5
100AE
  8
0
 10
3647.8922216452901921
 20
144.7586613780264031
 30
0.0
 11
3647.8836977731898514
 21
144.7547904724264072
 31
0.0
  0
LINE
  5
100AF
  8
0
 10
3647.8836977731898514
 20
144.7547904724264072
 30
0.0
 11
3647.866650029090124
 21
144.7547904724264072
 31
0.0
  0
LINE
  5
100B0
  8
0
 10
3647.866650029090124
 20
144.7651128873264099
 30
0.0
 11
3647.8581261569897833
 21
144.7689837929264058
 31
0.0
  0
LINE
  5
100B1
  8
0
 10
3647.8581261569897833
 20
144.7689837929264058
 30
0.0
 11
3647.866650029090124
 21
144.7728546985264018
 31
0.0
  0
LINE
  5
100B2
  8
0
 10
3647.866650029090124
 20
144.7728546985264018
 30
0.0
 11
3647.8836977731898514
 21
144.7728546985264018
 31
0.0
  0
LINE
  5
100B3
  8
0
 10
3647.8836977731898514
 20
144.7728546985264018
 30
0.0
 11
3647.8922216452901921
 21
144.7689837929264058
 31
0.0
  0
LINE
  5
100B4
  8
0
 10
3647.8922216452901921
 20
144.7689837929264058
 30
0.0
 11
3647.8836977731898514
 21
144.7651128873264099
 31
0.0
  0
LINE
  5
100B5
  8
0
 10
3647.8836977731898514
 20
144.7651128873264099
 30
0.0
 11
3647.866650029090124
 21
144.7651128873264099
 31
0.0
  0
LINE
  5
100B6
  8
0
 10
3647.866650029090124
 20
144.7754353022264127
 30
0.0
 11
3647.860629321954093
 21
144.7781694573959896
 31
0.0
  0
LINE
  5
100B7
  8
0
 10
3647.8864940247472077
 20
144.7819072649720056
 30
0.0
 11
3647.8922216452901921
 21
144.7793062078264086
 31
0.0
  0
LINE
  5
100B8
  8
0
 10
3647.8922216452901921
 20
144.7793062078264086
 30
0.0
 11
3647.8836977731898514
 21
144.7754353022264127
 31
0.0
  0
LINE
  5
100B9
  8
0
 10
3647.8836977731898514
 20
144.7754353022264127
 30
0.0
 11
3647.866650029090124
 21
144.7754353022264127
 31
0.0
  0
LINE
  5
100BA
  8
0
 10
3647.83255454079017
 20
144.7186620203264056
 30
0.0
 11
3647.8240306686898293
 21
144.7225329259264015
 31
0.0
  0
LINE
  5
100BB
  8
0
 10
3647.8240306686898293
 20
144.7225329259264015
 30
0.0
 11
3647.83255454079017
 21
144.7264038315263974
 31
0.0
  0
LINE
  5
100BC
  8
0
 10
3647.83255454079017
 20
144.7264038315263974
 30
0.0
 11
3647.8496022848898974
 21
144.7264038315263974
 31
0.0
  0
LINE
  5
100BD
  8
0
 10
3647.8496022848898974
 20
144.7264038315263974
 30
0.0
 11
3647.8581261569897833
 21
144.7225329259264015
 31
0.0
  0
LINE
  5
100BE
  8
0
 10
3647.8581261569897833
 20
144.7225329259264015
 30
0.0
 11
3647.8496022848898974
 21
144.7186620203264056
 31
0.0
  0
LINE
  5
100BF
  8
0
 10
3647.8496022848898974
 20
144.7186620203264056
 30
0.0
 11
3647.83255454079017
 21
144.7186620203264056
 31
0.0
  0
LINE
  5
100C0
  8
0
 10
3647.83255454079017
 20
144.7289844352264083
 30
0.0
 11
3647.8240306686898293
 21
144.7328553408264042
 31
0.0
  0
LINE
  5
100C1
  8
0
 10
3647.8240306686898293
 20
144.7328553408264042
 30
0.0
 11
3647.83255454079017
 21
144.7367262464264002
 31
0.0
  0
LINE
  5
100C2
  8
0
 10
3647.83255454079017
 20
144.7367262464264002
 30
0.0
 11
3647.8496022848898974
 21
144.7367262464264002
 31
0.0
  0
LINE
  5
100C3
  8
0
 10
3647.8496022848898974
 20
144.7367262464264002
 30
0.0
 11
3647.8581261569897833
 21
144.7328553408264042
 31
0.0
  0
LINE
  5
100C4
  8
0
 10
3647.8581261569897833
 20
144.7328553408264042
 30
0.0
 11
3647.8496022848898974
 21
144.7289844352264083
 31
0.0
  0
LINE
  5
100C5
  8
0
 10
3647.8496022848898974
 20
144.7289844352264083
 30
0.0
 11
3647.83255454079017
 21
144.7289844352264083
 31
0.0
  0
LINE
  5
100C6
  8
0
 10
3647.83255454079017
 20
144.7393068501264111
 30
0.0
 11
3647.8240306686898293
 21
144.743177755726407
 31
0.0
  0
LINE
  5
100C7
  8
0
 10
3647.8240306686898293
 20
144.743177755726407
 30
0.0
 11
3647.83255454079017
 21
144.7470486613264029
 31
0.0
  0
LINE
  5
100C8
  8
0
 10
3647.83255454079017
 20
144.7470486613264029
 30
0.0
 11
3647.8496022848898974
 21
144.7470486613264029
 31
0.0
  0
LINE
  5
100C9
  8
0
 10
3647.8496022848898974
 20
144.7470486613264029
 30
0.0
 11
3647.8581261569897833
 21
144.743177755726407
 31
0.0
  0
LINE
  5
100CA
  8
0
 10
3647.8581261569897833
 20
144.743177755726407
 30
0.0
 11
3647.8496022848898974
 21
144.7393068501264111
 31
0.0
  0
LINE
  5
100CB
  8
0
 10
3647.8496022848898974
 20
144.7393068501264111
 30
0.0
 11
3647.83255454079017
 21
144.7393068501264111
 31
0.0
  0
LINE
  5
100CC
  8
0
 10
3647.83255454079017
 20
144.7496292650264138
 30
0.0
 11
3647.8240306686898293
 21
144.7535001706264097
 31
0.0
  0
LINE
  5
100CD
  8
0
 10
3647.8240306686898293
 20
144.7535001706264097
 30
0.0
 11
3647.83255454079017
 21
144.7573710762264056
 31
0.0
  0
LINE
  5
100CE
  8
0
 10
3647.83255454079017
 20
144.7573710762264056
 30
0.0
 11
3647.8496022848898974
 21
144.7573710762264056
 31
0.0
  0
LINE
  5
100CF
  8
0
 10
3647.8496022848898974
 20
144.7573710762264056
 30
0.0
 11
3647.8581261569897833
 21
144.7535001706264097
 31
0.0
  0
LINE
  5
100D0
  8
0
 10
3647.8581261569897833
 20
144.7535001706264097
 30
0.0
 11
3647.8496022848898974
 21
144.7496292650264138
 31
0.0
  0
LINE
  5
100D1
  8
0
 10
3647.8496022848898974
 20
144.7496292650264138
 30
0.0
 11
3647.83255454079017
 21
144.7496292650264138
 31
0.0
  0
LINE
  5
100D2
  8
0
 10
3647.83255454079017
 20
144.7599516799263881
 30
0.0
 11
3647.8240306686898293
 21
144.7638225855264125
 31
0.0
  0
LINE
  5
100D3
  8
0
 10
3647.8240306686898293
 20
144.7638225855264125
 30
0.0
 11
3647.83255454079017
 21
144.7676934911264084
 31
0.0
  0
LINE
  5
100D4
  8
0
 10
3647.83255454079017
 20
144.7676934911264084
 30
0.0
 11
3647.8496022848898974
 21
144.7676934911264084
 31
0.0
  0
LINE
  5
100D5
  8
0
 10
3647.8496022848898974
 20
144.7676934911264084
 30
0.0
 11
3647.8581261569897833
 21
144.7638225855264125
 31
0.0
  0
LINE
  5
100D6
  8
0
 10
3647.8581261569897833
 20
144.7638225855264125
 30
0.0
 11
3647.8496022848898974
 21
144.7599516799263881
 31
0.0
  0
LINE
  5
100D7
  8
0
 10
3647.8496022848898974
 20
144.7599516799263881
 30
0.0
 11
3647.83255454079017
 21
144.7599516799263881
 31
0.0
  0
LINE
  5
100D8
  8
0
 10
3647.83255454079017
 20
144.7702740948263909
 30
0.0
 11
3647.8284456220321772
 21
144.7721400586094092
 31
0.0
  0
LINE
  5
100D9
  8
0
 10
3647.8523538447898318
 20
144.7767663531822109
 30
0.0
 11
3647.8581261569897833
 21
144.7741450004263868
 31
0.0
  0
LINE
  5
100DA
  8
0
 10
3647.8581261569897833
 20
144.7741450004263868
 30
0.0
 11
3647.8496022848898974
 21
144.7702740948263909
 31
0.0
  0
LINE
  5
100DB
  8
0
 10
3647.8496022848898974
 20
144.7702740948263909
 30
0.0
 11
3647.83255454079017
 21
144.7702740948263909
 31
0.0
  0
LINE
  5
100DC
  8
0
 10
3647.7984590524401938
 20
144.7341456426264017
 30
0.0
 11
3647.7899351803398531
 21
144.7380165482263976
 31
0.0
  0
LINE
  5
100DD
  8
0
 10
3647.7899351803398531
 20
144.7380165482263976
 30
0.0
 11
3647.7984590524401938
 21
144.7418874538263935
 31
0.0
  0
LINE
  5
100DE
  8
0
 10
3647.7984590524401938
 20
144.7418874538263935
 30
0.0
 11
3647.8155067965399212
 21
144.7418874538263935
 31
0.0
  0
LINE
  5
100DF
  8
0
 10
3647.8155067965399212
 20
144.7418874538263935
 30
0.0
 11
3647.8240306686398071
 21
144.7380165482263976
 31
0.0
  0
LINE
  5
100E0
  8
0
 10
3647.8240306686398071
 20
144.7380165482263976
 30
0.0
 11
3647.8155067965399212
 21
144.7341456426264017
 31
0.0
  0
LINE
  5
100E1
  8
0
 10
3647.8155067965399212
 20
144.7341456426264017
 30
0.0
 11
3647.7984590524401938
 21
144.7341456426264017
 31
0.0
  0
LINE
  5
100E2
  8
0
 10
3647.7984590524401938
 20
144.7444680575264044
 30
0.0
 11
3647.7899351803398531
 21
144.7483389631264004
 31
0.0
  0
LINE
  5
100E3
  8
0
 10
3647.7899351803398531
 20
144.7483389631264004
 30
0.0
 11
3647.7984590524401938
 21
144.7522098687263963
 31
0.0
  0
LINE
  5
100E4
  8
0
 10
3647.7984590524401938
 20
144.7522098687263963
 30
0.0
 11
3647.8155067965399212
 21
144.7522098687263963
 31
0.0
  0
LINE
  5
100E5
  8
0
 10
3647.8155067965399212
 20
144.7522098687263963
 30
0.0
 11
3647.8240306686398071
 21
144.7483389631264004
 31
0.0
  0
LINE
  5
100E6
  8
0
 10
3647.8240306686398071
 20
144.7483389631264004
 30
0.0
 11
3647.8155067965399212
 21
144.7444680575264044
 31
0.0
  0
LINE
  5
100E7
  8
0
 10
3647.8155067965399212
 20
144.7444680575264044
 30
0.0
 11
3647.7984590524401938
 21
144.7444680575264044
 31
0.0
  0
LINE
  5
100E8
  8
0
 10
3647.7984590524401938
 20
144.7547904724264072
 30
0.0
 11
3647.7899351803398531
 21
144.7586613780264031
 31
0.0
  0
LINE
  5
100E9
  8
0
 10
3647.7899351803398531
 20
144.7586613780264031
 30
0.0
 11
3647.7984590524401938
 21
144.762532283626399
 31
0.0
  0
LINE
  5
100EA
  8
0
 10
3647.7984590524401938
 20
144.762532283626399
 30
0.0
 11
3647.8155067965399212
 21
144.762532283626399
 31
0.0
  0
LINE
  5
100EB
  8
0
 10
3647.8155067965399212
 20
144.762532283626399
 30
0.0
 11
3647.8240306686398071
 21
144.7586613780264031
 31
0.0
  0
LINE
  5
100EC
  8
0
 10
3647.8240306686398071
 20
144.7586613780264031
 30
0.0
 11
3647.8155067965399212
 21
144.7547904724264072
 31
0.0
  0
LINE
  5
100ED
  8
0
 10
3647.8155067965399212
 20
144.7547904724264072
 30
0.0
 11
3647.7984590524401938
 21
144.7547904724264072
 31
0.0
  0
LINE
  5
100EE
  8
0
 10
3647.8207584494280127
 20
144.7704697903139106
 30
0.0
 11
3647.8240306686398071
 21
144.7689837929264058
 31
0.0
  0
LINE
  5
100EF
  8
0
 10
3647.8240306686398071
 20
144.7689837929264058
 30
0.0
 11
3647.8155067965399212
 21
144.7651128873264099
 31
0.0
  0
LINE
  5
100F0
  8
0
 10
3647.8155067965399212
 20
144.7651128873264099
 30
0.0
 11
3647.7984590524401938
 21
144.7651128873264099
 31
0.0
  0
LINE
  5
100F1
  8
0
 10
3647.1453937779401713
 20
146.1646683454679021
 30
0.0
 11
3647.1453937779401713
 21
144.9466568018848136
 31
0.0
  0
ARC
  5
100F4
  8
0
 10
3647.4679591195381363
 20
144.694664428323108
 30
0.0
 40
0.1251679688073115
 50
55.1056588155406928
 51
85.8469938762245874
  0
ARC
  5
100F5
  8
0
 10
3647.2688101290232225
 20
144.5211158041892077
 30
0.0
 40
0.3867823696329637
 50
26.9037735751699607
 51
45.5718490318759777
  0
ARC
  5
100F6
  8
0
 10
3647.7285675999328305
 20
144.7853214133662902
 30
0.0
 40
0.1454040445926078
 50
217.834896045300809
 51
243.9438470122530873
  0
ARC
  5
100F7
  8
0
 10
3647.8849602730711013
 20
145.117133512397686
 30
0.0
 40
0.5122147700227992
 50
244.5312862577472117
 51
260.4895703859276068
  0
ARC
  5
100F8
  8
0
 10
3647.9007121835747967
 20
144.9753660965616007
 30
0.0
 40
0.3608904860580113
 50
236.7459827496068954
 51
266.0384099698275122
  0
ARC
  5
100F9
  8
0
 10
3647.7214731438921262
 20
144.6981513555693084
 30
0.0
 40
0.0308573492569449
 50
122.1479296678931945
 51
232.8009209958497081
  0
ARC
  5
100FA
  8
0
 10
3647.8302123467960882
 20
144.5582796324763137
 30
0.0
 40
0.2078941872907501
 50
104.5980782062145948
 51
127.015451377685693
  0
ARC
  5
100FB
  8
0
 10
3647.9745278466939453
 20
144.0812926732241976
 30
0.0
 40
0.7061233081094458
 50
97.187496519625256
 51
106.1755299824777978
  0
ARC
  5
100FC
  8
0
 10
3647.9797186025380142
 20
145.334079579998587
 30
0.0
 40
0.6965670721663128
 50
250.5217877009932863
 51
265.9392417673257114
  0
ARC
  5
100FD
  8
0
 10
3647.7878716475988767
 20
144.7916650717070866
 30
0.0
 40
0.1212247802004799
 50
219.9294223616543036
 51
250.5217877009932863
  0
ARC
  5
100FE
  8
0
 10
3648.0036169981158309
 20
145.2816788671316033
 30
0.0
 40
0.6167723324597583
 50
251.2071056448808122
 51
266.5152452374396148
  0
ARC
  5
100FF
  8
0
 10
3647.8348282069509878
 20
144.789010408113711
 30
0.0
 40
0.0959994481161169
 50
220.5542887783888943
 51
251.8506417399943871
  0
ARC
  5
10100
  8
0
 10
3647.7809315048189092
 20
144.7400786472931031
 30
0.0
 40
0.0233333500501442
 50
140.2167915576042958
 51
215.3020417770761981
  0
ARC
  5
10101
  8
0
 10
3648.0035484673280735
 20
145.2412483990694909
 30
0.0
 40
0.5715366510499428
 50
251.7278223721494044
 51
266.1139058896554275
  0
ARC
  5
10102
  8
0
 10
3647.8552561363208042
 20
144.7965182082826061
 30
0.0
 40
0.1027456623280291
 50
222.5925224586588911
 51
252.4964153759017051
  0
ARC
  5
10103
  8
0
 10
3647.7967351777651857
 20
144.7396950234964947
 30
0.0
 40
0.0213231671696193
 50
141.4037909073142032
 51
216.5986992388968133
  0
ARC
  5
10104
  8
0
 10
3647.819323851712852
 20
144.723636997124089
 30
0.0
 40
0.0490192865603686
 50
126.862018552077501
 51
143.2053960068745937
  0
ARC
  5
10105
  8
0
 10
3647.9044832746471911
 20
145.0226947463339116
 30
0.0
 40
0.3442235097456656
 50
241.8281962864026866
 51
263.3289486459811997
  0
ARC
  5
10106
  8
0
 10
3647.7793589847810836
 20
144.782058885538305
 30
0.0
 40
0.0730958894797681
 50
218.9539191917210985
 51
239.2353520566229861
  0
ARC
  5
10107
  8
0
 10
3647.995046775713945
 20
145.2131132281429871
 30
0.0
 40
0.523731154634297
 50
249.9148947622902881
 51
265.6574195382785888
  0
ARC
  5
10108
  8
0
 10
3647.8456230798469733
 20
144.801292249505309
 30
0.0
 40
0.085648170225219
 50
217.4669578063887059
 51
249.1860686922535137
  0
ARC
  5
10109
  8
0
 10
3648.050925933239796
 20
145.7070255328567896
 30
0.0
 40
1.020621092513688
 50
264.628924444414622
 51
275.371075555585378
  0
ARC
  5
1010A
  8
0
 10
3648.050925933239796
 20
145.6940670130695992
 30
0.0
 40
1.0266589262432479
 50
265.1885918798391799
 51
274.8114081201608201
  0
ARC
  5
1010B
  8
0
 10
3648.050925933239796
 20
145.7592371060403877
 30
0.0
 40
1.096474105913988
 50
265.564478841094683
 51
274.435521158905317
  0
ARC
  5
1010C
  8
0
 10
3648.050925933239796
 20
145.9708577435746122
 30
0.0
 40
1.3370406808481741
 50
264.8277630044651119
 51
275.1722369955348881
  0
ARC
  5
1010D
  8
0
 10
3648.050925933239796
 20
145.8966733638224866
 30
0.0
 40
1.293250525696086
 50
262.2164283353546921
 51
277.7835716646451942
  0
LINE
  5
1010E
  8
0
 10
3648.65101064566079
 20
144.8195037325264138
 30
0.0
 11
3647.450841220818802
 21
144.8195037325264138
 31
0.0
  0
ARC
  5
1010F
  8
0
 10
3648.050925933239796
 20
143.4891715710820961
 30
0.0
 40
1.3031513445443359
 50
82.7371658497351774
 51
97.2628341502648368
  0
ARC
  5
10110
  8
0
 10
3648.050925933239796
 20
131.0604582570726961
 30
0.0
 40
16.4665696685036913
 50
87.9405639101209573
 51
92.0594360898790427
  0
ARC
  5
10111
  8
0
 10
3648.050925933239796
 20
146.0488203399335987
 30
0.0
 40
1.4585506498332359
 50
260.1067733624993252
 51
279.8932266375007885
  0
ARC
  5
10113
  8
0
 10
3648.6604038269019838
 20
146.4848981054504122
 30
0.0
 40
0.02092386453293
 50
274.3960987102096851
 51
347.6973902127626843
  0
ARC
  5
10114
  8
0
 10
3648.6610758831511703
 20
146.3878656562575884
 30
0.0
 40
0.0198938105426212
 50
6.361665977110909
 51
89.7197218284513269
  0
LINE
  5
10115
  8
0
 10
3648.6119495552898115
 20
146.4077592287763991
 30
0.0
 11
3648.6119495552898115
 21
146.4640357994763917
 31
0.0
  0
LINE
  5
10116
  8
0
 10
3648.6564377441900433
 20
146.4612150731763904
 30
0.0
 11
3648.6119495552898115
 21
146.4611743846764114
 31
0.0
  0
ARC
  5
10117
  8
0
 10
3648.6338927469419104
 20
144.694664428323108
 30
0.0
 40
0.1251679688073115
 50
94.1530061237753984
 51
124.894341184459293
  0
ARC
  5
10118
  8
0
 10
3648.8330417374559147
 20
144.5211158041892077
 30
0.0
 40
0.3867823696329637
 50
134.4281509681239868
 51
153.0962264248300073
  0
LINE
  5
10119
  8
0
 10
3647.4210046733901436
 20
147.4787630807585117
 30
0.0
 11
3647.4210046733901436
 21
146.4804397553193098
 31
0.0
  0
ARC
  5
1011A
  8
0
 10
3647.4604062603139027
 20
147.4769685771159118
 30
0.0
 40
0.0394424301414062
 50
91.7816474679972032
 51
177.392326257506312
  0
ARC
  5
1011B
  8
0
 10
3647.4509438281470466
 20
147.3207464979728911
 30
0.0
 40
0.0299392212374548
 50
179.8792561461447121
 51
269.8033498789814075
  0
ARC
  5
1011C
  8
0
 10
3647.4509685037901363
 20
144.8495053658263885
 30
0.0
 40
0.0300019033
 50
182.8868029721427035
 51
269.7569221231179881
  0
ARC
  5
1011D
  8
0
 10
3647.4612113052571658
 20
145.335256763199709
 30
0.0
 40
0.0402071560030119
 50
90.5506247486918738
 51
179.7074442827536984
  0
ARC
  5
1011E
  8
0
 10
3647.4414480395780629
 20
146.4848981054504122
 30
0.0
 40
0.02092386453293
 50
192.302609787237202
 51
265.6039012897903149
  0
ARC
  5
1011F
  8
0
 10
3647.4407759833288765
 20
146.3878656562575884
 30
0.0
 40
0.0198938105426212
 50
90.2802781715486731
 51
173.6383340228890972
  0
LINE
  5
10120
  8
0
 10
3647.489902311188871
 20
146.4077592287763991
 30
0.0
 11
3647.489902311188871
 21
146.4640357994763917
 31
0.0
  0
LINE
  5
10121
  8
0
 10
3647.4454141222900034
 20
146.4612150731763904
 30
0.0
 11
3647.489902311188871
 21
146.4611743846764114
 31
0.0
  0
LINE
  5
10122
  8
0
 10
3647.4210046733901436
 20
146.3900699704784927
 30
0.0
 11
3647.4210046733901436
 21
144.8479943829069896
 31
0.0
  0
ARC
  5
10123
  8
0
 10
3647.4454135341820802
 20
146.1611749796217055
 30
0.0
 40
0.300040093555261
 50
89.9998876945812185
 51
179.3328903502865046
  0
LINE
  5
10124
  8
0
 10
3647.4454141222900034
 20
146.4612150731763904
 30
0.0
 11
3647.489902311188871
 21
146.4611743846764114
 31
0.0
  0
LINE
  5
101B6
  8
0
 10
3648.6564377442400655
 20
144.6501304183763921
 30
0.0
 11
3648.4273009107018879
 21
144.6501304183763921
 31
0.0
  0
ARC
  5
101B7
  8
0
 10
3648.6564727939230579
 20
144.9501358846181915
 30
0.0
 40
0.3000054682892656
 50
269.9933061257513032
 51
359.3355413601398141
  0
LINE
  5
101B8
  8
0
 10
3647.4454141222399812
 20
144.6501304183763921
 30
0.0
 11
3647.6745509557767946
 21
144.6501304183763921
 31
0.0
  0
ARC
  5
101B9
  8
0
 10
3647.4453790725578983
 20
144.9501358846181915
 30
0.0
 40
0.3000054682892705
 50
180.6644586398601007
 51
270.0066938742486968
  0
ENDSEC
  0
EOF
