  0
SECTION
  2
HEADER
  9
$ACADVER
  1
AC1009
  9
$INSBASE
 10
3356.9439903285529
 20
307.11638958957411
 30
0.0
  9
$EXTMIN
 10
3348.0069908455389
 20
300.24998697516259
 30
-0.000000000000013
  9
$EXTMAX
 10
3366.1186624173029
 20
307.9278734374476
 30
0.0000000000000023
  9
$LIMMIN
 10
0.0
 20
0.0
  9
$LIMMAX
 10
11.692913385800001
 20
8.2677165353999982
  9
$ORTHOMODE
 70
     0
  9
$REGENMODE
 70
     1
  9
$FILLMODE
 70
     1
  9
$QTEXTMODE
 70
     0
  9
$MIRRTEXT
 70
     0
  9
$DRAGMODE
 70
     2
  9
$LTSCALE
 40
0.6431102362
  9
$OSMODE
 70
  4095
  9
$ATTMODE
 70
     1
  9
$TEXTSIZE
 40
0.2
  9
$TRACEWID
 40
0.05
  9
$TEXTSTYLE
  7
STANDARD
  9
$CLAYER
  8
0
  9
$CELTYPE
  6
BYLAYER
  9
$CECOLOR
 62
   256
  9
$DIMSCALE
 40
1.0
  9
$DIMASZ
 40
0.1875
  9
$DIMEXO
 40
0.0625
  9
$DIMDLI
 40
0.4443307087
  9
$DIMRND
 40
0.0
  9
$DIMDLE
 40
0.0
  9
$DIMEXE
 40
0.125
  9
$DIMTP
 40
0.01
  9
$DIMTM
 40
0.01
  9
$DIMTXT
 40
2.0
  9
$DIMCEN
 40
0.1052362205
  9
$DIMTSZ
 40
0.0
  9
$DIMTOL
 70
     1
  9
$DIMLIM
 70
     0
  9
$DIMTIH
 70
     1
  9
$DIMTOH
 70
     1
  9
$DIMSE1
 70
     0
  9
$DIMSE2
 70
     0
  9
$DIMTAD
 70
     0
  9
$DIMZIN
 70
     0
  9
$DIMBLK
  1

  9
$DIMASO
 70
     1
  9
$DIMSHO
 70
     1
  9
$DIMPOST
  1
\X
  9
$DIMAPOST
  1

  9
$DIMALT
 70
     1
  9
$DIMALTD
 70
     2
  9
$DIMALTF
 40
25.399999999999999
  9
$DIMLFAC
 40
1.0
  9
$DIMTOFL
 70
     0
  9
$DIMTVP
 40
0.0
  9
$DIMTIX
 70
     0
  9
$DIMSOXD
 70
     0
  9
$DIMSAH
 70
     0
  9
$DIMBLK1
  1

  9
$DIMBLK2
  1

  9
$DIMSTYLE
  2
STANDARD
  9
$DIMCLRD
 70
     0
  9
$DIMCLRE
 70
     0
  9
$DIMCLRT
 70
     0
  9
$DIMTFAC
 40
1.0
  9
$DIMGAP
 40
0.09
  9
$LUNITS
 70
     2
  9
$LUPREC
 70
     4
  9
$SKETCHINC
 40
0.1
  9
$FILLETRAD
 40
0.0
  9
$AUNITS
 70
     0
  9
$AUPREC
 70
     0
  9
$MENU
  1
.
  9
$ELEVATION
 40
0.0
  9
$PELEVATION
 40
0.0
  9
$THICKNESS
 40
0.0
  9
$LIMCHECK
 70
     0
  9
$BLIPMODE
 70
     0
  9
$CHAMFERA
 40
0.0
  9
$CHAMFERB
 40
0.0
  9
$SKPOLY
 70
     0
  9
$TDCREATE
 40
2458060.4683680669
  9
$TDUPDATE
 40
2458962.817737639
  9
$TDINDWG
 40
0.4449809375
  9
$TDUSRTIMER
 40
0.4449809375
  9
$USRTIMER
 70
     1
  9
$ANGBASE
 50
0.0
  9
$ANGDIR
 70
     0
  9
$PDMODE
 70
     0
  9
$PDSIZE
 40
0.3125
  9
$PLINEWID
 40
0.0
  9
$COORDS
 70
     1
  9
$SPLFRAME
 70
     0
  9
$SPLINETYPE
 70
     6
  9
$SPLINESEGS
 70
     8
  9
$ATTDIA
 70
     1
  9
$ATTREQ
 70
     1
  9
$HANDLING
 70
     1
  9
$HANDSEED
  5
7571
  9
$SURFTAB1
 70
     6
  9
$SURFTAB2
 70
     6
  9
$SURFTYPE
 70
     6
  9
$SURFU
 70
     6
  9
$SURFV
 70
     6
  9
$UCSNAME
  2

  9
$UCSORG
 10
0.0
 20
0.0
 30
0.0
  9
$UCSXDIR
 10
1.0
 20
0.0
 30
0.0
  9
$UCSYDIR
 10
0.0
 20
1.0
 30
0.0
  9
$PUCSNAME
  2

  9
$PUCSORG
 10
0.0
 20
0.0
 30
0.0
  9
$PUCSXDIR
 10
1.0
 20
0.0
 30
0.0
  9
$PUCSYDIR
 10
0.0
 20
1.0
 30
0.0
  9
$USERI1
 70
     0
  9
$USERI2
 70
     0
  9
$USERI3
 70
     0
  9
$USERI4
 70
     0
  9
$USERI5
 70
     0
  9
$USERR1
 40
0.0
  9
$USERR2
 40
0.0
  9
$USERR3
 40
0.0
  9
$USERR4
 40
0.0
  9
$USERR5
 40
0.0
  9
$WORLDVIEW
 70
     1
  9
$SHADEDGE
 70
     3
  9
$SHADEDIF
 70
    70
  9
$TILEMODE
 70
     1
  9
$MAXACTVP
 70
    64
  9
$PLIMCHECK
 70
     0
  9
$PEXTMIN
 10
1.0000000000000000E+020
 20
1.0000000000000000E+020
 30
1.0000000000000000E+020
  9
$PEXTMAX
 10
-1.0000000000000000E+020
 20
-1.0000000000000000E+020
 30
-1.0000000000000000E+020
  9
$PLIMMIN
 10
0.0
 20
0.0
  9
$PLIMMAX
 10
12.0
 20
9.0
  9
$UNITMODE
 70
     0
  9
$VISRETAIN
 70
     1
  9
$PLINEGEN
 70
     0
  9
$PSLTSCALE
 70
     1
  0
ENDSEC
  0
SECTION
  2
TABLES
  0
TABLE
  2
VPORT
 70
     1
  0
VPORT
  2
*ACTIVE
 70
     0
 10
0.0
 20
0.0
 11
1.0
 21
1.0
 12
96.746542451733134
 22
-0.1215037536558157
 13
0.0
 23
0.0
 14
1.0
 24
1.0
 15
0.0
 25
0.0
 16
0.0
 26
0.0
 36
48.451980976982142
 17
3260.316284179687
 27
304.21043395996088
 37
0.0
 40
8.3627036027827781
 41
2.1775147928994079
 42
50.0
 43
0.0
 44
0.0
 50
0.0
 51
0.0
 71
     0
 72
   100
 73
     1
 74
     1
 75
     0
 76
     0
 77
     0
 78
     0
  0
ENDTAB
  0
TABLE
  2
LTYPE
 70
     3
  0
LTYPE
  2
CONTINUOUS
 70
     0
  3
Solid line
 72
    65
 73
     0
 40
0.0
  0
LTYPE
  2
PHANTOM2
 70
     0
  3
___ _ _ ___ _ _ ___ _ _ ___ _ _
 72
    65
 73
     6
 40
1.25
 49
0.625
 49
-0.125
 49
0.125
 49
-0.125
 49
0.125
 49
-0.125
  0
ENDTAB
  0
TABLE
  2
LAYER
 70
     2
  0
LAYER
  2
0
 70
     0
 62
   255
  6
CONTINUOUS
  0
LAYER
  2
DEFPOINTS
 70
     0
 62
     7
  6
CONTINUOUS
  0
ENDTAB
  0
TABLE
  2
STYLE
 70
     1
  0
STYLE
  2
STANDARD
 70
     0
 40
0.0
 41
0.8
 50
0.0
 71
     0
 42
0.2
  3
txt
  4

  0
ENDTAB
  0
TABLE
  2
VIEW
 70
     0
  0
ENDTAB
  0
TABLE
  2
UCS
 70
     0
  0
ENDTAB
  0
TABLE
  2
APPID
 70
     9
  0
APPID
  2
ACAD
 70
     0
  0
APPID
  2
ACAD_MLEADERVER
 70
     0
  0
APPID
  2
ACAD_EXEMPT_FROM_CAD_STANDARDS
 70
     0
  0
APPID
  2
ACAD_NAV_VCDISPLAY
 70
     0
  0
APPID
  2
ACAECLAYERSTANDARD
 70
     0
  0
APPID
  2
ACCMTRANSPARENCY
 70
     0
  0
APPID
  2
ACAD_DSTYLE_DIMJAG
 70
     0
  0
APPID
  2
ACAD_DSTYLE_DIMTALN
 70
     0
  0
APPID
  2
ACDBATTR
 70
     0
  0
ENDTAB
  0
TABLE
  2
DIMSTYLE
 70
     2
  0
DIMSTYLE
  2
STANDARD
 70
     0
  3

  4

  5

  6

  7

 40
1.0
 41
0.1875
 42
0.0625
 43
0.38
 44
0.125
 45
0.0
 46
0.0
 47
0.01
 48
0.01
140
0.15625
141
0.09
142
0.0
143
25.399999999999999
144
1.0
145
0.0
146
1.0
147
0.09
 71
     1
 72
     0
 73
     1
 74
     1
 75
     0
 76
     0
 77
     0
 78
     4
170
     0
171
     2
172
     0
173
     0
174
     0
175
     0
176
     0
177
     0
178
     0
  0
ENDTAB
  0
ENDSEC
  0
SECTION
  2
BLOCKS
  0
BLOCK
  8
0
  2
$MODEL_SPACE
 70
     0
 10
0.0
 20
0.0
 30
0.0
  3
$MODEL_SPACE
  1

  0
ENDBLK
  5
21
  8
0
  0
BLOCK
 67
     1
  8
0
  2
$PAPER_SPACE
 70
     0
 10
0.0
 20
0.0
 30
0.0
  3
$PAPER_SPACE
  1

  0
ENDBLK
  5
1D
 67
     1
  8
0
  0
BLOCK
  8
0
  2
_FILLED
 70
     0
 10
0.0
 20
0.0
 30
0.0
  3
_FILLED
  1

  0
SOLID
  5
748E
  8
0
  6
BYBLOCK
 62
     0
 10
0.0
 20
0.0
 30
0.0
 11
-1.0
 21
0.1666666667
 31
0.0
 12
-1.0
 22
-0.1666666667
 32
0.0
 13
-1.0
 23
-0.1666666667
 33
0.0
  0
ENDBLK
  5
748F
  8
0
  6
BYBLOCK
 62
     0
  0
ENDSEC
  0
SECTION
  2
ENTITIES
  0
ATTDEF
  5
3930
  8
DEFPOINTS
 10
3356.9395169835439
 20
307.11425392693781
 30
0.0
 40
0.001
  1
K-2351T-1
  3

  2
MODELNUMBER
 70
     0
1001
ACDBATTR
1070
     0
1070
     1
  0
ATTDEF
  5
3931
  8
DEFPOINTS
 10
3356.9395169835439
 20
307.1125872602712
 30
0.0
 40
0.001
  1
CIMARRON
  3

  2
TRADENAME
 70
     0
1001
ACDBATTR
1070
     0
1070
     1
  0
ATTDEF
  5
3932
  8
DEFPOINTS
 10
3356.9395169835439
 20
307.11092059360448
 30
0.0
 40
0.001
  1
BATHROOM SINK
  3

  2
PRODUCT
 70
     0
1001
ACDBATTR
1070
     0
1070
     1
  0
ARC
  5
74BD
  8
0
 10
3359.3562932846198
 20
300.39538808909572
 30
0.0
 40
0.1249984995228131
 50
270.0
 51
349.50107049401117
  0
ARC
  5
74BE
  8
0
 10
3359.6649716964121
 20
300.33789952800191
 30
0.0
 40
0.1889877235364494
 50
94.331632443629786
 51
169.41630247611371
  0
ARC
  5
74BF
  8
0
 10
3359.5506942332272
 20
302.23116538981282
 30
0.0
 40
1.7077485082347661
 50
273.35708113713969
 51
300.35081396705277
  0
ARC
  5
74C0
  8
0
 10
3359.5801643352802
 20
302.18083587560818
 30
0.0
 40
1.6494257261073231
 50
300.35081396705277
 51
331.13685883037851
  0
ARC
  5
74C1
  8
0
 10
3356.703291868052
 20
303.7665409603419
 30
0.0
 40
4.9343695320872802
 50
331.13685883037851
 51
353.47799095977979
  0
ARC
  5
74C2
  8
0
 10
3324.5524702027851
 20
307.44217535511132
 30
0.0
 40
37.294617089171908
 50
353.47799095977979
 51
359.49948844490439
  0
LINE
  5
74C3
  8
0
 10
3348.269078911464
 20
307.11638958957411
 30
0.0
 11
3365.6189017456409
 21
307.11638958957411
 31
0.0
  0
LINE
  5
74C4
  8
0
 10
3365.7534745318289
 20
307.14638958957408
 30
0.0
 11
3348.1345061252769
 21
307.14638958957408
 31
0.0
  0
ARC
  5
74C5
  8
0
 10
3365.7500297916481
 20
307.2668628105219
 30
0.0
 40
0.1205224593196026
 50
271.637835446873
 51
11.57590702570465
  0
LINE
  5
74C6
  8
0
 10
3365.86810078999
 20
307.29104756917411
 30
0.0
 11
3365.7672956163901
 21
307.76561858827409
 31
0.0
  0
ARC
  5
74C7
  8
0
 10
3365.5826923679192
 20
307.72551464513168
 30
0.0
 40
0.188909199357603
 50
12.25671295415189
 51
89.79095647366367
  0
ARC
  5
74C8
  8
0
 10
3348.2691601086749
 20
307.1462838658648
 30
0.0
 40
0.0298943865622021
 50
179.79736881526659
 51
269.84437669680841
  0
ARC
  5
74C9
  8
0
 10
3365.6186879136708
 20
307.1464848222264
 30
0.0
 40
0.0300959922997267
 50
270.40708983341523
 51
359.81869884542488
  0
ARC
  5
74CA
  8
0
 10
3362.1708192225351
 20
316.99872919740437
 30
0.0
 40
16.514454612697271
 50
216.7557814140763
 51
229.90178479851861
  0
ARC
  5
74CB
  8
0
 10
3364.0348155852012
 20
319.21243599474082
 30
0.0
 40
19.408410421725119
 50
229.90178479851861
 51
238.4871849816555
  0
ARC
  5
74CC
  8
0
 10
3357.3968377222041
 20
308.38567692370788
 30
0.0
 40
6.7087465642900863
 50
238.4871849816555
 51
262.3255373104227
  0
ARC
  5
74CD
  8
0
 10
3356.4798243017558
 20
301.54985525330272
 30
0.0
 40
0.1883518439536092
 50
5.087631277168704
 51
83.568787419159904
  0
LINE
  5
74CE
  8
0
 10
3356.667434083191
 20
301.56655815817408
 30
0.0
 11
3356.7708511983901
 21
300.38449512167409
 31
0.0
  0
ARC
  5
74CF
  8
0
 10
3356.8953755356902
 20
300.39538958957411
 30
0.0
 40
0.1249999999999986
 50
184.9999999997971
 51
270.0
  0
LINE
  5
74D0
  8
0
 10
3356.8953755356902
 20
300.27038958957411
 30
0.0
 11
3359.3562932846198
 21
300.27038958957291
 31
0.0
  0
ARC
  5
74D1
  8
0
 10
3279.73561493336
 20
309.64286652784108
 30
0.0
 40
81.304311196126903
 50
356.32483796238409
 51
358.21928542194672
  0
ARC
  5
74D2
  8
0
 10
3349.576322183414
 20
305.24674095899462
 30
0.0
 40
11.32579614231798
 50
350.19278570825588
 51
355.8711353730439
  0
ARC
  5
74D3
  8
0
 10
3358.2327583080928
 20
303.60575012988721
 30
0.0
 40
2.52037861714002
 50
325.21075647830918
 51
353.43461492850878
  0
ARC
  5
74D4
  8
0
 10
3359.490920307433
 20
302.81183707551497
 30
0.0
 40
1.03622498150142
 50
298.34015037284883
 51
321.56726916528868
  0
ARC
  5
74D5
  8
0
 10
3359.19043072568
 20
303.5949602620168
 30
0.0
 40
1.871208520236354
 50
267.5805087785717
 51
295.05352603526779
  0
ARC
  5
74D6
  8
0
 10
3358.5384517909979
 20
466.49760577636118
 30
0.0
 40
164.7731821585858
 50
269.29148146666518
 51
270.19924164757663
  0
ARC
  5
74D7
  8
0
 10
3359.458682206192
 20
303.52045296651562
 30
0.0
 40
3.0002563068095118
 50
270.64977128134308
 51
273.66941838679099
  0
ARC
  5
74D8
  8
0
 10
3359.4559923444331
 20
303.75763045276238
 30
0.0
 40
3.237449045607764
 50
269.19590157382339
 51
270.64977128134308
  0
ARC
  5
74D9
  8
0
 10
3359.4155491443521
 20
300.87605219650828
 30
0.0
 40
0.3555869914231555
 50
251.8023398030364
 51
269.19590157382339
  0
ARC
  5
74DA
  8
0
 10
3359.4654554301519
 20
301.02786392125648
 30
0.0
 40
0.5153913628694041
 50
236.531196510158
 51
251.8023398030364
  0
ARC
  5
74DB
  8
0
 10
3359.255931808405
 20
300.71093346372919
 30
0.0
 40
0.1354636553007905
 50
206.69134375602971
 51
236.531196510158
  0
ARC
  5
74DC
  8
0
 10
3359.2106496050242
 20
300.68816745918139
 30
0.0
 40
0.0847806314546207
 50
172.95307645890591
 51
206.69134375602971
  0
ARC
  5
74DD
  8
0
 10
3358.89150751531
 20
301.52780793589591
 30
0.0
 40
0.2956675535645048
 50
353.02188252489941
 51
41.940503179060769
  0
LINE
  5
74DE
  8
0
 10
3359.1265094054902
 20
300.69856853087413
 30
0.0
 11
3359.18498494809
 21
301.49188720817409
 31
0.0
  0
LINE
  5
74E0
  8
0
 10
3348.3045990559108
 20
307.91442258715477
 30
0.0
 11
3365.583381601195
 21
307.91442258715477
 31
0.0
  0
ARC
  5
74E1
  8
0
 10
3348.1379508654568
 20
307.2668628105219
 30
0.0
 40
0.1205224593196026
 50
168.42409297429529
 51
268.36216455312689
  0
LINE
  5
74E2
  8
0
 10
3348.0198798671149
 20
307.29104756917411
 30
0.0
 11
3348.1206850407152
 21
307.76561858827409
 31
0.0
  0
ARC
  5
74E3
  8
0
 10
3348.305288289188
 20
307.72551464513168
 30
0.0
 40
0.188909199357603
 50
90.209043526336345
 51
167.74328704584809
  0
ENDSEC
  0
EOF
