  0
SECTION
  2
HEADER
  9
$ACADVER
  1
AC1009
  9
$INSBASE
 10
3985.1518096622671692
 20
156.7290331895401891
 30
0.0
  9
$EXTMIN
 10
3945.8582466812190432
 20
62.8558864964313884
 30
0.0
  9
$EXTMAX
 10
3996.2835341209270155
 20
178.8786280429403064
 30
0.0
  9
$LIMMIN
 10
0.0
 20
0.0
  9
$LIMMAX
 10
11.6929133858000007
 20
8.2677165353999982
  9
$ORTHOMODE
 70
     0
  9
$REGENMODE
 70
     1
  9
$FILLMODE
 70
     1
  9
$QTEXTMODE
 70
     0
  9
$MIRRTEXT
 70
     0
  9
$DRAGMODE
 70
     2
  9
$LTSCALE
 40
0.6431102362
  9
$OSMODE
 70
  4095
  9
$ATTMODE
 70
     1
  9
$TEXTSIZE
 40
0.2
  9
$TRACEWID
 40
0.05
  9
$TEXTSTYLE
  7
STANDARD
  9
$CLAYER
  8
0
  9
$CELTYPE
  6
BYLAYER
  9
$CECOLOR
 62
   256
  9
$DIMSCALE
 40
1.0
  9
$DIMASZ
 40
0.1875
  9
$DIMEXO
 40
0.0625
  9
$DIMDLI
 40
0.4443307087
  9
$DIMRND
 40
0.0
  9
$DIMDLE
 40
0.0
  9
$DIMEXE
 40
0.125
  9
$DIMTP
 40
0.01
  9
$DIMTM
 40
0.01
  9
$DIMTXT
 40
2.0
  9
$DIMCEN
 40
0.1052362205
  9
$DIMTSZ
 40
0.0
  9
$DIMTOL
 70
     1
  9
$DIMLIM
 70
     0
  9
$DIMTIH
 70
     1
  9
$DIMTOH
 70
     1
  9
$DIMSE1
 70
     0
  9
$DIMSE2
 70
     0
  9
$DIMTAD
 70
     0
  9
$DIMZIN
 70
     0
  9
$DIMBLK
  1

  9
$DIMASO
 70
     1
  9
$DIMSHO
 70
     1
  9
$DIMPOST
  1
\X
  9
$DIMAPOST
  1

  9
$DIMALT
 70
     1
  9
$DIMALTD
 70
     2
  9
$DIMALTF
 40
25.3999999999999986
  9
$DIMLFAC
 40
1.0
  9
$DIMTOFL
 70
     0
  9
$DIMTVP
 40
0.0
  9
$DIMTIX
 70
     0
  9
$DIMSOXD
 70
     0
  9
$DIMSAH
 70
     0
  9
$DIMBLK1
  1

  9
$DIMBLK2
  1

  9
$DIMSTYLE
  2
STANDARD
  9
$DIMCLRD
 70
     0
  9
$DIMCLRE
 70
     0
  9
$DIMCLRT
 70
     0
  9
$DIMTFAC
 40
1.0
  9
$DIMGAP
 40
0.09
  9
$LUNITS
 70
     2
  9
$LUPREC
 70
     4
  9
$SKETCHINC
 40
0.1
  9
$FILLETRAD
 40
0.0
  9
$AUNITS
 70
     0
  9
$AUPREC
 70
     0
  9
$MENU
  1
.
  9
$ELEVATION
 40
0.0
  9
$PELEVATION
 40
0.0
  9
$THICKNESS
 40
0.0
  9
$LIMCHECK
 70
     0
  9
$BLIPMODE
 70
     0
  9
$CHAMFERA
 40
0.0
  9
$CHAMFERB
 40
0.0
  9
$SKPOLY
 70
     0
  9
$TDCREATE
 40
2458060.468368056230247
  9
$TDUPDATE
 40
2459074.5617361110635102
  9
$TDINDWG
 40
0.4194052083
  9
$TDUSRTIMER
 40
0.4194052083
  9
$USRTIMER
 70
     1
  9
$ANGBASE
 50
0.0
  9
$ANGDIR
 70
     0
  9
$PDMODE
 70
     0
  9
$PDSIZE
 40
0.3125
  9
$PLINEWID
 40
0.0
  9
$COORDS
 70
     1
  9
$SPLFRAME
 70
     0
  9
$SPLINETYPE
 70
     6
  9
$SPLINESEGS
 70
     8
  9
$ATTDIA
 70
     1
  9
$ATTREQ
 70
     1
  9
$HANDLING
 70
     1
  9
$HANDSEED
  5
8CA0
  9
$SURFTAB1
 70
     6
  9
$SURFTAB2
 70
     6
  9
$SURFTYPE
 70
     6
  9
$SURFU
 70
     6
  9
$SURFV
 70
     6
  9
$UCSNAME
  2

  9
$UCSORG
 10
0.0
 20
0.0
 30
0.0
  9
$UCSXDIR
 10
1.0
 20
0.0
 30
0.0
  9
$UCSYDIR
 10
0.0
 20
1.0
 30
0.0
  9
$PUCSNAME
  2

  9
$PUCSORG
 10
0.0
 20
0.0
 30
0.0
  9
$PUCSXDIR
 10
1.0
 20
0.0
 30
0.0
  9
$PUCSYDIR
 10
0.0
 20
1.0
 30
0.0
  9
$USERI1
 70
     0
  9
$USERI2
 70
     0
  9
$USERI3
 70
     0
  9
$USERI4
 70
     0
  9
$USERI5
 70
     0
  9
$USERR1
 40
0.0
  9
$USERR2
 40
0.0
  9
$USERR3
 40
0.0
  9
$USERR4
 40
0.0
  9
$USERR5
 40
0.0
  9
$WORLDVIEW
 70
     1
  9
$SHADEDGE
 70
     3
  9
$SHADEDIF
 70
    70
  9
$TILEMODE
 70
     1
  9
$MAXACTVP
 70
    64
  9
$PLIMCHECK
 70
     0
  9
$PEXTMIN
 10
1.0000000000000000E+20
 20
1.0000000000000000E+20
 30
1.0000000000000000E+20
  9
$PEXTMAX
 10
-1.0000000000000000E+20
 20
-1.0000000000000000E+20
 30
-1.0000000000000000E+20
  9
$PLIMMIN
 10
0.0
 20
0.0
  9
$PLIMMAX
 10
12.0
 20
9.0
  9
$UNITMODE
 70
     0
  9
$VISRETAIN
 70
     1
  9
$PLINEGEN
 70
     0
  9
$PSLTSCALE
 70
     1
  0
ENDSEC
  0
SECTION
  2
TABLES
  0
TABLE
  2
VPORT
 70
     1
  0
VPORT
  2
*ACTIVE
 70
     0
 10
0.0
 20
0.0
 11
1.0
 21
1.0
 12
497.1553315994959235
 22
110.3831475451128057
 13
0.0
 23
0.0
 14
1.0
 24
1.0
 15
0.0
 25
0.0
 16
0.0
 26
0.0
 36
5.1040778033513332
 17
3792.35791015625
 27
120.1806564331053977
 37
0.0
 40
703.8246806350847464
 41
2.005224660397074
 42
50.0
 43
0.0
 44
0.0
 50
0.0
 51
0.0
 71
     0
 72
   100
 73
     1
 74
     1
 75
     0
 76
     0
 77
     0
 78
     0
  0
ENDTAB
  0
TABLE
  2
LTYPE
 70
     2
  0
LTYPE
  2
CONTINUOUS
 70
     0
  3
Solid line
 72
    65
 73
     0
 40
0.0
  0
LTYPE
  2
PHANTOM2
 70
     0
  3
___ _ _ ___ _ _ ___ _ _ ___ _ _
 72
    65
 73
     6
 40
1.25
 49
0.625
 49
-0.125
 49
0.125
 49
-0.125
 49
0.125
 49
-0.125
  0
ENDTAB
  0
TABLE
  2
LAYER
 70
     2
  0
LAYER
  2
0
 70
     0
 62
   255
  6
CONTINUOUS
  0
LAYER
  2
DEFPOINTS
 70
     0
 62
     7
  6
CONTINUOUS
  0
ENDTAB
  0
TABLE
  2
STYLE
 70
     1
  0
STYLE
  2
STANDARD
 70
     0
 40
0.0
 41
0.8
 50
0.0
 71
     0
 42
0.2
  3
txt
  4

  0
ENDTAB
  0
TABLE
  2
VIEW
 70
     0
  0
ENDTAB
  0
TABLE
  2
UCS
 70
     0
  0
ENDTAB
  0
TABLE
  2
APPID
 70
     9
  0
APPID
  2
ACAD
 70
     0
  0
APPID
  2
ACAD_MLEADERVER
 70
     0
  0
APPID
  2
ACAD_EXEMPT_FROM_CAD_STANDARDS
 70
     0
  0
APPID
  2
ACAD_NAV_VCDISPLAY
 70
     0
  0
APPID
  2
ACAECLAYERSTANDARD
 70
     0
  0
APPID
  2
ACCMTRANSPARENCY
 70
     0
  0
APPID
  2
ACAD_DSTYLE_DIMJAG
 70
     0
  0
APPID
  2
ACAD_DSTYLE_DIMTALN
 70
     0
  0
APPID
  2
ACDBATTR
 70
     0
  0
ENDTAB
  0
TABLE
  2
DIMSTYLE
 70
     1
  0
DIMSTYLE
  2
STANDARD
 70
     0
  3

  4

  5

  6

  7

 40
1.0
 41
0.1875
 42
0.0625
 43
0.38
 44
0.125
 45
0.0
 46
0.0
 47
0.01
 48
0.01
140
0.15625
141
0.09
142
0.0
143
25.3999999999999986
144
1.0
145
0.0
146
1.0
147
0.09
 71
     1
 72
     0
 73
     1
 74
     1
 75
     0
 76
     0
 77
     0
 78
     4
170
     0
171
     2
172
     0
173
     0
174
     0
175
     0
176
     0
177
     0
178
     0
  0
ENDTAB
  0
ENDSEC
  0
SECTION
  2
BLOCKS
  0
BLOCK
  8
0
  2
$MODEL_SPACE
 70
     0
 10
0.0
 20
0.0
 30
0.0
  3
$MODEL_SPACE
  1

  0
ENDBLK
  5
21
  8
0
  0
BLOCK
 67
     1
  8
0
  2
$PAPER_SPACE
 70
     0
 10
0.0
 20
0.0
 30
0.0
  3
$PAPER_SPACE
  1

  0
ENDBLK
  5
1D
 67
     1
  8
0
  0
BLOCK
  8
0
  2
_FILLED
 70
     0
 10
0.0
 20
0.0
 30
0.0
  3
_FILLED
  1

  0
SOLID
  5
69B4
  8
0
  6
BYBLOCK
 62
     0
 10
0.0
 20
0.0
 30
0.0
 11
-1.0
 21
0.1666666667
 31
0.0
 12
-1.0
 22
-0.1666666667
 32
0.0
 13
-1.0
 23
-0.1666666667
 33
0.0
  0
ENDBLK
  5
69B5
  8
0
  6
BYBLOCK
 62
     0
  0
BLOCK
  8
0
  2
A$CDFAF6206
 70
     0
 10
0.0
 20
0.0
 30
0.0
  3
A$CDFAF6206
  1

  0
LINE
  5
6A0E
  8
0
 10
7.4646650085734834
 20
10.9287685970688493
 30
0.0
 11
7.4646650085734896
 21
10.8905784766688498
 31
0.0
  0
ARC
  5
6A0F
  8
0
 10
7.7269027075262349
 20
10.8926811525838598
 30
0.0
 40
0.2622461286616791
 50
180.4593995232625048
 51
217.0214027758331099
  0
LINE
  5
6A10
  8
0
 10
9.767814609867095
 20
10.9287685970688493
 30
0.0
 11
9.767814609867095
 21
10.8905433757650094
 31
0.0
  0
ARC
  5
6A11
  8
0
 10
9.5068669568548287
 20
10.8922438613003703
 30
0.0
 40
0.2609531936261092
 50
322.8847083717149076
 51
359.6266329125650145
  0
LINE
  5
6A12
  8
0
 10
7.517522606271406
 20
10.7347792678688396
 30
0.0
 11
9.7149570120691777
 21
10.7347792678688396
 31
0.0
  0
LINE
  5
6A13
  8
0
 10
7.4646650085734834
 20
10.9287685970688493
 30
0.0
 11
9.7678146123202936
 21
10.9287685970688493
 31
0.0
  0
ARC
  5
6A14
  8
0
 10
4.0826771419203629
 20
8.527951346868889
 30
0.0
 40
4.0826771653999172
 50
13.3117747050523896
 51
32.7200330051415591
  0
ARC
  5
6A15
  8
0
 10
4.0826771460567306
 20
8.5279513475907933
 30
0.0
 40
4.0826771612084691
 50
359.6656501984817851
 51
13.3117747085593798
  0
ARC
  5
6A16
  8
0
 10
13.1498041284835097
 20
8.5279508235212234
 30
0.0
 40
4.0826788382043553
 50
147.2799733478981068
 51
166.6882233021349862
  0
ARC
  5
6A17
  8
0
 10
13.1498064934207992
 20
8.5279506557033251
 30
0.0
 40
4.0826811782395342
 50
166.688228652086309
 51
180.3343397625230011
  0
LINE
  5
6A18
  8
0
 10
8.1652847935202928
 20
8.504127000268852
 30
0.0
 11
9.0671948248202892
 21
8.5041270002687881
 31
0.0
  0
LINE
  5
6A19
  8
0
 10
8.1652847935202786
 20
8.5041270002667204
 30
0.0
 11
8.1652847935202928
 21
8.3607006934688481
 31
0.0
  0
ARC
  5
6A1A
  8
0
 10
5.6196779630382627
 20
8.3631022096452732
 30
0.0
 40
2.545607963272567
 50
342.0511668832173768
 51
359.945947387132378
  0
LINE
  5
6A1B
  8
0
 10
9.0671948248202892
 20
8.5041270002687881
 30
0.0
 11
9.0671948248202892
 21
8.2885990108688503
 31
0.0
  0
ARC
  5
6A1C
  8
0
 10
9.4521885297801163
 20
7.9614488056228501
 30
0.0
 40
0.5052201595850959
 50
139.6436242991769916
 51
174.6757930071850069
  0
ARC
  5
6A1D
  8
0
 10
9.9238413395551746
 20
8.1492417579399508
 30
0.0
 40
0.9848265662939324
 50
188.2263441834095943
 51
209.5593615864376034
  0
ARC
  5
6A1E
  8
0
 10
8.0788764238271256
 20
7.5665710856463297
 30
0.0
 40
0.0393715937169877
 50
162.1669117288323037
 51
227.2023190037006088
  0
ARC
  5
6A1F
  8
0
 10
8.7223682141740682
 20
8.2079667397440517
 30
0.0
 40
0.947895137885075
 50
225.0018610752970858
 51
261.4598823366255829
  0
ARC
  5
6A20
  8
0
 10
8.6645157662702701
 20
8.1695128573935332
 30
0.0
 40
0.9027466462812931
 50
264.7303071214498118
 51
281.8608311947915013
  0
ARC
  5
6A21
  8
0
 10
8.6645157662698935
 20
8.1695128573999671
 30
0.0
 40
0.9027466462876658
 50
299.1741886792128753
 51
299.1743179154552195
  0
ARC
  5
6A22
  8
0
 10
9.0843330931590316
 20
7.4150554710086141
 30
0.0
 40
0.0393703053609601
 50
251.9700352025496954
 51
252.4698971938937859
  0
ARC
  5
6A23
  8
0
 10
9.0843330931590316
 20
7.4150554710086141
 30
0.0
 40
0.0393703053609601
 50
297.2453716727138726
 51
6.8376113572703074
  0
LINE
  5
6A24
  8
0
 10
9.0671948248202892
 20
7.663402160468852
 30
0.0
 11
9.1234233799329516
 21
7.419742732911689
 31
0.0
  0
ARC
  5
6A25
  8
0
 10
8.8843741880892395
 20
9.8961379890094676
 30
0.0
 40
2.5255097382132701
 50
263.792800240752797
 51
274.9514951129821156
  0
ARC
  5
6A26
  8
0
 10
8.8258167405968848
 20
9.2763025889666508
 30
0.0
 40
1.9029970832759311
 50
246.0108363320686067
 51
263.5276935074397215
  0
ARC
  5
6A27
  8
0
 10
8.607491361665744
 20
8.3225444804829642
 30
0.0
 40
1.064510137163637
 50
283.1717405874071005
 51
297.7022170607311864
  0
LINE
  5
6A28
  8
0
 10
9.0671948248202892
 20
8.2885990108688503
 30
0.0
 11
26.2014378595979593
 21
8.2885990108689942
 31
0.0
  0
LINE
  5
6A29
  8
0
 10
26.2014378595979913
 20
7.6634021604689053
 30
0.0
 11
9.0671948248202892
 21
7.6634021604688618
 31
0.0
  0
LINE
  5
6A2A
  8
0
 10
27.8039676758446994
 20
10.9287685970690802
 30
0.0
 11
27.8039676758446888
 21
10.8905784766690807
 31
0.0
  0
ARC
  5
6A2B
  8
0
 10
27.5417299768919399
 20
10.8926811525840801
 30
0.0
 40
0.2622461286616791
 50
322.9785972241680838
 51
359.5406004767386889
  0
LINE
  5
6A2C
  8
0
 10
25.5008180745510913
 20
10.9287685970690305
 30
0.0
 11
25.5008180745510913
 21
10.8905433757651799
 31
0.0
  0
ARC
  5
6A2D
  8
0
 10
25.7617657275633505
 20
10.8922438613005497
 30
0.0
 40
0.2609531936261092
 50
180.3733670874362929
 51
217.1152916282862861
  0
LINE
  5
6A2E
  8
0
 10
27.7511100781467803
 20
10.7347792678690706
 30
0.0
 11
25.5536756723490015
 21
10.7347792678690208
 31
0.0
  0
LINE
  5
6A2F
  8
0
 10
27.8039676758446888
 20
10.9287685970686006
 30
0.0
 11
25.5008180745510806
 21
10.9287685970686006
 31
0.0
  0
ARC
  5
6A30
  8
0
 10
31.1859555424978616
 20
8.5279513468691981
 30
0.0
 40
4.0826771653999172
 50
147.2799669948597057
 51
166.6882252949490066
  0
ARC
  5
6A31
  8
0
 10
31.185955538361501
 20
8.5279513475911024
 30
0.0
 40
4.0826771612084691
 50
166.6882252914419098
 51
180.3343498015194086
  0
ARC
  5
6A32
  8
0
 10
22.1188285559344706
 20
8.5279508235212251
 30
0.0
 40
4.0826788382046102
 50
13.3117766978667795
 51
32.7200266521023977
  0
ARC
  5
6A33
  8
0
 10
22.1188261909974315
 20
8.5279506557034264
 30
0.0
 40
4.0826811782395342
 50
359.665660237478221
 51
13.31177134791497
  0
LINE
  5
6A34
  8
0
 10
27.1033478908979397
 20
8.5041270002690652
 30
0.0
 11
26.2014378595979416
 21
8.5041270002689835
 31
0.0
  0
LINE
  5
6A35
  8
0
 10
27.1033478908979504
 20
8.5041270002669354
 30
0.0
 11
27.1033478908979397
 21
8.3607006934690649
 31
0.0
  0
ARC
  5
6A36
  8
0
 10
29.6489547213799689
 20
8.3631022096455467
 30
0.0
 40
2.545607963272567
 50
180.0540526128687873
 51
197.9488331167837032
  0
LINE
  5
6A37
  8
0
 10
26.2014378595979416
 20
8.5041270002689835
 30
0.0
 11
26.2014378595979487
 21
8.2885990108690457
 31
0.0
  0
ARC
  5
6A38
  8
0
 10
25.8164441546381305
 20
7.9614488056230366
 30
0.0
 40
0.5052201595850959
 50
5.324206992816312
 51
40.3563757008241879
  0
ARC
  5
6A39
  8
0
 10
25.3447913448601803
 20
8.149241757940846
 30
0.0
 40
0.9848265662968968
 50
330.4406384136033807
 51
351.7736558165743759
  0
ARC
  5
6A3A
  8
0
 10
27.1897562605911212
 20
7.5665710856465473
 30
0.0
 40
0.0393715937169877
 50
312.7976809963004143
 51
17.8330882711689185
  0
ARC
  5
6A3B
  8
0
 10
26.5462644702441715
 20
8.2079667397442542
 30
0.0
 40
0.947895137885075
 50
278.5401176633754972
 51
314.9981389247041079
  0
ARC
  5
6A3C
  8
0
 10
26.6041169181479695
 20
8.1695128573937392
 30
0.0
 40
0.9027466462812931
 50
258.139168805210204
 51
275.2696928785518935
  0
ARC
  5
6A3D
  8
0
 10
26.6041169181483497
 20
8.1695128574001732
 30
0.0
 40
0.9027466462876658
 50
240.8256820845460027
 51
240.8258113207880058
  0
ARC
  5
6A3E
  8
0
 10
26.1842995912592293
 20
7.4150554710088086
 30
0.0
 40
0.0393703053609601
 50
287.5301028061073794
 51
288.0299647974517825
  0
ARC
  5
6A3F
  8
0
 10
26.1842995912592293
 20
7.4150554710088086
 30
0.0
 40
0.0393703053609601
 50
173.1623886427310026
 51
242.7546283272870085
  0
LINE
  5
6A40
  8
0
 10
26.2014378595981192
 20
7.6634021604690448
 30
0.0
 11
26.1452093044853093
 21
7.4197427329118826
 31
0.0
  0
ARC
  5
6A41
  8
0
 10
26.384258496328961
 20
9.8961379890096666
 30
0.0
 40
2.5255097382132701
 50
265.0485048870193054
 51
276.2071997592482262
  0
ARC
  5
6A42
  8
0
 10
26.4428159438213299
 20
9.2763025889668516
 30
0.0
 40
1.9029970832759311
 50
276.4723064925619838
 51
293.9891636679327007
  0
ARC
  5
6A43
  8
0
 10
26.6611413227524885
 20
8.3225444804831703
 30
0.0
 40
1.064510137163637
 50
242.2977829392704052
 51
256.8282594125943774
  0
LINE
  5
6A44
  8
0
 62
     4
 10
17.9031473532159602
 20
10.9287685970686006
 30
0.0
 11
24.6329820359843588
 21
20.0952817181593808
 31
0.0
  0
LINE
  5
6A45
  8
0
 62
     4
 10
17.9031473532159602
 20
-0.0000000300842942
 30
0.0
 11
22.3963351323106608
 21
4.993614497796286
 31
0.0
  0
ENDBLK
  5
6A49
  8
0
  0
BLOCK
  8
0
  2
A$C21D23289
 70
     0
 10
0.0
 20
0.0
 30
0.0
  3
A$C21D23289
  1

  0
ARC
  5
8575
  8
0
 10
295.2345381492337992
 20
276.8656721524130262
 30
0.0
 40
0.9186200754724483
 50
187.7046732443243968
 51
194.4862776102669955
  0
ARC
  5
8576
  8
0
 10
294.3569872366587106
 20
276.6406546974292269
 30
0.0
 40
0.0127883632730528
 50
201.9180168485752063
 51
287.5720357697089753
  0
ARC
  5
8577
  8
0
 10
294.3368772256627039
 20
276.7445191781998233
 30
0.0
 40
0.012823599540151
 50
120.6152026287816028
 51
188.9892450056958921
  0
ARC
  5
8578
  8
0
 10
294.3303637270249737
 20
276.6610481595736815
 30
0.0
 40
0.0099178552946601
 50
0.4012380442039421
 51
9.5038408995187833
  0
ARC
  5
8579
  8
0
 10
294.3392828413053053
 20
276.6610324816916204
 30
0.0
 40
0.0010021203750399
 50
352.6961732361083932
 51
4.8732176747683162
  0
LINE
  5
857A
  8
0
 10
294.3303465538996875
 20
276.7555552568280746
 30
0.0
 11
294.3608481027791868
 21
276.6284630630840979
 31
0.0
  0
ARC
  5
857B
  8
0
 10
294.3295675580009174
 20
276.7118120230554723
 30
0.0
 40
0.0006894344719034
 50
8.5786302178711011
 51
53.261345466988061
  0
ARC
  5
857C
  8
0
 10
294.0731930359416992
 20
276.6438968000917953
 30
0.0
 40
0.265902931788547
 50
11.1534223649243103
 51
14.8210149227058903
  0
ARC
  5
857D
  8
0
 10
293.2898692132471865
 20
276.4796233197610036
 30
0.0
 40
1.0662520918094771
 50
10.7021494696274608
 51
11.6718240227941603
  0
ARC
  5
857E
  8
0
 10
294.023349808280102
 20
276.6158838130747881
 30
0.0
 40
0.3202341356502889
 50
8.4038248381767104
 51
11.1171619442763792
  0
ARC
  5
857F
  8
0
 10
294.3353956042200821
 20
276.711701003955227
 30
0.0
 40
0.0054561446275928
 50
173.0150656168146952
 51
189.1491590008322987
  0
ARC
  5
8580
  8
0
 10
294.8324671935881156
 20
276.7853557329526097
 30
0.0
 40
0.5079546572071983
 50
188.4363429477087948
 51
193.9501670491351035
  0
ARC
  5
8581
  8
0
 10
294.3577950253759923
 20
276.6675967229143112
 30
0.0
 40
0.0188940582490438
 50
194.3964494263375968
 51
199.9827691161808048
  0
ARC
  5
8582
  8
0
 10
294.3406346526778066
 20
276.6613164964680891
 30
0.0
 40
0.0006217783743856
 50
196.4988207214213958
 51
229.9142793094395927
  0
ARC
  5
8583
  8
0
 10
294.3402014448402042
 20
276.6609087497441806
 30
0.0
 40
0.0000754747954642
 50
295.7782948868107837
 51
357.2140243200917098
  0
LINE
  5
8584
  8
0
 10
294.3303465538996875
 20
276.7555552568280746
 30
0.0
 11
294.3823221878793106
 21
276.7849224933842152
 31
0.0
  0
ARC
  5
8585
  8
0
 10
288.3378113417452937
 20
275.5890954634472223
 30
0.0
 40
6.1616648443873219
 50
9.8698918746824535
 51
11.1907109886055007
  0
LINE
  5
8586
  8
0
 10
294.4082806902791845
 20
276.6452751561841978
 30
0.0
 11
294.3608481027791868
 21
276.6284630630840979
 31
0.0
  0
ARC
  5
8587
  8
0
 10
294.4131208759901028
 20
276.7826802495927723
 30
0.0
 40
0.0176123201623783
 50
120.8150839913161008
 51
158.0473166829798117
  0
ARC
  5
8588
  8
0
 10
294.5015119634862231
 20
276.756555592399593
 30
0.0
 40
0.1097154783629713
 50
162.6550153542542887
 51
186.9109505599782892
  0
ARC
  5
8589
  8
0
 10
294.6167417030330853
 20
276.7557392083302261
 30
0.0
 40
0.2244899793226611
 50
183.1626628706304132
 51
200.2115162958469909
  0
ARC
  5
858A
  8
0
 10
294.4257212954194074
 20
276.6859106317166948
 30
0.0
 40
0.0211122164868318
 50
201.4769609351735937
 51
239.6887194111187966
  0
ARC
  5
858B
  8
0
 10
294.4218005817501194
 20
276.6795101148538834
 30
0.0
 40
0.0136087758509916
 50
240.3388387682944938
 51
289.902686234881628
  0
ARC
  5
858C
  8
0
 10
294.4032704116735886
 20
276.7897160581981097
 30
0.0
 40
0.0081323771257593
 50
13.7911953836004493
 51
84.1547387808247151
  0
ARC
  5
858D
  8
0
 10
294.0999509058963213
 20
276.6819645085599859
 30
0.0
 40
0.3299833009931152
 50
359.4201881015274012
 51
19.4137795378791012
  0
ARC
  5
858E
  8
0
 10
294.4132714748570834
 20
276.6770290652121957
 30
0.0
 40
0.0167221913478745
 50
321.9143165561984006
 51
5.4774249477253631
  0
LINE
  5
858F
  8
0
 10
294.4040986306798118
 20
276.7978061515840977
 30
0.0
 11
294.4714608244992746
 21
276.836441229578611
 31
0.0
  0
LINE
  5
8590
  8
0
 10
294.4264333306812773
 20
276.6667141616849221
 30
0.0
 11
294.4821446664495852
 21
276.686808170673487
 31
0.0
  0
ARC
  5
8591
  8
0
 10
294.071122963087987
 20
276.7326590510303959
 30
0.0
 40
0.4135712077588969
 50
353.6347755913777178
 51
14.5332321938464393
  0
ARC
  5
8592
  8
0
 10
294.4016651605518859
 20
276.751620324905673
 30
0.0
 40
0.0014597335495167
 50
78.630152712360541
 51
156.9145597475817056
  0
ARC
  5
8593
  8
0
 10
294.3990572480417995
 20
276.7484344856137
 30
0.0
 40
0.0054498626275021
 50
23.2678867154736402
 51
57.9045022786786632
  0
ARC
  5
8594
  8
0
 10
294.3326109851897172
 20
276.7228603374041995
 30
0.0
 40
0.0766439871041451
 50
7.3305151814646541
 51
21.2085494254010882
  0
ARC
  5
8595
  8
0
 10
294.3090393022891931
 20
276.7158118954251904
 30
0.0
 40
0.1010009167327409
 50
355.2565615623727808
 51
9.5907208084178102
  0
ARC
  5
8596
  8
0
 10
294.3809389419616878
 20
276.709340487791394
 30
0.0
 40
0.0288167879441548
 50
343.4580777114175021
 51
356.2578464226814958
  0
ARC
  5
8597
  8
0
 10
294.4336571089962149
 20
276.7403725105642138
 30
0.0
 40
0.0353684150079277
 50
160.4760052149418925
 51
183.7768010118851976
  0
ARC
  5
8598
  8
0
 10
294.5238046755877122
 20
276.7393969043857282
 30
0.0
 40
0.1254464781396594
 50
180.618476742509614
 51
193.1580164724848032
  0
ARC
  5
8599
  8
0
 10
294.4309167289329139
 20
276.7160385019633964
 30
0.0
 40
0.0297230841772267
 50
190.0715516203493962
 51
211.7626518265522861
  0
ARC
  5
859A
  8
0
 10
294.4074139033539836
 20
276.7016190086937968
 30
0.0
 40
0.0021526033585101
 50
214.7438872472336016
 51
255.2613286175588883
  0
ARC
  5
859B
  8
0
 10
294.4067486139318817
 20
276.7013619090442944
 30
0.0
 40
0.0018284635628263
 50
273.6889796090467826
 51
352.8985892833799767
  0
ARC
  5
859C
  8
0
 10
294.4004849218139839
 20
276.4927082711923276
 30
0.0
 40
0.0130986954370884
 50
120.8520329416701031
 51
186.6200438840357094
  0
ARC
  5
859D
  8
0
 10
294.9415917070788851
 20
276.5812414736230949
 30
0.0
 40
0.5613864187785264
 50
189.2297938109574034
 51
196.7800125726236047
  0
ARC
  5
859E
  8
0
 10
295.9230219994191202
 20
276.8537923078803829
 30
0.0
 40
1.5798711829992771
 50
195.9679474990707035
 51
198.5972600904013916
  0
ARC
  5
859F
  8
0
 10
295.0778073492745079
 20
276.5642276666383168
 30
0.0
 40
0.6864617776208025
 50
198.188788619070607
 51
202.2617061700036061
  0
ARC
  5
85A0
  8
0
 10
294.5210317647529905
 20
276.3373088844625727
 30
0.0
 40
0.0852261094282881
 50
202.8819779191549912
 51
208.2460603217402024
  0
ARC
  5
85A1
  8
0
 10
294.458287934554221
 20
276.3024634942069042
 30
0.0
 40
0.0134999495894019
 50
203.989394289454907
 51
267.8578107708801213
  0
ARC
  5
85A2
  8
0
 10
294.4574888090340892
 20
276.302969289060627
 30
0.0
 40
0.0139994079336952
 50
271.2054120499946066
 51
291.3492013430451948
  0
LINE
  5
85A3
  8
0
 10
294.4625853097791719
 20
276.2899305351842258
 30
0.0
 11
294.5113120978292045
 21
276.3106651001842238
 31
0.0
  0
LINE
  5
85A4
  8
0
 10
294.4581901694792236
 20
276.2870075062842261
 30
0.0
 11
294.5012273886608227
 21
276.3052761198549092
 31
0.0
  0
LINE
  5
85A5
  8
0
 10
294.5012273886608227
 20
276.3052761198549092
 30
0.0
 11
294.5008321547148853
 21
276.3062047538595039
 31
0.0
  0
LINE
  5
85A6
  8
0
 10
294.4721335717600823
 20
276.350588129164521
 30
0.0
 11
294.5233175780193733
 21
276.3699294189614761
 31
0.0
  0
LINE
  5
85A7
  8
0
 10
294.4330107293292258
 20
276.4740229543842247
 30
0.0
 11
294.4872574519171735
 21
276.5062450914766146
 31
0.0
  0
LINE
  5
85A8
  8
0
 10
294.3864469375791941
 20
276.5007271950842096
 30
0.0
 11
294.4327048770791748
 21
276.5285217362841763
 31
0.0
  0
LINE
  5
85A9
  8
0
 10
294.4327048770791748
 20
276.5285217362841763
 30
0.0
 11
294.4329495637791752
 21
276.5275656515842115
 31
0.0
  0
LINE
  5
85AA
  8
0
 10
294.4453580444791783
 20
276.5350195632842087
 30
0.0
 11
294.3937676132604224
 21
276.5039534296147963
 31
0.0
  0
ARC
  5
85AB
  8
0
 10
294.0047989270121889
 20
276.3162609583856124
 30
0.0
 40
0.4318855202918937
 50
17.3499184912893192
 51
25.7591110310178593
  0
ARC
  5
85AC
  8
0
 10
291.4309881620376927
 20
275.4423832587783068
 30
0.0
 40
3.1498914134372069
 50
16.7276873431326116
 51
18.5612672026291285
  0
ARC
  5
85AD
  8
0
 10
294.0275000610378129
 20
276.2108883961980155
 30
0.0
 40
0.4422067767548176
 50
10.2966534796100806
 51
18.1987059244135487
  0
ARC
  5
85AE
  8
0
 10
294.4332911754304973
 20
276.5028923361405759
 30
0.0
 40
0.0472864324715099
 50
185.156233496805811
 51
194.3180585397871027
  0
ARC
  5
85AF
  8
0
 10
294.3898092376747968
 20
276.4992652201319174
 30
0.0
 40
0.0036663923267954
 50
156.4999245828570054
 51
189.7769631304012989
  0
ARC
  5
85B0
  8
0
 10
294.3971446936204757
 20
276.4831963533752059
 30
0.0
 40
0.0205370980263119
 50
121.3925812221910974
 51
169.5833735321407119
  0
ARC
  5
85B1
  8
0
 10
294.4181183181626125
 20
276.4812455027816895
 30
0.0
 40
0.0415600262254946
 50
172.167007931552007
 51
192.0455674406584023
  0
ARC
  5
85B2
  8
0
 10
294.8940558557846998
 20
276.5612789302077772
 30
0.0
 40
0.5241434225102543
 50
189.7436936362236963
 51
199.5011045524971109
  0
ARC
  5
85B3
  8
0
 10
295.1086983261707246
 20
276.586965373348221
 30
0.0
 40
0.7365770214585059
 50
195.8083481479895056
 51
202.9084068957697866
  0
ARC
  5
85B4
  8
0
 10
294.4518602701442092
 20
276.3081673066595272
 30
0.0
 40
0.0230478608156968
 50
200.1016626115919905
 51
251.7221535538701005
  0
ARC
  5
85B5
  8
0
 10
294.4504103541419227
 20
276.3053527628489974
 30
0.0
 40
0.019926714860041
 50
253.1428559144736994
 51
292.9807208798430906
  0
ARC
  5
85B6
  8
0
 10
294.4052686595867954
 20
276.4289679779855078
 30
0.0
 40
0.0007692641807342
 50
16.4040310862470591
 51
76.9786642574130582
  0
ARC
  5
85B7
  8
0
 10
294.3303897167041896
 20
276.3924732259914094
 30
0.0
 40
0.0840576317536017
 50
18.6144180962043784
 51
25.8965714632899804
  0
ARC
  5
85B8
  8
0
 10
293.9381351556760933
 20
276.2535483988287979
 30
0.0
 40
0.5001787140221953
 50
16.0683256117277011
 51
19.3533605343379591
  0
ARC
  5
85B9
  8
0
 10
293.8879009500196275
 20
276.2268225613186132
 30
0.0
 40
0.5559724192011792
 50
14.6201471105721605
 51
17.2821705483313615
  0
ARC
  5
85BA
  8
0
 10
294.2757069801082821
 20
276.3264209450352951
 30
0.0
 40
0.155591125998657
 50
10.9290932658805406
 51
15.1771416417603504
  0
ARC
  5
85BB
  8
0
 10
294.4133618435250241
 20
276.3529820370574726
 30
0.0
 40
0.0153971557085443
 50
3.0980801614895199
 51
11.0005491876007593
  0
ARC
  5
85BC
  8
0
 10
294.4268958185010092
 20
276.3536878915958823
 30
0.0
 40
0.0018450048528596
 50
348.4767862021294036
 51
3.9249529749555272
  0
ARC
  5
85BD
  8
0
 10
294.4284971569356912
 20
276.3533322771085068
 30
0.0
 40
0.0002068840133057
 50
302.4024422796020986
 51
356.4102502178744203
  0
ARC
  5
85BE
  8
0
 10
294.4285830615824011
 20
276.3534366635416859
 30
0.0
 40
0.0002801734002324
 50
216.8696841599330014
 51
275.1104668694600264
  0
ARC
  5
85BF
  8
0
 10
294.4433200921320122
 20
276.3631036173492248
 30
0.0
 40
0.0179043277193281
 50
199.9498388684920087
 51
213.3198067344515039
  0
ARC
  5
85C0
  8
0
 10
294.6869464974773791
 20
276.4605813870501834
 30
0.0
 40
0.2802992990565577
 50
198.1091288033790931
 51
201.688323584804408
  0
ARC
  5
85C1
  8
0
 10
295.5835432231127129
 20
276.7461147221663964
 30
0.0
 40
1.221257720734926
 50
196.1213588678523081
 51
197.7667636031571021
  0
ARC
  5
85C2
  8
0
 10
294.6258223035274
 20
276.4694999074920929
 30
0.0
 40
0.2243901735577642
 50
190.9840779756846132
 51
196.1713830343801135
  0
ARC
  5
85C3
  8
0
 10
294.4186676083094767
 20
276.4292316051947864
 30
0.0
 40
0.0133580831187144
 50
179.1991749430686127
 51
190.7261876530700135
  0
ARC
  5
85C4
  8
0
 10
294.4056718470055216
 20
276.4294383574543872
 30
0.0
 40
0.0003615734789999
 50
129.4738235895597995
 51
183.1791109989088113
  0
ARC
  5
85C5
  8
0
 10
294.433698461051506
 20
276.4731496171904723
 30
0.0
 40
0.0011116171892889
 50
46.5352888708677028
 51
113.2004050176927024
  0
ARC
  5
85C6
  8
0
 10
294.3875167395361814
 20
276.4382729313740015
 30
0.0
 40
0.058968444196492
 50
19.6235628154886186
 51
37.2381006435918209
  0
ARC
  5
85C7
  8
0
 10
293.8723083550763135
 20
276.232741127536201
 30
0.0
 40
0.6136235975141378
 50
15.1220280125785695
 51
21.5443543818395895
  0
ARC
  5
85C8
  8
0
 10
294.1968936286680218
 20
276.3144281628722183
 30
0.0
 40
0.279028432311104
 50
8.8513140369701588
 51
16.3167829614873092
  0
ARC
  5
85C9
  8
0
 10
294.4444363387174803
 20
276.3535036123573718
 30
0.0
 40
0.0284259093477003
 50
356.8211461568017171
 51
7.8021335435131771
  0
ARC
  5
85CA
  8
0
 10
294.4714790963101905
 20
276.3517676165487842
 30
0.0
 40
0.0013488990341568
 50
299.0250733655329896
 51
6.7990876180899278
  0
ARC
  5
85CB
  8
0
 10
294.4403900543744044
 20
276.4625998765807822
 30
0.0
 40
0.013599306769979
 50
122.8625194520461008
 51
170.661344167173894
  0
ARC
  5
85CC
  8
0
 10
294.4873687283881054
 20
276.4577277816766809
 30
0.0
 40
0.0608111611638106
 50
173.3152109278314015
 51
192.3469989112066116
  0
ARC
  5
85CD
  8
0
 10
294.8266667989735197
 20
276.5173905058211972
 30
0.0
 40
0.405270529950461
 50
190.3291444961382126
 51
200.9667008551062111
  0
ARC
  5
85CE
  8
0
 10
294.4866575465783853
 20
276.3819905541033108
 30
0.0
 40
0.039612618512622
 50
194.0491112340721997
 51
230.2579718944793967
  0
ARC
  5
85CF
  8
0
 10
294.4677092086271841
 20
276.3622437942501051
 30
0.0
 40
0.0124671375109218
 50
239.2344033691746006
 51
290.7862147649776148
  0
ARC
  5
85D0
  8
0
 10
293.8868626637259922
 20
276.2744928738172234
 30
0.0
 40
0.6435705028022931
 50
8.5279753511467362
 51
21.1065741203124695
  0
ARC
  5
85D1
  8
0
 10
294.4357666439560717
 20
276.4315761081580831
 30
0.0
 40
0.0005184655968305
 50
47.6240601955567797
 51
112.1633293186110052
  0
ARC
  5
85D2
  8
0
 10
294.4216587791058828
 20
276.4202147387335913
 30
0.0
 40
0.0186264375028328
 50
20.0271169653951588
 51
39.0886502546926025
  0
ARC
  5
85D3
  8
0
 10
294.2521447340009217
 20
276.354283696114976
 30
0.0
 40
0.2005069115294597
 50
10.2288695475221108
 51
21.1392392801509494
  0
ARC
  5
85D4
  8
0
 10
294.4067651321191192
 20
276.3822490393351927
 30
0.0
 40
0.0433779535699731
 50
4.0463768651932748
 51
10.1452964123225104
  0
ARC
  5
85D5
  8
0
 10
294.4367858671438967
 20
276.3841725492885075
 30
0.0
 40
0.0132978210953674
 50
354.8549293005315235
 51
4.9066986813312417
  0
ARC
  5
85D6
  8
0
 10
294.4486977194248993
 20
276.3830410913301989
 30
0.0
 40
0.0013337880676492
 50
312.241838914974096
 51
357.3760651917285145
  0
ARC
  5
85D7
  8
0
 10
294.449474359788212
 20
276.3826317637742136
 30
0.0
 40
0.000590420453086
 50
220.9588325138547873
 51
281.7281519376189749
  0
ARC
  5
85D8
  8
0
 10
294.5104691511637043
 20
276.4187108020046821
 30
0.0
 40
0.071447390047646
 50
193.2163105363416093
 51
210.6898437899662042
  0
ARC
  5
85D9
  8
0
 10
294.5750169643437744
 20
276.4452329894249942
 30
0.0
 40
0.1407845829983078
 50
186.3439144597668076
 51
197.7230250733421997
  0
ARC
  5
85DA
  8
0
 10
294.4384546292420737
 20
276.4302412596883869
 30
0.0
 40
0.0034072354612606
 50
147.8125018513223097
 51
189.5351559750071999
  0
ARC
  5
85DB
  8
0
 10
293.630044343535701
 20
276.2321213394653228
 30
0.0
 40
0.8697607515507115
 50
17.2743785447279592
 51
20.3805986524893292
  0
ARC
  5
85DC
  8
0
 10
293.4573989023135141
 20
276.0692709876693129
 30
0.0
 40
1.0812049487673441
 50
12.9008145068326403
 51
15.6311996993568094
  0
ARC
  5
85DD
  8
0
 10
294.598764786476977
 20
276.1661341129736229
 30
0.0
 40
0.0086875479796735
 50
15.6668958350906706
 51
78.5443966063871386
  0
ARC
  5
85DE
  8
0
 10
294.5210207957048283
 20
276.1237674196955822
 30
0.0
 40
0.0970255055355228
 50
13.5177510075380702
 51
27.4409811647816611
  0
ARC
  5
85DF
  8
0
 10
294.5585147648865245
 20
276.1301311029292833
 30
0.0
 40
0.0591388820743259
 50
359.4807505300877892
 51
16.0149314771682896
  0
ARC
  5
85E0
  8
0
 10
294.6111867158282962
 20
276.1293073053740841
 30
0.0
 40
0.0064709081642953
 50
332.1488052672754065
 51
2.5495887233386938
  0
ARC
  5
85E1
  8
0
 10
294.6154282930137924
 20
276.1269680645980884
 30
0.0
 40
0.0016301271739896
 50
286.4410986973794024
 51
335.197776186159615
  0
ARC
  5
85E2
  8
0
 10
294.6156185082152206
 20
276.1274692296677813
 30
0.0
 40
0.0020823684750036
 50
232.2826793749360093
 51
277.4821074999558164
  0
ARC
  5
85E3
  8
0
 10
294.6571720021378837
 20
276.1612531213606871
 30
0.0
 40
0.055583740212855
 50
195.1203973368209006
 51
219.6009612846526977
  0
ARC
  5
85E4
  8
0
 10
294.6855421839586029
 20
276.1750197578522261
 30
0.0
 40
0.0867628806362456
 50
184.8039767803934126
 51
199.0127985436807023
  0
ARC
  5
85E5
  8
0
 10
294.607606161171077
 20
276.1696065579549781
 30
0.0
 40
0.0087211772394229
 50
144.680366830178798
 51
192.266758077090401
  0
ARC
  5
85E6
  8
0
 10
294.5989636870679078
 20
276.2138515968374008
 30
0.0
 40
0.0028581270019935
 50
73.0358383965109397
 51
118.3454936998449938
  0
ARC
  5
85E7
  8
0
 10
294.5734355854208957
 20
276.1808263487728254
 30
0.0
 40
0.0444259308013582
 50
20.100604821927881
 51
53.6018571895535985
  0
ARC
  5
85E8
  8
0
 10
294.3928827780782171
 20
276.0818453095806717
 30
0.0
 40
0.2499159793085301
 50
4.3876204514425723
 51
27.2033008098715712
  0
ARC
  5
85E9
  8
0
 10
294.6339371178813735
 20
276.100337046565528
 30
0.0
 40
0.0081534127503296
 50
311.4947707546190827
 51
4.4155976409880431
  0
ARC
  5
85EA
  8
0
 10
294.6342244143643256
 20
276.108369365942508
 30
0.0
 40
0.0150360304395096
 50
235.491128560671001
 51
289.8870471055905114
  0
ARC
  5
85EB
  8
0
 10
294.6829022568987284
 20
276.1566309863462152
 30
0.0
 40
0.0833670436681944
 50
197.8483553918854909
 51
226.6795854773245935
  0
ARC
  5
85EC
  8
0
 10
294.7924894515732035
 20
276.2100835031180281
 30
0.0
 40
0.2047943545316817
 50
186.0335289026938881
 51
202.6918221607905934
  0
ARC
  5
85ED
  8
0
 10
294.6177526744103261
 20
276.1947187583605796
 30
0.0
 40
0.0295720953528347
 50
132.9413983025675918
 51
192.0255402543758123
  0
ARC
  5
85EE
  8
0
 10
294.5285154215409875
 20
276.1536888506872742
 30
0.0
 40
0.0008482583708837
 50
65.1555967575012858
 51
113.8347743300702035
  0
ARC
  5
85EF
  8
0
 10
294.4970844360905176
 20
276.1255367422274958
 30
0.0
 40
0.0429757142990217
 50
23.1007736693310086
 51
42.2976005644383974
  0
ARC
  5
85F0
  8
0
 10
294.2798847185031832
 20
276.0262876089881843
 30
0.0
 40
0.2817653336743175
 50
14.3616076235072807
 51
24.3357375050252998
  0
ARC
  5
85F1
  8
0
 10
294.5012460042976841
 20
276.08042430915458
 30
0.0
 40
0.0539497627185253
 50
0.8007399790448383
 51
16.9769211728861009
  0
ARC
  5
85F2
  8
0
 10
294.5533700974614817
 20
276.0809493876370766
 30
0.0
 40
0.0018347325165578
 50
308.4768269430730925
 51
7.1660560030055072
  0
ARC
  5
85F3
  8
0
 10
294.5545067124854199
 20
276.0817015288636185
 30
0.0
 40
0.0021884836265277
 50
220.0806276789284084
 51
270.1297008899485945
  0
ARC
  5
85F4
  8
0
 10
294.675651158117887
 20
276.1581631576216864
 30
0.0
 40
0.1454246903567984
 50
198.098417761540901
 51
212.3758648823977921
  0
ARC
  5
85F5
  8
0
 10
294.7377499654093072
 20
276.1881695500821934
 30
0.0
 40
0.2139718098773922
 50
191.2895967173676013
 51
200.570939996505814
  0
ARC
  5
85F6
  8
0
 10
294.553663675542623
 20
276.1514076203599757
 30
0.0
 40
0.0262507392808705
 50
176.853661707031705
 51
191.2625904113160118
  0
ARC
  5
85F7
  8
0
 10
294.5296002971791154
 20
276.1528601042599007
 30
0.0
 40
0.0021478224801389
 50
131.6593035220722925
 51
180.3114777458442006
  0
ARC
  5
85F8
  8
0
 10
294.4992047035869973
 20
276.2000241009790784
 30
0.0
 40
0.0368064467410614
 50
21.5299175238493987
 51
56.5946142529718372
  0
ARC
  5
85F9
  8
0
 10
293.7550369308730183
 20
275.8256552375376032
 30
0.0
 40
0.8696919587119079
 50
16.447645102069071
 51
26.4868752754755192
  0
ARC
  5
85FA
  8
0
 10
294.2237661087929155
 20
275.9599439494975854
 30
0.0
 40
0.3821414579780842
 50
11.6931130560924093
 51
17.03570759244759
  0
ARC
  5
85FB
  8
0
 10
294.5690005286098199
 20
276.0285590622884797
 30
0.0
 40
0.0302930171290989
 50
344.8448942264598145
 51
16.9535655040520012
  0
ARC
  5
85FC
  8
0
 10
294.5898207047645201
 20
276.0445696947351166
 30
0.0
 40
0.0253680960219062
 50
202.5455023260263943
 51
289.3832485829854022
  0
ARC
  5
85FD
  8
0
 10
295.060743403970605
 20
276.3047311225034264
 30
0.0
 40
0.5632259511554928
 50
191.6232727840038024
 51
208.6320197346232987
  0
ARC
  5
85FE
  8
0
 10
294.5442992084791172
 20
276.2030932590138832
 30
0.0
 40
0.0371677521568458
 50
131.9176930922826045
 51
198.573217265185292
  0
ARC
  5
85FF
  8
0
 10
294.5040879748204929
 20
276.1571516963261956
 30
0.0
 40
0.0120883348962581
 50
120.2502194458474065
 51
195.8643000780095065
  0
ARC
  5
8600
  8
0
 10
297.0521806290605014
 20
277.0762301145337005
 30
0.0
 40
2.7208380260657048
 50
199.8163810520036066
 51
201.9457216814022047
  0
ARC
  5
8601
  8
0
 10
294.5473602025876971
 20
276.0651295550763962
 30
0.0
 40
0.0197189708868885
 50
196.9626907615298137
 51
239.0744114408445
  0
ARC
  5
8602
  8
0
 10
294.5400203897299889
 20
276.0661457913311096
 30
0.0
 40
0.0181482710859696
 50
261.1430682291726839
 51
288.271774572015488
  0
LINE
  5
8603
  8
0
 10
294.4979981462792011
 20
276.1675940058842116
 30
0.0
 11
294.5124669577975851
 21
276.1758264653846027
 31
0.0
  0
LINE
  5
8604
  8
0
 10
294.545710321079298
 20
276.0489125552841756
 30
0.0
 11
294.5567759622940116
 21
276.0532549013911989
 31
0.0
  0
LINE
  5
8605
  8
0
 10
294.4979981462792011
 20
276.1675940058842116
 30
0.0
 11
294.545710321079298
 21
276.0489125552841756
 31
0.0
  0
LINE
  5
8606
  8
0
 10
294.5194688319207899
 20
276.2307499797228161
 30
0.0
 11
294.5804493479791972
 21
276.2674771167842209
 31
0.0
  0
ARC
  5
8607
  8
0
 10
294.3421870501894091
 20
276.1154865407934835
 30
0.0
 40
0.2826129115208741
 50
21.8074414106262111
 51
32.5343256911301708
  0
LINE
  5
8608
  8
0
 10
294.5975915977792283
 20
276.2163581448842251
 30
0.0
 11
294.6569605102841933
 21
276.2513460031062777
 31
0.0
  0
ARC
  5
8609
  8
0
 10
294.4098218487158078
 20
276.1050469341003009
 30
0.0
 40
0.2871949436076926
 50
2.1310259774483491
 51
30.6243278007900201
  0
LINE
  5
860A
  8
0
 10
294.6968181695917224
 20
276.1157262335888163
 30
0.0
 11
294.6393671679941804
 21
276.0942394213381021
 31
0.0
  0
LINE
  5
860B
  8
0
 10
294.5982400042079803
 20
276.0206394692331742
 30
0.0
 11
294.6560685977300977
 21
276.0451863674057904
 31
0.0
  0
ARC
  5
860C
  8
0
 10
294.3127336867132158
 20
276.004645717276901
 30
0.0
 40
0.3457201258231162
 50
6.7342473046817819
 51
15.4438779951694496
  0
ARC
  5
860D
  8
0
 10
294.7329863307621736
 20
275.9445952181147277
 30
0.0
 40
0.0028581270019935
 50
73.0358383965109397
 51
118.3454936998458038
  0
ARC
  5
860E
  8
0
 10
294.7077921747509777
 20
275.9058115052516769
 30
0.0
 40
0.0490016510376104
 50
27.1694345153006012
 51
57.9156317814264128
  0
ARC
  5
860F
  8
0
 10
294.5582798685763919
 20
275.8124665609618091
 30
0.0
 40
0.2251255972984591
 50
5.997259582529435
 51
30.9323243738011087
  0
ARC
  5
8610
  8
0
 10
294.7714127746244799
 20
275.8347053368498791
 30
0.0
 40
0.0108367187121532
 50
313.3232054095842045
 51
6.797005953215864
  0
ARC
  5
8611
  8
0
 10
294.7692113752420937
 20
275.8416369766900971
 30
0.0
 40
0.0176736348706036
 50
237.5511085600697072
 51
303.0419973998165233
  0
ARC
  5
8612
  8
0
 10
294.8169249005929942
 20
275.8873746076234852
 30
0.0
 40
0.0833670436681944
 50
197.848355391884013
 51
226.6795854773245935
  0
ARC
  5
8613
  8
0
 10
294.9265120952675261
 20
275.9408271243954118
 30
0.0
 40
0.2047943545316817
 50
186.0335289026938881
 51
202.6918221607905934
  0
ARC
  5
8614
  8
0
 10
294.7517753181045919
 20
275.9254623796380201
 30
0.0
 40
0.0295720953528347
 50
132.9413983025663981
 51
192.0255402543758123
  0
LINE
  5
8615
  8
0
 10
294.7316142414734941
 20
275.9471017661616088
 30
0.0
 11
294.7909831539785159
 21
275.9820896243837183
 31
0.0
  0
ARC
  5
8616
  8
0
 10
294.6020400345561825
 20
275.8390812651160218
 30
0.0
 40
0.2369617969156025
 50
2.7761369615164191
 51
37.1215607530414431
  0
LINE
  5
8617
  8
0
 10
294.8387237321791758
 20
275.8505582192840961
 30
0.0
 11
294.778847988779205
 21
275.8268216788841869
 31
0.0
  0
ARC
  5
8618
  8
0
 10
294.7370077429440016
 20
275.9018593473577994
 30
0.0
 40
0.0037585300332783
 50
38.93166590201497
 51
101.3425864747553931
  0
ARC
  5
8619
  8
0
 10
294.6938742343253921
 20
275.8647539134158251
 30
0.0
 40
0.0606542323624881
 50
18.0801042091926085
 51
40.5938513168225796
  0
ARC
  5
861A
  8
0
 10
294.6781440657878193
 20
275.8559505485064847
 30
0.0
 40
0.0784173550870317
 50
8.2290611326075052
 51
20.6286437338026687
  0
ARC
  5
861B
  8
0
 10
294.73564350248148
 20
275.863570683186822
 30
0.0
 40
0.0204308658271031
 50
348.6343123709593783
 51
10.1595998695770806
  0
ARC
  5
861C
  8
0
 10
294.7528173799796036
 20
275.859962954838295
 30
0.0
 40
0.0028868347149651
 50
297.6654427565434844
 51
351.6627894796827718
  0
ARC
  5
861D
  8
0
 10
294.7540237583563112
 20
275.8628196703925255
 30
0.0
 40
0.0054151677454556
 50
209.2001894080003979
 51
271.4179668628157742
  0
ARC
  5
861E
  8
0
 10
294.8032612425153047
 20
275.9010899879918952
 30
0.0
 40
0.0677198108596634
 50
198.9535883851806091
 51
217.1669064655455941
  0
ARC
  5
861F
  8
0
 10
294.8021410214788034
 20
275.9045152095778235
 30
0.0
 40
0.0678685698041563
 50
184.0532833047282963
 51
201.9970365536985923
  0
ARC
  5
8620
  8
0
 10
294.7407082467523196
 20
275.9009533527411122
 30
0.0
 40
0.0063866573498821
 50
134.0395169015930037
 51
191.1530598040608879
  0
ARC
  5
8621
  8
0
 10
294.5781166876963084
 20
275.8498384128964744
 30
0.0
 40
0.0731421290331432
 50
23.6775171460105298
 51
41.1110673456245266
  0
ARC
  5
8622
  8
0
 10
293.9507934392012203
 20
275.5324640814047257
 30
0.0
 40
0.7760784356743438
 50
19.6310052211264683
 51
26.53819017142132
  0
ARC
  5
8623
  8
0
 10
294.6513146503825737
 20
275.7802090960498731
 30
0.0
 40
0.0331023839854931
 50
1.0455674287507739
 51
23.1000344091279288
  0
ARC
  5
8624
  8
0
 10
294.6798347880388746
 20
275.7933785206820971
 30
0.0
 40
0.0133729365137121
 50
210.2804305805732952
 51
290.0133190390142772
  0
ARC
  5
8625
  8
0
 10
295.0064405613136955
 20
275.9850297476755259
 30
0.0
 40
0.3920568430792675
 50
202.0953902132625046
 51
210.4000506342256926
  0
ARC
  5
8626
  8
0
 10
294.8635624631843939
 20
275.938909159914374
 30
0.0
 40
0.2425736205276728
 50
192.8422796593827968
 51
204.6968682171236082
  0
ARC
  5
8627
  8
0
 10
294.6400830500562051
 20
275.8867220166640095
 30
0.0
 40
0.0131406477612948
 50
121.4614015666981999
 51
187.5616444830401122
  0
LINE
  5
8628
  8
0
 10
294.6332246299785993
 20
275.8979308835837969
 30
0.0
 11
294.6815760695793074
 21
275.9259373619840972
 31
0.0
  0
ARC
  5
8629
  8
0
 10
293.9427470989496101
 20
275.5412710370667924
 30
0.0
 40
0.8329684444005131
 50
18.1644810156181293
 51
27.5034354526425986
  0
LINE
  5
862A
  8
0
 10
294.7342049712274843
 20
275.800945575063281
 30
0.0
 11
294.6844115227909242
 21
275.7808131344958724
 31
0.0
  0
ARC
  5
862B
  8
0
 10
294.6384991441797183
 20
275.8566261490757938
 30
0.0
 40
0.0013435953582373
 50
30.2721732477663608
 51
78.1915851115540335
  0
ARC
  5
862C
  8
0
 10
294.5749049509927886
 20
275.8145392099414153
 30
0.0
 40
0.0776011393365552
 50
24.0828045623016997
 51
33.4409784764488123
  0
ARC
  5
862D
  8
0
 10
294.3674298419327897
 20
275.7150399345629808
 30
0.0
 40
0.3076802616585681
 50
20.8454611826915901
 51
25.2331474006050414
  0
ARC
  5
862E
  8
0
 10
294.5552064795144815
 20
275.7850780757892153
 30
0.0
 40
0.1072805303434416
 50
15.4929749596003301
 51
21.5752147814443802
  0
ARC
  5
862F
  8
0
 10
294.6515170896329892
 20
275.8113244561477018
 30
0.0
 40
0.0074712062900066
 50
357.9096176938048188
 51
18.8219178307946393
  0
ARC
  5
8630
  8
0
 10
294.6587224533541871
 20
275.8110482262429741
 30
0.0
 40
0.0002608972950245
 50
295.8658069913373083
 51
0.8157442060913691
  0
ARC
  5
8631
  8
0
 10
294.658963029845097
 20
275.8117964498118795
 30
0.0
 40
0.0009911226637596
 50
207.0784782749103954
 51
262.6522328014399932
  0
ARC
  5
8632
  8
0
 10
294.8496668943221266
 20
275.921069859568604
 30
0.0
 40
0.2207822694926258
 50
196.9710258703607053
 51
209.8004606092902122
  0
ARC
  5
8633
  8
0
 10
294.6391212525871879
 20
275.8571824105770247
 30
0.0
 40
0.0008345332398803
 50
114.5815125144366959
 51
221.8016577082763945
  0
ARC
  5
8634
  8
0
 10
293.6248136680584935
 20
275.3756173213486136
 30
0.0
 40
1.115793324263854
 50
20.8254886703710405
 51
27.3908314997995603
  0
ARC
  5
8635
  8
0
 10
294.6216574653520865
 20
275.8785083921613932
 30
0.0
 40
0.0121117923776405
 50
120.4778336086530004
 51
192.8967794007280077
  0
ARC
  5
8636
  8
0
 10
295.4030697968378831
 20
276.1629708097125899
 30
0.0
 40
0.8436017774568902
 50
199.9020245169147074
 51
207.1814406959796031
  0
ARC
  5
8637
  8
0
 10
294.6632513885684261
 20
275.7837240343963003
 30
0.0
 40
0.0122563212599667
 50
209.9494088199417092
 51
291.3302889970552201
  0
ARC
  5
8638
  8
0
 10
294.6214004684946985
 20
275.8490305420630193
 30
0.0
 40
0.0000754517205515
 50
42.7133406823937634
 51
116.5917811090674974
  0
ARC
  5
8639
  8
0
 10
294.5775481344721811
 20
275.8217995307331876
 30
0.0
 40
0.0516934281101734
 50
24.3454379502951603
 51
31.8548446290258802
  0
ARC
  5
863A
  8
0
 10
294.0214835561520204
 20
275.5587513944269062
 30
0.0
 40
0.6668305746989988
 50
22.1160169019670008
 51
25.2413556218231605
  0
ARC
  5
863B
  8
0
 10
294.4862664218165946
 20
275.7478897871375807
 30
0.0
 40
0.1650375770445627
 50
20.2308887370191499
 51
22.0329500396038718
  0
ARC
  5
863C
  8
0
 10
294.6085726175887771
 20
275.7928456336566114
 30
0.0
 40
0.0347311134027659
 50
17.107152123164191
 51
20.4150124258521402
  0
ARC
  5
863D
  8
0
 10
294.6349429027058022
 20
275.8009828851517113
 30
0.0
 40
0.0071339247567267
 50
12.4107303116624905
 51
16.945269798609111
  0
ARC
  5
863E
  8
0
 10
294.6407297022207104
 20
275.8022442193774282
 30
0.0
 40
0.0012113249456185
 50
0.0710544512202479
 51
12.9702664632780298
  0
ARC
  5
863F
  8
0
 10
294.6418839019372058
 20
275.8022412417357145
 30
0.0
 40
0.0000572996893425
 50
252.3515411551393868
 51
4.4841167578564347
  0
ARC
  5
8640
  8
0
 10
294.6259729738325177
 20
275.7924808647916279
 30
0.0
 40
0.0185841823886272
 50
31.8788865287551388
 51
34.1177316748252295
  0
ARC
  5
8641
  8
0
 10
294.6419597488340969
 20
275.8023953900864171
 30
0.0
 40
0.0002286193523324
 50
205.8677447444910058
 51
245.9366359553281995
  0
ARC
  5
8642
  8
0
 10
295.1996100238545182
 20
276.0763254269381832
 30
0.0
 40
0.6216137119882236
 50
201.81903637492141
 51
206.0947206178252884
  0
ARC
  5
8643
  8
0
 10
294.6625741668923979
 20
275.8608203493275823
 30
0.0
 40
0.0429541889142441
 50
196.9432136635927009
 51
201.2010305052104115
  0
ARC
  5
8644
  8
0
 10
294.6235356836822916
 20
275.8490955053571838
 30
0.0
 40
0.0021991981176076
 50
182.3416703950935869
 51
201.1369482766735928
  0
ARC
  5
8645
  8
0
 10
294.6214395027866999
 20
275.8490251079418272
 30
0.0
 40
0.000103034849318
 50
134.9623955392877122
 51
190.8858767213048111
  0
LINE
  5
8646
  8
0
 10
294.6155143026269911
 20
275.8889466423179897
 30
0.0
 11
294.6614024924559772
 21
275.9155836402185855
 31
0.0
  0
LINE
  5
8647
  8
0
 10
294.6614024924559772
 20
275.9155836402185855
 30
0.0
 11
294.6619099612443051
 21
275.9145462132851776
 31
0.0
  0
LINE
  5
8648
  8
0
 10
294.6677095483524909
 20
275.7723072825742179
 30
0.0
 11
294.7147830395791743
 21
275.7914542014841004
 31
0.0
  0
LINE
  5
8649
  8
0
 10
294.7147830395791743
 20
275.7914542014841004
 30
0.0
 11
294.7142138669017868
 21
275.7928617521573074
 31
0.0
  0
ARC
  5
864A
  8
0
 10
294.7751755264956159
 20
275.5871968569484238
 30
0.0
 40
0.0011484336652129
 50
37.8222742989234817
 51
92.0503089149022742
  0
ARC
  5
864B
  8
0
 10
294.7146177648289154
 20
275.5412081083384805
 30
0.0
 40
0.077189197685181
 50
25.5317435074263912
 51
37.2228010092005874
  0
ARC
  5
864C
  8
0
 10
294.5849723126684125
 20
275.4718397408057058
 30
0.0
 40
0.2241734854724668
 50
22.0828191632748805
 51
27.2484407081395084
  0
ARC
  5
864D
  8
0
 10
294.6921331078964954
 20
275.5135790580790172
 30
0.0
 40
0.1091939690717305
 50
18.4219006071216285
 51
22.9272941032681885
  0
ARC
  5
864E
  8
0
 10
294.7584239577017797
 20
275.535535528757805
 30
0.0
 40
0.0393618478160238
 50
13.4865247292180506
 51
18.5927424439907192
  0
ARC
  5
864F
  8
0
 10
294.7890083324045918
 20
275.5426353057504798
 30
0.0
 40
0.0079683422557082
 50
359.9999999996937845
 51
15.1318249446487307
  0
ARC
  5
8650
  8
0
 10
294.7963614521459021
 20
275.5425737568821773
 30
0.0
 40
0.000618293624011
 50
307.2821633533071122
 51
5.7130474184975668
  0
ARC
  5
8651
  8
0
 10
294.7967191534071958
 20
275.5431837896198886
 30
0.0
 40
0.0011021139597947
 50
211.3053804624971121
 51
270.8746853692657055
  0
ARC
  5
8652
  8
0
 10
294.9455302409015189
 20
275.6410362066513926
 30
0.0
 40
0.1792020656684509
 50
198.6565324632773866
 51
213.3149517264807002
  0
ARC
  5
8653
  8
0
 10
294.7909242328582877
 20
275.588951365113985
 30
0.0
 40
0.0160588331227852
 50
184.3131451615635115
 51
199.0476745508337899
  0
ARC
  5
8654
  8
0
 10
294.775541243964085
 20
275.5878511646882885
 30
0.0
 40
0.0006394721843227
 50
129.5058822585826022
 51
189.6818282775346916
  0
ARC
  5
8655
  8
0
 10
294.6553632231468214
 20
275.5306440177247964
 30
0.0
 40
0.1492949755697298
 50
24.0473555284195015
 51
40.6589441912888105
  0
ARC
  5
8656
  8
0
 10
294.1687269406365886
 20
275.2747392952002201
 30
0.0
 40
0.6988714617990683
 50
23.28524755895344
 51
26.9503394593338896
  0
ARC
  5
8657
  8
0
 10
294.5639918949079856
 20
275.440031643319287
 30
0.0
 40
0.27049615748527
 50
17.1029162276519884
 51
24.2221170610467489
  0
ARC
  5
8658
  8
0
 10
294.7981967993642911
 20
275.5119286840737232
 30
0.0
 40
0.0255046228602065
 50
4.43426668780927
 51
17.461157805039651
  0
ARC
  5
8659
  8
0
 10
294.8218888075409723
 20
275.5137437596396239
 30
0.0
 40
0.0017433393017369
 50
316.4138448755638251
 51
5.1610639158238261
  0
ARC
  5
865A
  8
0
 10
294.8183785110247186
 20
275.5247664081819039
 30
0.0
 40
0.0131233609883003
 50
263.780449380058883
 51
291.3280590394451224
  0
ARC
  5
865B
  8
0
 10
294.8234939962086969
 20
275.5344009086545043
 30
0.0
 40
0.0236039422913161
 50
205.5495177627535099
 51
253.921392157764501
  0
ARC
  5
865C
  8
0
 10
295.1880362606713106
 20
275.7547072588503738
 30
0.0
 40
0.4494385742888415
 50
200.6421384790980085
 51
210.8526578357617041
  0
ARC
  5
865D
  8
0
 10
294.8344850698596247
 20
275.6235760021647252
 30
0.0
 40
0.0723830805849707
 50
184.9816461201741902
 51
202.1658375024331065
  0
ARC
  5
865E
  8
0
 10
294.7755946052005243
 20
275.6166722518153165
 30
0.0
 40
0.0132336431413981
 50
121.8125242723432962
 51
177.3222861945461091
  0
ARC
  5
865F
  8
0
 10
294.8115136712896174
 20
275.6163097977948269
 30
0.0
 40
0.0050361421102053
 50
37.3615989549685068
 51
92.7937184614943362
  0
ARC
  5
8660
  8
0
 10
294.7461633395294029
 20
275.5588923134474157
 30
0.0
 40
0.0920158787428795
 50
27.2743809774643395
 51
41.0873359338558188
  0
ARC
  5
8661
  8
0
 10
294.6509765462678274
 20
275.5059979161159731
 30
0.0
 40
0.2008876641566366
 50
18.6748567478086898
 51
28.2424859014397001
  0
ARC
  5
8662
  8
0
 10
294.814723083291085
 20
275.6180812916408058
 30
0.0
 40
0.004749215043746
 50
136.6740696824917904
 51
192.6104168517969129
  0
ARC
  5
8663
  8
0
 10
294.9056853020005065
 20
275.6307154045890115
 30
0.0
 40
0.0965694393173317
 50
188.1384833480684904
 51
202.2681172406896053
  0
ARC
  5
8664
  8
0
 10
295.1029193915870792
 20
275.7095033130506181
 30
0.0
 40
0.3089553520788417
 50
201.9290809344894058
 51
207.9644762571417971
  0
ARC
  5
8665
  8
0
 10
295.1404783314197857
 20
275.7740660253764986
 30
0.0
 40
0.3744835651110796
 50
214.0056754891004971
 51
215.8505040414725897
  0
ARC
  5
8666
  8
0
 10
294.7437712469499047
 20
275.5373886469146214
 30
0.0
 40
0.1029272987370855
 50
13.1903312413746097
 51
18.6607038566034511
  0
ARC
  5
8667
  8
0
 10
294.8077351909915933
 20
275.5517700088279867
 30
0.0
 40
0.0373739716005201
 50
2.9530918955401031
 51
14.1006404900894005
  0
ARC
  5
8668
  8
0
 10
294.8563499815695081
 20
275.5691120819839171
 30
0.0
 40
0.0241497065919634
 50
216.5175267402823067
 51
231.3311727654636911
  0
ARC
  5
8669
  8
0
 10
294.8436473104595734
 20
275.553271433753423
 30
0.0
 40
0.0038449931163579
 50
231.6343730235223006
 51
264.1845537350101267
  0
ARC
  5
866A
  8
0
 10
294.8432777241885105
 20
275.5508069896404209
 30
0.0
 40
0.0013609075267068
 50
269.1577048904064213
 51
330.2789766042399719
  0
ARC
  5
866B
  8
0
 10
294.8382664750293998
 20
275.5530071045797058
 30
0.0
 40
0.0068278433705789
 50
335.0994748713054037
 51
5.7861116462675772
  0
ARC
  5
866C
  8
0
 10
294.7935639744779905
 20
275.6856523019117731
 30
0.0
 40
0.0062657342319356
 50
48.2107820965798624
 51
111.2325021601178037
  0
ARC
  5
866D
  8
0
 10
294.6331621937902128
 20
275.5300273797327009
 30
0.0
 40
0.2297404630059193
 50
24.411734899536949
 51
44.2451116348859586
  0
ARC
  5
866E
  8
0
 10
294.3129278550572963
 20
275.3522817712585038
 30
0.0
 40
0.595537532409857
 50
18.6998018575233615
 51
27.2515322804598092
  0
ARC
  5
866F
  8
0
 10
294.6564853205052259
 20
275.4665849330920082
 30
0.0
 40
0.2334768430434551
 50
10.1057720912911009
 51
19.1608209369105182
  0
ARC
  5
8670
  8
0
 10
294.8652270615913835
 20
275.5009105091651804
 30
0.0
 40
0.0221328484696643
 50
329.8131338312330172
 51
17.4624701815037504
  0
ARC
  5
8671
  8
0
 10
294.8781357245765093
 20
275.5086989403711755
 30
0.0
 40
0.0199144989516852
 50
220.2562848792935029
 51
288.2083542864024821
  0
ARC
  5
8672
  8
0
 10
295.2146228989601013
 20
275.7673651364729039
 30
0.0
 40
0.4443126805188277
 50
196.6690194100806082
 51
217.6716273487631099
  0
ARC
  5
8673
  8
0
 10
294.8607661395020045
 20
275.6692881683476912
 30
0.0
 40
0.0775610501395647
 50
170.3083205332787031
 51
202.2519465913642023
  0
ARC
  5
8674
  8
0
 10
294.800456382759819
 20
275.6772602522700026
 30
0.0
 40
0.0169262250659918
 50
122.7697621361000984
 51
162.5169908752957042
  0
ARC
  5
8675
  8
0
 10
294.9683838710623149
 20
275.329656046343473
 30
0.0
 40
0.026286856442322
 50
24.8248702015951501
 51
65.7666514201136607
  0
ARC
  5
8676
  8
0
 10
294.904729603171802
 20
275.2871688071235212
 30
0.0
 40
0.1025824082028036
 50
19.2929935510471502
 51
31.4505634211920011
  0
ARC
  5
8677
  8
0
 10
294.9841415391942974
 20
275.3122496877704748
 30
0.0
 40
0.0195127948878938
 50
353.1114198532367823
 51
26.8472200071172686
  0
ARC
  5
8678
  8
0
 10
295.0009561064920263
 20
275.31023349619079
 30
0.0
 40
0.0025778316610566
 50
303.4927091608469141
 51
352.776142745377399
  0
ARC
  5
8679
  8
0
 10
295.0017105386821754
 20
275.3109327473922008
 30
0.0
 40
0.0029263345485632
 50
231.2403575748587059
 51
283.1972620743201787
  0
ARC
  5
867A
  8
0
 10
295.0393022079089178
 20
275.3521031925432112
 30
0.0
 40
0.0586714165245421
 50
203.9729205308316864
 51
227.7829710375378909
  0
ARC
  5
867B
  8
0
 10
295.0463317707161082
 20
275.3618620272533235
 30
0.0
 40
0.0693251032550055
 50
191.2749895423513919
 51
208.988507848830011
  0
ARC
  5
867C
  8
0
 10
294.9839284896735876
 20
275.3501616242774048
 30
0.0
 40
0.0058835707701959
 50
143.9200257365228879
 51
198.3667937706736097
  0
ARC
  5
867D
  8
0
 10
294.9721302304550932
 20
275.3812140450734773
 30
0.0
 40
0.0118226765307696
 50
32.9351258740237611
 51
92.3464240239349863
  0
ARC
  5
867E
  8
0
 10
294.8358883459234789
 20
275.2582315343789219
 30
0.0
 40
0.1952206562757526
 50
25.3539980691917997
 51
41.5208678817065291
  0
ARC
  5
867F
  8
0
 10
294.8395821987892873
 20
275.2479694171959181
 30
0.0
 40
0.1965769457334521
 50
12.1542216172427597
 51
28.5196066527871608
  0
ARC
  5
8680
  8
0
 10
295.0218927396886102
 20
275.2857224108061018
 30
0.0
 40
0.0105087420092152
 50
319.0541195268651791
 51
20.2372377214844583
  0
ARC
  5
8681
  8
0
 10
294.980466366868086
 20
275.3796149435447091
 30
0.0
 40
0.0160519839124368
 50
123.3559141548350055
 51
157.5924678183428114
  0
ARC
  5
8682
  8
0
 10
295.0018590705619772
 20
275.3747509907137783
 30
0.0
 40
0.0378494234628452
 50
162.965068870560799
 51
201.2165675824417974
  0
ARC
  5
8683
  8
0
 10
295.1605829664528073
 20
275.4187045062208199
 30
0.0
 40
0.2023924050446035
 50
196.549741900500095
 51
221.0464468612078974
  0
ARC
  5
8684
  8
0
 10
295.0242072053358129
 20
275.2990383578933802
 30
0.0
 40
0.0209711692463334
 50
219.1457417365739957
 51
285.5445501611761756
  0
ARC
  5
8685
  8
0
 10
295.0800214001429254
 20
275.3896381345005011
 30
0.0
 40
0.0142723435735644
 50
27.5608509863999913
 51
99.8237880489913039
  0
ARC
  5
8686
  8
0
 10
295.0930987972078015
 20
275.3934468171490266
 30
0.0
 40
0.0185954532055264
 50
146.5337311411288965
 51
206.0249343780091067
  0
ARC
  5
8687
  8
0
 10
295.1247797619188873
 20
275.3993591863036272
 30
0.0
 40
0.0503952575160156
 50
196.2136434443710868
 51
232.0667127969367129
  0
ARC
  5
8688
  8
0
 10
295.0983724044461951
 20
275.3646460550954771
 30
0.0
 40
0.0068015785761851
 50
227.7539268601117044
 51
23.1704252074935297
  0
ARC
  5
8689
  8
0
 10
295.0523803033838135
 20
275.3626608122260109
 30
0.0
 40
0.0524525967343408
 50
5.0985763861941553
 51
39.8079379106887501
  0
ARC
  5
868A
  8
0
 10
295.0744260949206819
 20
275.4178223950361826
 30
0.0
 40
0.0262797378277973
 50
38.7563201696216311
 51
96.2688058430579048
  0
ARC
  5
868B
  8
0
 10
294.9951733137430097
 20
275.3340940814819078
 30
0.0
 40
0.141369224817659
 50
4.5691354488756888
 51
45.1242486209539635
  0
ARC
  5
868C
  8
0
 10
295.118995117005511
 20
275.3434181765683206
 30
0.0
 40
0.0172075836269191
 50
304.597609952387586
 51
6.4654857817701421
  0
ARC
  5
868D
  8
0
 10
295.1198048182654929
 20
275.3546959578783913
 30
0.0
 40
0.0269753584804066
 50
233.7735908404966949
 51
289.3845541243467778
  0
ARC
  5
868E
  8
0
 10
295.1740598515826832
 20
275.4238138845760204
 30
0.0
 40
0.1148325922379083
 50
180.1440321390622046
 51
232.3166275656355992
  0
ARC
  5
868F
  8
0
 10
295.0853947518961036
 20
275.4216580343785949
 30
0.0
 40
0.0262336623427091
 50
121.8366107685668993
 51
175.9185232265886896
  0
ARC
  5
8690
  8
0
 10
294.8942663815303149
 20
275.310120583995797
 30
0.0
 40
0.0002402127140606
 50
42.2468815260946684
 51
111.854580169081899
  0
ARC
  5
8691
  8
0
 10
294.8831809267427957
 20
275.2990930395682199
 30
0.0
 40
0.0158762739123603
 50
30.8415899409449814
 51
44.8105803041966482
  0
ARC
  5
8692
  8
0
 10
294.6577607669221948
 20
275.1614588753678845
 30
0.0
 40
0.279991829299379
 50
26.94832112428481
 51
31.3748191807780188
  0
ARC
  5
8693
  8
0
 10
294.6868823114148768
 20
275.1741292615902807
 30
0.0
 40
0.2482976710005011
 50
22.5977763734041908
 51
27.3874362742007591
  0
ARC
  5
8694
  8
0
 10
294.888054181376674
 20
275.2577829633323745
 30
0.0
 40
0.0304260988534574
 50
15.7963850724294304
 51
22.7314609914300512
  0
ARC
  5
8695
  8
0
 10
294.9123473733030778
 20
275.2646091775126251
 30
0.0
 40
0.0051922983648214
 50
5.7893769166820226
 51
16.2891835819472703
  0
ARC
  5
8696
  8
0
 10
294.9166968746940825
 20
275.2650832409187274
 30
0.0
 40
0.0008178244289657
 50
344.5167281108933821
 51
3.4835935777812268
  0
ARC
  5
8697
  8
0
 10
294.9230647263747187
 20
275.2710063481691805
 30
0.0
 40
0.0085831395670182
 50
217.3425908517320124
 51
224.1567140698496985
  0
ARC
  5
8698
  8
0
 10
294.9176325563921068
 20
275.2656669714228883
 30
0.0
 40
0.0009674827568781
 50
221.4023998729896903
 51
250.9839097476964014
  0
ARC
  5
8699
  8
0
 10
294.9173453529388098
 20
275.2648917090389773
 30
0.0
 40
0.0001422125998361
 50
258.6301101691407212
 51
349.1408866014451746
  0
ARC
  5
869A
  8
0
 10
295.1500919640665757
 20
275.4131031179035745
 30
0.0
 40
0.276377486506253
 50
202.877241669942606
 51
212.206889614717312
  0
ARC
  5
869B
  8
0
 10
294.9193582829897764
 20
275.3159056012582937
 30
0.0
 40
0.0260074458651331
 50
194.2735062187338997
 51
203.202454930052113
  0
ARC
  5
869C
  8
0
 10
294.8953216739096206
 20
275.3098868324137243
 30
0.0
 40
0.0012324533551471
 50
158.2497090278505993
 51
198.6144635998174977
  0
ARC
  5
869D
  8
0
 10
294.878417800954594
 20
275.3378921559740888
 30
0.0
 40
0.0142382926110765
 50
29.8128583249043189
 51
54.4692484037446008
  0
ARC
  5
869E
  8
0
 10
294.2448062591740836
 20
274.9507614919726848
 30
0.0
 40
0.7567512751895042
 50
22.6083549232554404
 51
31.3942155831884016
  0
ARC
  5
869F
  8
0
 10
294.9310722767572202
 20
275.2359571004514009
 30
0.0
 40
0.0135950048703075
 50
358.9280509047719079
 51
24.8918988657979696
  0
ARC
  5
86A0
  8
0
 10
294.8935397410280075
 20
275.3385616328538958
 30
0.0
 40
0.0128872592658748
 50
122.0338876319602974
 51
199.4269389510317012
  0
ARC
  5
86A1
  8
0
 10
295.1454835148433062
 20
275.426181715159089
 30
0.0
 40
0.2796322335758174
 50
199.188008482257402
 51
206.0384805965020973
  0
ARC
  5
86A2
  8
0
 10
295.5500347678575963
 20
275.6157669356015845
 30
0.0
 40
0.7263548363564856
 50
205.4669523483142939
 51
209.5767527898960054
  0
ARC
  5
86A3
  8
0
 10
295.0517735181600187
 20
275.3309366247726189
 30
0.0
 40
0.1524406530135032
 50
208.9078760298858128
 51
216.0173336471617915
  0
ARC
  5
86A4
  8
0
 10
294.9468258433280994
 20
275.2554455861948099
 30
0.0
 40
0.0231760039870076
 50
217.2983812376911033
 51
232.074392951480803
  0
ARC
  5
86A5
  8
0
 10
294.9397618930761951
 20
275.2467997771129262
 30
0.0
 40
0.012017108495903
 50
233.3049332238065858
 51
267.4665874261092995
  0
ARC
  5
86A6
  8
0
 10
294.9398650612704955
 20
275.2477085621288211
 30
0.0
 40
0.012929718501845
 50
267.1878681595010221
 51
291.7912163976394027
  0
ARC
  5
86A7
  8
0
 10
294.8917556753492022
 20
275.3127378036602977
 30
0.0
 40
0.0072174045403166
 50
126.9765699105763019
 51
202.8040751195663915
  0
ARC
  5
86A8
  8
0
 10
294.9164805547384276
 20
275.2638379005999809
 30
0.0
 40
0.0070373272807896
 50
209.9507222443180865
 51
286.0201179933484923
  0
ARC
  5
86A9
  8
0
 10
294.8794779088643168
 20
275.3383231987996851
 30
0.0
 40
0.0078740158719273
 50
118.1546626577973029
 51
206.9999974212234974
  0
ARC
  5
86AA
  8
0
 10
294.9313890553196984
 20
275.237131037927611
 30
0.0
 40
0.0085201003303908
 50
190.9235766143038973
 51
293.8272280790200739
  0
ARC
  5
86AB
  8
0
 10
294.8113701865834173
 20
275.4719921300944065
 30
0.0
 40
0.0078740157975002
 50
118.1546628893463975
 51
206.9999950705588958
  0
ARC
  5
86AC
  8
0
 10
294.8619314094393076
 20
275.3727601430696836
 30
0.0
 40
0.007874015926898
 50
207.000003053814396
 51
295.8453371879105021
  0
ARC
  5
86AD
  8
0
 10
294.823839652993513
 20
275.446443693144488
 30
0.0
 40
0.0074085538587501
 50
114.2848222158634002
 51
202.4929471732278046
  0
ARC
  5
86AE
  8
0
 10
294.8485916201341865
 20
275.3978649992826035
 30
0.0
 40
0.0074084438900957
 50
211.5062288916334978
 51
299.7160026195639944
  0
ARC
  5
86AF
  8
0
 10
303.8636751656678143
 20
280.1725219195355976
 30
0.0
 40
10.1535634200545406
 50
207.3934995967368025
 51
207.5955779017862142
  0
ARC
  5
86B0
  8
0
 10
293.955901406332714
 20
274.9843355854964102
 30
0.0
 40
1.0304380085152669
 50
24.51480491376849
 51
28.043136089642779
  0
ARC
  5
86B1
  8
0
 10
294.5635983492779815
 20
275.2452688607963864
 30
0.0
 40
0.3695479071039074
 50
22.2472980786388703
 51
26.8006642086315985
  0
ARC
  5
86B2
  8
0
 10
294.1364696176489133
 20
274.8950755281748002
 30
0.0
 40
0.9310904871447835
 50
22.8597929631552503
 51
31.1912745774956015
  0
ARC
  5
86B3
  8
0
 10
294.8369162882315209
 20
275.2524106422192745
 30
0.0
 40
0.2578349048946496
 50
11.3233482221464197
 51
42.6963608253863285
  0
ARC
  5
86B4
  8
0
 10
295.0703832058111971
 20
275.3714161311787052
 30
0.0
 40
0.131717081297617
 50
354.4264439471410242
 51
59.5743765784122772
  0
ARC
  5
86B5
  8
0
 10
294.4111124749998112
 20
274.8936389202543751
 30
0.0
 40
0.665203961873915
 50
27.2916366223489888
 51
30.3911586565304894
  0
ARC
  5
86B6
  8
0
 10
293.7072483378714765
 20
274.4879173981404961
 30
0.0
 40
1.477232526110734
 50
26.290395032489041
 51
28.7587817657731009
  0
ARC
  5
86B7
  8
0
 10
294.5955160075257027
 20
274.9109850188327187
 30
0.0
 40
0.4936633192537978
 50
25.9249764105655487
 51
27.9301795807558904
  0
ARC
  5
86B8
  8
0
 10
295.064461267691911
 20
275.1279159115188122
 30
0.0
 40
0.0249850387346494
 50
122.1485855371951033
 51
182.5332315657637992
  0
ARC
  5
86B9
  8
0
 10
295.0527078820596785
 20
275.1458182762806928
 30
0.0
 40
0.0035986490958059
 50
66.1510990979772515
 51
115.3644801801412996
  0
ARC
  5
86BA
  8
0
 10
295.0343872012932138
 20
275.1116252855420043
 30
0.0
 40
0.0423810871825486
 50
41.6151978797451534
 51
62.1851201013596295
  0
ARC
  5
86BB
  8
0
 10
294.6524600898263202
 20
274.7975110426979199
 30
0.0
 40
0.5368587315182093
 50
19.0750358537810811
 51
39.6074702556821805
  0
ARC
  5
86BC
  8
0
 10
295.1244073306010023
 20
274.9608275130578932
 30
0.0
 40
0.0374528022829556
 50
353.8054695859714229
 51
18.9010484974149193
  0
ARC
  5
86BD
  8
0
 10
295.1568322956806014
 20
274.9581589355893811
 30
0.0
 40
0.0050012455244003
 50
274.4526831643814262
 51
344.0689153725401752
  0
ARC
  5
86BE
  8
0
 10
295.1503343816594906
 20
274.9804396833483224
 30
0.0
 40
0.0281230040950951
 50
229.1057676499727904
 51
284.1735410634861978
  0
ARC
  5
86BF
  8
0
 10
295.2147306643174147
 20
275.0604412779571248
 30
0.0
 40
0.1308079549774903
 50
217.4259799865315017
 51
230.7248075886606955
  0
ARC
  5
86C0
  8
0
 10
295.5016984317413744
 20
275.2756627431693914
 30
0.0
 40
0.4895105245102233
 50
201.8488346667859901
 51
217.0180845898944995
  0
ARC
  5
86C1
  8
0
 10
295.133753882073222
 20
275.1314253403998009
 30
0.0
 40
0.0943660913129608
 50
182.8024172666142135
 51
203.7053973967408069
  0
ARC
  5
86C2
  8
0
 10
295.0699217211127916
 20
275.0750380062045224
 30
0.0
 40
0.0022903645092161
 50
58.2738770473199708
 51
110.5681967236476027
  0
ARC
  5
86C3
  8
0
 10
295.037024296375705
 20
275.0315922058957767
 30
0.0
 40
0.0567762539016347
 50
32.6266342018882511
 51
53.0845731344478935
  0
ARC
  5
86C4
  8
0
 10
294.9198172385238763
 20
274.9464857127741766
 30
0.0
 40
0.2015530770529442
 50
27.428645662568659
 51
35.0388821701843867
  0
ARC
  5
86C5
  8
0
 10
294.978050559570022
 20
274.9749101374371207
 30
0.0
 40
0.1367818224689121
 50
19.3420018377347702
 51
28.0970794658345397
  0
ARC
  5
86C6
  8
0
 10
295.0682512695053106
 20
275.0065727436785892
 30
0.0
 40
0.0411853334849591
 50
10.0466454689936704
 51
19.3413256076144613
  0
ARC
  5
86C7
  8
0
 10
295.0971978707112839
 20
275.0114988311826778
 30
0.0
 40
0.0118249201164454
 50
355.8987987130727788
 51
11.01178446665058
  0
ARC
  5
86C8
  8
0
 10
295.1053217440008893
 20
275.0108717882877158
 30
0.0
 40
0.0036772731165714
 50
335.6906188196201128
 51
356.5910994939695229
  0
ARC
  5
86C9
  8
0
 10
295.1073533048668196
 20
275.0098891683052216
 30
0.0
 40
0.0014225614196333
 50
271.2326089524481176
 51
338.0748473664448852
  0
ARC
  5
86CA
  8
0
 10
295.108151680444621
 20
275.0143505802219011
 30
0.0
 40
0.0059335266685002
 50
230.114917285864891
 51
262.5653517027067778
  0
ARC
  5
86CB
  8
0
 10
295.2080456335631879
 20
275.1095109540652857
 30
0.0
 40
0.1438617414383914
 50
207.2676140239273082
 51
223.8775440623788882
  0
ARC
  5
86CC
  8
0
 10
295.1891989492607991
 20
275.1062404994584085
 30
0.0
 40
0.1257415322003513
 50
197.1846409340535047
 51
209.8783396859971049
  0
ARC
  5
86CD
  8
0
 10
295.0850687148811176
 20
275.0745609076707865
 30
0.0
 40
0.0169075231750041
 50
177.065831281723888
 51
198.8797609977854961
  0
ARC
  5
86CE
  8
0
 10
295.0704456347465907
 20
275.0753496997498928
 30
0.0
 40
0.0022635765473324
 50
125.9397088722090956
 51
178.0587234516623028
  0
ARC
  5
86CF
  8
0
 10
295.0395262751561063
 20
275.0878284146714918
 30
0.0
 40
0.000742244299016
 50
62.5974164884577391
 51
115.2272367830533
  0
ARC
  5
86D0
  8
0
 10
295.023046939647827
 20
275.0662784771391784
 30
0.0
 40
0.0278599959193842
 50
32.3356983956780368
 51
52.8598324558668793
  0
ARC
  5
86D1
  8
0
 10
294.8371648348668828
 20
274.9298283937640122
 30
0.0
 40
0.2583889829567665
 50
32.0992362756628467
 51
35.8561176921015203
  0
ARC
  5
86D2
  8
0
 10
294.5712824379227754
 20
274.7622325902902958
 30
0.0
 40
0.5726843668220689
 50
30.1158242096556705
 51
32.1681432157421483
  0
ARC
  5
86D3
  8
0
 10
294.4582300871705911
 20
274.6967841338437779
 30
0.0
 40
0.7033148554899816
 50
27.0469004975931
 51
30.1068450337211608
  0
ARC
  5
86D4
  8
0
 10
294.7503035432142724
 20
274.8436620458912216
 30
0.0
 40
0.3764011532523367
 50
22.7334495330463113
 51
27.3508856056511114
  0
ARC
  5
86D5
  8
0
 10
295.0313891804876789
 20
274.9614424489191151
 30
0.0
 40
0.0716367219161519
 50
14.4420719923887493
 51
22.7283792807660383
  0
ARC
  5
86D6
  8
0
 10
295.0969413546283135
 20
274.9781635729036111
 30
0.0
 40
0.0039887650532012
 50
334.8651301819202786
 51
16.6840403545624305
  0
ARC
  5
86D7
  8
0
 10
295.0955038039199962
 20
274.988357333982492
 30
0.0
 40
0.0129156070796734
 50
234.0507234042740095
 51
293.0100809983886165
  0
ARC
  5
86D8
  8
0
 10
295.1764040901106796
 20
275.0662156323626846
 30
0.0
 40
0.1250141294621874
 50
210.7525429944315079
 51
224.9453360839079892
  0
ARC
  5
86D9
  8
0
 10
295.6723201935353131
 20
275.3697056420530771
 30
0.0
 40
0.7064173447992914
 50
206.3456482908991063
 51
211.3395271411629892
  0
ARC
  5
86DA
  8
0
 10
295.0786179761259973
 20
275.078271623813805
 30
0.0
 40
0.045106302279191
 50
176.3208390593015054
 51
209.2845278469768004
  0
ARC
  5
86DB
  8
0
 10
295.0467236251951135
 20
275.0769480960295255
 30
0.0
 40
0.0137803891443481
 50
123.0414733170205039
 51
162.1765499232967045
  0
ARC
  5
86DC
  8
0
 10
294.9183353320897254
 20
274.9620897180420229
 30
0.0
 40
0.2932125091297327
 50
23.8906141604534099
 51
49.2575089136509021
  0
ARC
  5
86DD
  8
0
 10
294.8966091325817729
 20
274.9095179413649248
 30
0.0
 40
0.3366663213451267
 50
12.4233152018986708
 51
30.5887981976353807
  0
ARC
  5
86DE
  8
0
 10
294.9489448805007896
 20
275.2019865905693905
 30
0.0
 40
0.0078740159158925
 50
118.1546627720335039
 51
206.9999991799809891
  0
ARC
  5
86DF
  8
0
 10
294.9615445514803014
 20
275.1763865728074734
 30
0.0
 40
0.0075097526886225
 50
115.0284861955710056
 51
201.7492821605929976
  0
ARC
  5
86E0
  8
0
 10
294.9861663139515144
 20
275.1278594597674783
 30
0.0
 40
0.0074084437816247
 50
211.5062284537239066
 51
299.7160029447600778
  0
ARC
  5
86E1
  8
0
 10
294.9995061032855119
 20
275.1027546036074227
 30
0.0
 40
0.007874015850621
 50
207.0000028282082951
 51
295.8453370833792064
  0
ARC
  5
86E2
  8
0
 10
295.0169897723739041
 20
275.0683696999063272
 30
0.0
 40
0.0077985471190983
 50
117.9280766358989041
 51
203.2470414459990025
  0
ARC
  5
86E3
  8
0
 10
295.0295220691259033
 20
275.0427692224293992
 30
0.0
 40
0.0074085538446671
 50
114.2848216914736952
 51
202.4929462553486985
  0
ARC
  5
86E4
  8
0
 10
295.0542740361509004
 20
274.9941905283233723
 30
0.0
 40
0.0074084436194808
 50
211.5062282797238993
 51
299.7160045560775075
  0
ARC
  5
86E5
  8
0
 10
295.0682959913769992
 20
274.9679883767335014
 30
0.0
 40
0.0080864774604118
 50
197.8539092430899018
 51
295.0984721582418047
  0
ARC
  5
86E6
  8
0
 10
295.1642788196585911
 20
274.7999247963523999
 30
0.0
 40
0.0118667533648288
 50
121.8848046506188041
 51
182.3199762748251089
  0
ARC
  5
86E7
  8
0
 10
295.1846813877585873
 20
274.8046179843846062
 30
0.0
 40
0.0326823534794226
 50
189.2647337779280861
 51
211.693734090612196
  0
ARC
  5
86E8
  8
0
 10
296.205932256316089
 20
275.3471196915617156
 30
0.0
 40
1.1889884939520301
 50
208.079866312240199
 51
212.0332730663182019
  0
ARC
  5
86E9
  8
0
 10
295.316721458465679
 20
274.7884410554303827
 30
0.0
 40
0.1388530054775853
 50
211.2217762806724863
 51
218.3849783643624107
  0
ARC
  5
86EA
  8
0
 10
295.2168857428815727
 20
274.7103995392267279
 30
0.0
 40
0.0121714945059022
 50
220.5648615099692051
 51
293.3413229545769241
  0
ARC
  5
86EB
  8
0
 10
295.2126905933706098
 20
274.6979249539551233
 30
0.0
 40
0.0091107087120781
 50
8.1981835637385227
 51
31.668836591213541
  0
ARC
  5
86EC
  8
0
 10
294.9496402026852024
 20
274.5719539315658153
 30
0.0
 40
0.3007187007006487
 50
25.7729344062403882
 51
28.8724098745640596
  0
ARC
  5
86ED
  8
0
 10
293.5346234172171762
 20
273.8011341073193989
 30
0.0
 40
1.912061307513591
 50
28.6251534548491193
 51
30.478101061508319
  0
ARC
  5
86EE
  8
0
 10
294.8309102128887957
 20
274.577836044527487
 30
0.0
 40
0.4011175105689446
 50
28.7792868290772788
 51
35.365870087394768
  0
ARC
  5
86EF
  8
0
 10
295.167056883915393
 20
274.7714869602676231
 30
0.0
 40
0.0000887425462533
 50
56.1189068240800282
 51
103.2484146692109022
  0
ARC
  5
86F0
  8
0
 10
295.1648871424673075
 20
274.7690460170622941
 30
0.0
 40
0.0033538341256015
 50
36.2041400658576009
 51
48.5707988582627621
  0
ARC
  5
86F1
  8
0
 10
295.1118714982790152
 20
274.7300756231447849
 30
0.0
 40
0.0691516250652189
 50
31.5710581954560716
 51
36.3130674268212417
  0
ARC
  5
86F2
  8
0
 10
294.7129660922150265
 20
274.477683065607323
 30
0.0
 40
0.5411925497071058
 50
30.3827836652878389
 51
32.2261032520253821
  0
ARC
  5
86F3
  8
0
 10
294.6000750067721015
 20
274.4091283821198886
 30
0.0
 40
0.6732561285262212
 50
28.9553956403569188
 51
30.5565901642870017
  0
ARC
  5
86F4
  8
0
 10
295.026982489922716
 20
274.6464251558019782
 30
0.0
 40
0.1848337394263566
 50
27.2026226117353396
 51
28.6591022710767689
  0
ARC
  5
86F5
  8
0
 10
295.1346712458553156
 20
274.7015524431890867
 30
0.0
 40
0.0638553461133819
 50
25.0071977276838204
 51
27.3809406754235809
  0
ARC
  5
86F6
  8
0
 10
295.1831085770140817
 20
274.7243797841048263
 30
0.0
 40
0.0103111042671971
 50
19.4618243613781914
 51
23.8325976532506907
  0
ARC
  5
86F7
  8
0
 10
295.1937694036294033
 20
274.7286209405119166
 30
0.0
 40
0.0015363439799958
 50
220.5155274585519862
 51
233.4655573538852877
  0
ARC
  5
86F8
  8
0
 10
295.1928874405156762
 20
274.7274372797317028
 30
0.0
 40
0.0000603694523457
 50
237.2802543721730899
 51
319.8401050394807044
  0
ARC
  5
86F9
  8
0
 10
295.1928105968733007
 20
274.7274653000122271
 30
0.0
 40
0.000140025419843
 50
331.4349968864196967
 51
26.4229749600841188
  0
ARC
  5
86FA
  8
0
 10
295.1722565973676069
 20
274.7201088092459145
 30
0.0
 40
0.0219698900880604
 50
19.7356143905136605
 51
20.5345218869827804
  0
ARC
  5
86FB
  8
0
 10
295.6424848671954919
 20
275.0221407047367848
 30
0.0
 40
0.5377135629146151
 50
208.4711472615132948
 51
213.2109118434981099
  0
ARC
  5
86FC
  8
0
 10
295.2282156943854829
 20
274.7990501332923827
 30
0.0
 40
0.0672105068969859
 50
205.6354109511925117
 51
209.647164394285511
  0
ARC
  5
86FD
  8
0
 10
295.1866086113990946
 20
274.7787286582412207
 30
0.0
 40
0.0209095103389339
 50
200.7444766769123135
 51
204.7581844273890113
  0
ARC
  5
86FE
  8
0
 10
295.1675588262481824
 20
274.7715796407724156
 30
0.0
 40
0.0005659430475417
 50
190.7964913093352948
 51
207.0247644532400102
  0
ARC
  5
86FF
  8
0
 10
295.1670859327151106
 20
274.7715011441079014
 30
0.0
 40
0.0000874722197487
 50
124.3740593832673937
 51
198.3347121185485946
  0
ARC
  5
8700
  8
0
 10
295.1749308685542132
 20
274.8175797113927956
 30
0.0
 40
0.0009102215745353
 50
44.5174956771940202
 51
102.2164228341750061
  0
ARC
  5
8701
  8
0
 10
294.7017713580564759
 20
274.4617274069793211
 30
0.0
 40
0.5929418106114209
 50
28.1567077102556809
 51
36.9575668280453726
  0
ARC
  5
8702
  8
0
 10
294.7671430260298848
 20
274.4921114260363879
 30
0.0
 40
0.5209842705257878
 50
27.0345798639109915
 51
28.6031581917736411
  0
ARC
  5
8703
  8
0
 10
295.1813110099790833
 20
274.8081012496168114
 30
0.0
 40
0.0122740408444197
 50
122.4353875543334027
 51
158.7087545846501939
  0
ARC
  5
8704
  8
0
 10
295.1847629278026943
 20
274.8073031077245787
 30
0.0
 40
0.0157854452477542
 50
160.2353885308868087
 51
204.7808281828085057
  0
ARC
  5
8705
  8
0
 10
295.3888272965588726
 20
274.8913087629458118
 30
0.0
 40
0.2364514514596006
 50
202.5356864540059121
 51
209.7550667970546101
  0
ARC
  5
8706
  8
0
 10
295.4107551006952121
 20
274.8847855445122264
 30
0.0
 40
0.2527928115112278
 50
206.0022627519880984
 51
215.830151419180595
  0
ARC
  5
8707
  8
0
 10
295.3672787823953172
 20
274.8355708354450826
 30
0.0
 40
0.1892217460019387
 50
211.4511627171131067
 51
220.3519863877664022
  0
ARC
  5
8708
  8
0
 10
295.2354578025019123
 20
274.7230363849388937
 30
0.0
 40
0.0159047380019306
 50
218.8793420049723011
 51
259.2875015566706907
  0
ARC
  5
8709
  8
0
 10
295.234381883426579
 20
274.7195289946322987
 30
0.0
 40
0.0122651760886842
 50
261.1807573864707024
 51
293.9258724570603931
  0
ARC
  5
870A
  8
0
 10
295.0604153106143031
 20
274.6399849905214978
 30
0.0
 40
0.1925509763274319
 50
22.6232486790009517
 51
27.50614438033627
  0
ARC
  5
870B
  8
0
 10
295.2132156317657063
 20
274.7035985278445764
 30
0.0
 40
0.0270378483453592
 50
12.9885262719569408
 51
22.7481498362782695
  0
ARC
  5
870C
  8
0
 10
295.2391294903525818
 20
274.7087133151742933
 30
0.0
 40
0.0004558632703732
 50
299.8053376729498041
 51
352.7295273164631908
  0
ARC
  5
870D
  8
0
 10
295.237167107648304
 20
274.7091184498901839
 30
0.0
 40
0.0024585377451487
 50
349.1491828603686827
 51
13.0943497350053804
  0
ARC
  5
870E
  8
0
 10
295.1839056412592868
 20
274.7788854437686723
 30
0.0
 40
0.0012561271586111
 50
39.781895316845457
 51
86.8644214332599915
  0
ARC
  5
870F
  8
0
 10
295.18482380614779
 20
274.7797005970585928
 30
0.0
 40
0.0009477869440017
 50
151.6792005952902969
 51
202.7679359255855047
  0
ARC
  5
8710
  8
0
 10
295.2902920028607809
 20
274.8215897264552154
 30
0.0
 40
0.1144299437962397
 50
201.6708054632291862
 51
211.0438088079282011
  0
ARC
  5
8711
  8
0
 10
295.4461382082099021
 20
274.907355339410401
 30
0.0
 40
0.2922647157819611
 50
209.6935192761733049
 51
213.5962866274859095
  0
ARC
  5
8712
  8
0
 10
295.0950498598580793
 20
274.7040822147690164
 30
0.0
 40
0.1174063261234844
 50
30.1902070647517498
 51
40.0890237784937966
  0
ARC
  5
8713
  8
0
 10
294.9554078436784152
 20
274.6126782988599189
 30
0.0
 40
0.284207667811946
 50
28.350247066324691
 51
31.9613019076239304
  0
ARC
  5
8714
  8
0
 10
295.2781390104694879
 20
274.7947577681359235
 30
0.0
 40
0.090027938388947
 50
213.0688889608802015
 51
219.1350793093569962
  0
ARC
  5
8715
  8
0
 10
295.1001714266470799
 20
274.6905475302700097
 30
0.0
 40
0.1198300392132527
 50
24.6596218387341217
 51
28.4519807229770905
  0
ARC
  5
8716
  8
0
 10
295.2166184083836242
 20
274.7447752821324798
 30
0.0
 40
0.0107625366296861
 50
219.4510758247363071
 51
230.0595659488031117
  0
ARC
  5
8717
  8
0
 10
295.2102236705363225
 20
274.7369690905410948
 30
0.0
 40
0.0006807844817604
 50
220.8823862171024075
 51
264.6180751681117158
  0
ARC
  5
8718
  8
0
 10
295.1826449545220044
 20
274.7284469069028887
 30
0.0
 40
0.0290652823394765
 50
19.5382900671610891
 51
24.5947930294289883
  0
ARC
  5
8719
  8
0
 10
295.2014993017468214
 20
274.7351162909616846
 30
0.0
 40
0.0090661378579139
 50
11.5123430783452605
 51
19.6661862216420111
  0
ARC
  5
871A
  8
0
 10
295.2094288964011071
 20
274.7367049509387016
 30
0.0
 40
0.0009793517473217
 50
344.9395310991824886
 51
13.0267105801325709
  0
ARC
  5
871B
  8
0
 10
295.2101722819134011
 20
274.7364989974607283
 30
0.0
 40
0.0002080639572192
 50
266.5653733267532743
 51
346.5147063140187242
  0
ARC
  5
871C
  8
0
 10
294.5534397591914058
 20
274.3649905989882996
 30
0.0
 40
0.8227818649390019
 50
26.4130803777289884
 51
35.8550548186531586
  0
ARC
  5
871D
  8
0
 10
295.1740318770848717
 20
274.7178332323289851
 30
0.0
 40
0.2363582200513474
 50
16.8808428662073311
 51
51.4894585949130814
  0
ARC
  5
871E
  8
0
 10
295.2686061104976716
 20
274.8506995208721264
 30
0.0
 40
0.0172200226512573
 50
33.4329469746033894
 51
93.8245899245683859
  0
ARC
  5
871F
  8
0
 10
295.1061459964868163
 20
274.6855998863968011
 30
0.0
 40
0.2484950786308556
 50
25.4169518345648804
 51
44.6342082142648877
  0
ARC
  5
8720
  8
0
 10
295.278177585517426
 20
274.7616502677443009
 30
0.0
 40
0.0606923475456314
 50
1.8480512580261701
 51
30.2817695776309712
  0
ARC
  5
8721
  8
0
 10
295.3339477632947023
 20
274.7635992142432997
 30
0.0
 40
0.00489060870179
 50
299.8726563820058004
 51
0.0974752668835969
  0
ARC
  5
8722
  8
0
 10
295.3293829662507051
 20
274.7780263493510233
 30
0.0
 40
0.0199374525597429
 50
233.676396900512799
 51
290.5551194588858266
  0
ARC
  5
8723
  8
0
 10
295.4290252340380789
 20
274.8999913192702138
 30
0.0
 40
0.1774073753891971
 50
201.5856696018888954
 51
231.0805537317010874
  0
ARC
  5
8724
  8
0
 10
295.2878789903336951
 20
274.849038128677023
 30
0.0
 40
0.0277891473926138
 50
137.3138489776532083
 51
211.0026296256046123
  0
ARC
  5
8725
  8
0
 10
295.2790448404151107
 20
274.8268642853967094
 30
0.0
 40
0.0033523354171688
 50
54.6498923657054618
 51
113.9484056221153025
  0
ARC
  5
8726
  8
0
 10
295.2336950312349018
 20
274.7682684660529162
 30
0.0
 40
0.0774445927341223
 50
26.5733655066626184
 51
52.3655072571053282
  0
ARC
  5
8727
  8
0
 10
295.2572102721748024
 20
274.7789506076151724
 30
0.0
 40
0.0516438921429705
 50
18.1498592694086014
 51
27.6447948104010699
  0
ARC
  5
8728
  8
0
 10
295.293557688957776
 20
274.7900703803459237
 30
0.0
 40
0.0136620162526571
 50
356.1024812975398959
 51
21.3212732623519301
  0
ARC
  5
8729
  8
0
 10
295.3050250395185117
 20
274.7923600453461859
 30
0.0
 40
0.0053724196597762
 50
230.483889006075799
 51
279.6053148023556787
  0
ARC
  5
872A
  8
0
 10
295.3048341211572847
 20
274.7891507611655015
 30
0.0
 40
0.0023540041300453
 50
297.5110665994474175
 51
359.7805395625779852
  0
ARC
  5
872B
  8
0
 10
295.2798047154785763
 20
274.8276050684443135
 30
0.0
 40
0.0031453468999366
 50
132.3930804551079916
 51
186.8236903516794882
  0
ARC
  5
872C
  8
0
 10
295.337356183719578
 20
274.840498516856087
 30
0.0
 40
0.0621081054530291
 50
192.3342268740360907
 51
217.5376776107929118
  0
ARC
  5
872D
  8
0
 10
295.3327465096459719
 20
274.830853368077328
 30
0.0
 40
0.0527984922163153
 50
212.2785217959921056
 51
233.8580376478431901
  0
ARC
  5
872E
  8
0
 10
295.1366615449800861
 20
274.3876662343374733
 30
0.0
 40
0.3456989824616868
 50
38.2994426325308268
 51
46.829072051790142
  0
ARC
  5
872F
  8
0
 10
295.2228938955647095
 20
274.3313572690266824
 30
0.0
 40
0.3083990692254963
 50
22.5351927397294283
 51
32.1952214437004187
  0
ARC
  5
8730
  8
0
 10
295.2756602672308759
 20
274.4058107339498065
 30
0.0
 40
0.2871678310630504
 50
23.3748517208913
 51
51.8710408969906567
  0
ARC
  5
8731
  8
0
 10
295.3991137810249938
 20
274.5748623332049192
 30
0.0
 40
0.0231300457207227
 50
41.7415179192923205
 51
83.3578768506076955
  0
ARC
  5
8732
  8
0
 10
295.2188433442257747
 20
274.3860132377548098
 30
0.0
 40
0.2841393027173847
 50
27.7929409264469314
 51
45.9581295285433811
  0
ARC
  5
8733
  8
0
 10
295.4476676904380952
 20
274.499709165353579
 30
0.0
 40
0.0293430580816412
 50
345.3263438597942923
 51
39.8231406253978335
  0
ARC
  5
8734
  8
0
 10
295.410962061866428
 20
274.5849173574944189
 30
0.0
 40
0.0158449484549982
 50
125.374307570096704
 51
180.7756914204784096
  0
ARC
  5
8735
  8
0
 10
295.4592921884574821
 20
274.5916170444967861
 30
0.0
 40
0.0645450229034476
 50
186.1494408029780914
 51
211.8407667728550052
  0
ARC
  5
8736
  8
0
 10
295.6033925556995996
 20
274.6677164567944942
 30
0.0
 40
0.2273924773830017
 50
208.9737146205972067
 51
225.8691954633819137
  0
ARC
  5
8737
  8
0
 10
295.4850169111260811
 20
274.544142464812694
 30
0.0
 40
0.0562825382282638
 50
224.7696235618452079
 51
247.2896664344376063
  0
ARC
  5
8738
  8
0
 10
295.469606435600781
 20
274.5078611329985847
 30
0.0
 40
0.0168658821077442
 50
247.9978397999144875
 51
292.4741735044535176
  0
ARC
  5
8739
  8
0
 10
295.4145084442096163
 20
274.5555988122292206
 30
0.0
 40
0.0050970411094048
 50
45.0925953006835485
 51
104.7211001476695031
  0
ARC
  5
873A
  8
0
 10
295.415621862830676
 20
274.5586755851762746
 30
0.0
 40
0.0030389187842426
 50
142.42920974711231
 51
200.8847570189327882
  0
ARC
  5
873B
  8
0
 10
295.4646603699382013
 20
274.573205574711892
 30
0.0
 40
0.0541763679150346
 50
196.7498950678844949
 51
216.7087667731310887
  0
ARC
  5
873C
  8
0
 10
295.4955629404228716
 20
274.5889579082074761
 30
0.0
 40
0.0885593952614135
 50
212.925384617889506
 51
228.0383795056013128
  0
ARC
  5
873D
  8
0
 10
295.3628599349653996
 20
274.4899612560416244
 30
0.0
 40
0.0885857362583563
 50
31.7645771094517286
 51
51.4165509946821118
  0
ARC
  5
873E
  8
0
 10
295.3851271771906113
 20
274.5014421299669038
 30
0.0
 40
0.0636400569658273
 50
22.5045171124301717
 51
33.5302792854471292
  0
ARC
  5
873F
  8
0
 10
295.4520102899959966
 20
274.539947971917627
 30
0.0
 40
0.0229984406612289
 50
227.0811724806754057
 51
241.7974706381448016
  0
ARC
  5
8740
  8
0
 10
295.4259390231740099
 20
274.5186263346955116
 30
0.0
 40
0.0193603716088404
 50
12.8305245096200302
 51
21.7509441128043193
  0
ARC
  5
8741
  8
0
 10
295.4391005483948902
 20
274.5213800564288249
 30
0.0
 40
0.0059207376147987
 50
347.4560690126143072
 51
15.1322575487501592
  0
ARC
  5
8742
  8
0
 10
295.44353166771009
 20
274.5238612926096948
 30
0.0
 40
0.0048163847819263
 50
240.2467996732769961
 51
271.5778753590872725
  0
ARC
  5
8743
  8
0
 10
295.4434835200466978
 20
274.5204857246754955
 30
0.0
 40
0.0014503005382201
 50
277.1601439769343074
 51
344.3356942495582871
  0
ARC
  5
8744
  8
0
 10
295.3242338198975858
 20
274.6068214182296856
 30
0.0
 40
0.0031228309957334
 50
60.2329835076100082
 51
108.6037072237791961
  0
ARC
  5
8745
  8
0
 10
295.2512468766930169
 20
274.5082658472779826
 30
0.0
 40
0.1257405651991457
 50
36.1338936287422072
 51
53.644980841853851
  0
ARC
  5
8746
  8
0
 10
294.6965287172744752
 20
274.0481311953078034
 30
0.0
 40
0.8462552573715724
 50
28.8713481923447013
 51
39.1495634651749285
  0
ARC
  5
8747
  8
0
 10
295.3167257188890176
 20
274.3896758798514952
 30
0.0
 40
0.1382324664864165
 50
17.8752242690349803
 51
29.0230384805683315
  0
ARC
  5
8748
  8
0
 10
295.4462788864536265
 20
274.4264803388347218
 30
0.0
 40
0.0028291972968265
 50
303.7514724605272818
 51
0.9851723821420314
  0
ARC
  5
8749
  8
0
 10
295.4314564690840825
 20
274.4267750794970198
 30
0.0
 40
0.01765291192804
 50
359.2012228281967054
 51
17.5757230859106492
  0
ARC
  5
874A
  8
0
 10
295.3301467035976771
 20
274.5983089154320282
 30
0.0
 40
0.0133920321191606
 50
121.0585394391125931
 51
150.5896346771448862
  0
ARC
  5
874B
  8
0
 10
295.3340975282005161
 20
274.5968634180895265
 30
0.0
 40
0.0175567301791129
 50
152.8122478337957091
 51
193.2828406905190946
  0
ARC
  5
874C
  8
0
 10
295.4373665115876975
 20
274.625345839387478
 30
0.0
 40
0.1246710837850826
 50
195.1184918691571966
 51
210.7663395276373137
  0
ARC
  5
874D
  8
0
 10
295.8531707212594029
 20
274.8426924636876834
 30
0.0
 40
0.5937033906662423
 50
208.261958406004311
 51
223.8753927338545964
  0
ARC
  5
874E
  8
0
 10
295.4659509145134848
 20
274.4796176991890206
 30
0.0
 40
0.0632832308860343
 50
229.9137608870767906
 51
236.558219129078708
  0
ARC
  5
874F
  8
0
 10
295.4433145988672891
 20
274.4442419010943013
 30
0.0
 40
0.0212980322929253
 50
234.926563317416111
 51
264.4409143614356026
  0
ARC
  5
8750
  8
0
 10
295.4419209469392058
 20
274.4395989496736092
 30
0.0
 40
0.0165684460558201
 50
267.684025844513485
 51
290.9711760495878252
  0
ARC
  5
8751
  8
0
 10
295.3527196754611737
 20
274.5418918842170228
 30
0.0
 40
0.0022317152669357
 50
49.0352655889952018
 51
100.8493480066352959
  0
ARC
  5
8752
  8
0
 10
295.3535369174093148
 20
274.5429167558037875
 30
0.0
 40
0.0017007995457644
 50
136.6762337111034071
 51
198.5411416065321077
  0
ARC
  5
8753
  8
0
 10
295.303806512896017
 20
274.4819267721264282
 30
0.0
 40
0.0796148763255295
 50
36.9142785531087227
 51
50.7467416497678698
  0
ARC
  5
8754
  8
0
 10
295.4477765978393222
 20
274.5756146180344786
 30
0.0
 40
0.1014517376013437
 50
199.1250244236090055
 51
209.5033867907978049
  0
ARC
  5
8755
  8
0
 10
295.1526272909528075
 20
274.3567372393795836
 30
0.0
 40
0.2758357905248888
 50
29.0819155631029105
 51
38.8447969573868832
  0
ARC
  5
8756
  8
0
 10
295.6153273144116724
 20
274.6807342936334067
 30
0.0
 40
0.2991790108048989
 50
211.2222379829196086
 51
220.6863436083436909
  0
ARC
  5
8757
  8
0
 10
295.4262331156680261
 20
274.5190904616563898
 30
0.0
 40
0.0504172204713065
 50
221.4830002726610019
 51
230.3208722564471884
  0
ARC
  5
8758
  8
0
 10
295.3419866476129982
 20
274.4624951728803239
 30
0.0
 40
0.058946385285529
 50
20.4024567928980893
 51
28.7080359837762913
  0
ARC
  5
8759
  8
0
 10
295.3994654351810141
 20
274.4863256263532207
 30
0.0
 40
0.0081157777555137
 50
228.0705563819498991
 51
248.9933144368960996
  0
ARC
  5
875A
  8
0
 10
295.3863849469271941
 20
274.4788255021186956
 30
0.0
 40
0.0116416393729485
 50
7.5720688647974139
 51
21.2485692209613006
  0
ARC
  5
875B
  8
0
 10
295.3970291068159213
 20
274.479780747948098
 30
0.0
 40
0.0011347862436236
 50
245.3666427326400026
 51
293.2871240473306216
  0
ARC
  5
875C
  8
0
 10
295.3953170191047093
 20
274.4799278767533224
 30
0.0
 40
0.0026435351295615
 50
343.5402753330670862
 51
9.3983112871990073
  0
ARC
  5
875D
  8
0
 10
295.3971214853420975
 20
274.4794207301782194
 30
0.0
 40
0.0007697252904986
 50
297.5694436728887808
 51
341.6852496529457994
  0
ARC
  5
875E
  8
0
 10
295.3170308533954085
 20
274.5381659813000965
 30
0.0
 40
0.0125952550127456
 50
123.0008106930634
 51
212.7887382502318872
  0
ARC
  5
875F
  8
0
 10
297.5767096102849223
 20
275.9641725533012959
 30
0.0
 40
2.6846057184940011
 50
212.2571384648238961
 51
214.523719499670392
  0
ARC
  5
8760
  8
0
 10
295.3732005775809739
 20
274.4512036184773933
 30
0.0
 40
0.0119081997882134
 50
225.7114683205757046
 51
294.5018444752315077
  0
LINE
  5
8761
  8
0
 10
295.3101708363976741
 20
274.5487291539120065
 30
0.0
 11
295.3781391763972124
 21
274.4403677768428906
 31
0.0
  0
LINE
  5
8762
  8
0
 10
295.3931966254792201
 20
274.4467551735842221
 30
0.0
 11
295.4083740483292218
 21
274.4309229374841834
 31
0.0
  0
LINE
  5
8763
  8
0
 10
295.4083740483292218
 20
274.4309229374841834
 30
0.0
 11
295.4112921541791934
 21
274.4283613119342249
 31
0.0
  0
ARC
  5
8764
  8
0
 10
295.4398501960778276
 20
274.4598280821177241
 30
0.0
 40
0.042493756986971
 50
227.7743124993037043
 51
250.7292736120662084
  0
ARC
  5
8765
  8
0
 10
295.4327075201284174
 20
274.4415572307513003
 30
0.0
 40
0.0229004010819815
 50
252.5122080541783021
 51
291.4760140512565272
  0
ARC
  5
8766
  8
0
 10
295.3293400697555171
 20
274.589388483017899
 30
0.0
 40
0.0216248537924687
 50
126.4500871435749048
 51
167.4388044659459069
  0
ARC
  5
8767
  8
0
 10
295.3440543659663149
 20
274.5882406094991097
 30
0.0
 40
0.03629622507468
 50
170.7235348390659908
 51
205.2885491979795916
  0
ARC
  5
8768
  8
0
 10
295.4716912958090234
 20
274.6363995137699021
 30
0.0
 40
0.1726233742849038
 50
201.6417443768411033
 51
208.2150692392453095
  0
ARC
  5
8769
  8
0
 10
295.4724313383474055
 20
274.2484676047424728
 30
0.0
 40
0.0741521831782721
 50
31.5512471354333606
 51
58.7602869772482421
  0
ARC
  5
876A
  8
0
 10
295.075562105995516
 20
273.905795200314401
 30
0.0
 40
0.5976427254346037
 50
32.0804494521363068
 51
39.6649218278592528
  0
ARC
  5
876B
  8
0
 10
295.5539340677170799
 20
274.2031044733054728
 30
0.0
 40
0.034480377202354
 50
7.833976710563908
 51
35.6667161332333222
  0
ARC
  5
876C
  8
0
 10
295.5194351065035221
 20
274.3003500122163132
 30
0.0
 40
0.0143428396881806
 50
126.5772446935678062
 51
211.6349706524783869
  0
ARC
  5
876D
  8
0
 10
295.8091588855602936
 20
274.4633310556242805
 30
0.0
 40
0.3467514443357928
 50
209.4535666952035911
 51
225.655949125232695
  0
ARC
  5
876E
  8
0
 10
295.5829348247904136
 20
274.2270827472888186
 30
0.0
 40
0.0199565378819576
 50
216.009779465982092
 51
284.9782708963913933
  0
ARC
  5
876F
  8
0
 10
295.1076358608422083
 20
273.8850034743641118
 30
0.0
 40
0.6406067839691754
 50
32.8635316989126167
 51
45.5005066019311002
  0
ARC
  5
8770
  8
0
 10
295.523321756795383
 20
274.274831038488685
 30
0.0
 40
0.0003810147187202
 50
94.8864570388234227
 51
186.0072959252838984
  0
ARC
  5
8771
  8
0
 10
295.5622645562327193
 20
274.288786480158592
 30
0.0
 40
0.0417380725615224
 50
199.591570215800914
 51
218.7781362072628042
  0
ARC
  5
8772
  8
0
 10
295.7039959711696042
 20
274.3851261964700825
 30
0.0
 40
0.2130054589152211
 50
215.1004218770223133
 51
221.3501332900395937
  0
ARC
  5
8773
  8
0
 10
295.5993380849520236
 20
274.2908660339285802
 30
0.0
 40
0.0721845157030614
 50
220.066811303621904
 51
230.0543494322176912
  0
ARC
  5
8774
  8
0
 10
295.4973321159018838
 20
274.2387603837277084
 30
0.0
 40
0.0450766355317795
 50
42.7944999282160623
 51
53.0092537521619178
  0
ARC
  5
8775
  8
0
 10
295.3868813311706276
 20
274.1340181988722975
 30
0.0
 40
0.197292082829209
 50
38.5425987884321728
 51
43.3237059378107716
  0
ARC
  5
8776
  8
0
 10
295.4112109246204909
 20
274.1509242549649912
 30
0.0
 40
0.1677398897746215
 50
32.259250293741772
 51
39.2041439101647882
  0
ARC
  5
8777
  8
0
 10
295.5188940436037797
 20
274.2196505390152197
 30
0.0
 40
0.0400009817056804
 50
27.0805812308591491
 51
31.3398673750336982
  0
ARC
  5
8778
  8
0
 10
295.5230477306467947
 20
274.2728361900295226
 30
0.0
 40
0.0023867349960262
 50
53.8966866919483394
 51
84.1909230343726023
  0
ARC
  5
8779
  8
0
 10
295.5558397569756153
 20
274.2385046908261756
 30
0.0
 40
0.0041218441791769
 50
226.284600820171903
 51
262.8278623031878283
  0
ARC
  5
877A
  8
0
 10
295.5358275866406075
 20
274.2283665659911094
 30
0.0
 40
0.020956063044517
 50
21.8246048743381102
 51
26.9395449730244501
  0
ARC
  5
877B
  8
0
 10
295.5525822972696801
 20
274.2349076843935904
 30
0.0
 40
0.0029745786180068
 50
356.7062537104408193
 51
24.84140812997137
  0
ARC
  5
877C
  8
0
 10
295.5551582642087283
 20
274.2347735719936281
 30
0.0
 40
0.0003954133835736
 50
294.9629858277622247
 51
354.6610523458483044
  0
ARC
  5
877D
  8
0
 10
294.1976992585189237
 20
273.3069311723633064
 30
0.0
 40
1.62311247839713
 50
31.4720226476483091
 51
39.436608886034648
  0
ARC
  5
877E
  8
0
 10
295.5739878867211132
 20
274.1748369920113078
 30
0.0
 40
0.0220333904905154
 50
222.1811590394260065
 51
291.4467515498217836
  0
ARC
  5
877F
  8
0
 10
296.3261222458568795
 20
274.8610312938124025
 30
0.0
 40
1.0401534533473129
 50
212.2169098087298948
 51
222.3710091134207119
  0
ARC
  5
8780
  8
0
 10
295.4633415106484904
 20
274.3198339648524779
 30
0.0
 40
0.0217849554337069
 50
123.6368225222301049
 51
217.7446312555703116
  0
ARC
  5
8781
  8
0
 10
294.7385943453836035
 20
273.6972872956134211
 30
0.0
 40
1.015072765698521
 50
38.367700317817139
 51
41.3355388008284592
  0
ARC
  5
8782
  8
0
 10
294.9437636469555173
 20
273.7220662618623237
 30
0.0
 40
0.8376597392102048
 50
33.2113682826248535
 51
36.4987142560171023
  0
ARC
  5
8783
  8
0
 10
295.4752397895115905
 20
274.2687043892756265
 30
0.0
 40
0.0002324918146568
 50
45.473118539486201
 51
130.6654011904535082
  0
ARC
  5
8784
  8
0
 10
295.4759569553673941
 20
274.2687475123374838
 30
0.0
 40
0.0008788242534648
 50
171.2804236881054862
 51
204.6430996599711136
  0
ARC
  5
8785
  8
0
 10
295.5931353308927214
 20
274.333132136028496
 30
0.0
 40
0.1345782674489042
 50
208.7599197164165901
 51
216.3640568094498917
  0
ARC
  5
8786
  8
0
 10
295.4704741624660755
 20
274.2616031459933765
 30
0.0
 40
0.0087807096897212
 50
43.2326902187739819
 51
55.8538712415190872
  0
ARC
  5
8787
  8
0
 10
295.3532216459090023
 20
274.1515562763991056
 30
0.0
 40
0.169586384934707
 50
38.6331610844113129
 51
43.1867733357049275
  0
ARC
  5
8788
  8
0
 10
294.8864437164488095
 20
273.7716448157632954
 30
0.0
 40
0.7714236287013058
 50
36.9789966672439974
 51
39.0303041046638128
  0
ARC
  5
8789
  8
0
 10
296.0254332530503802
 20
274.6349603254287786
 30
0.0
 40
0.6617840824581335
 50
215.2156585016882104
 51
217.3135271908276991
  0
ARC
  5
878A
  8
0
 10
295.8966047607303267
 20
274.5339653537913023
 30
0.0
 40
0.4981071195236218
 50
217.0568314047800129
 51
220.3386619475510031
  0
ARC
  5
878B
  8
0
 10
295.0437078427094093
 20
273.8866922523162089
 30
0.0
 40
0.5765949195786836
 50
34.678328735703893
 51
37.2464522134280074
  0
ARC
  5
878C
  8
0
 10
295.3866638321673008
 20
274.1244769602678844
 30
0.0
 40
0.1592703940260348
 50
32.4413912065790768
 51
34.5296464825695111
  0
ARC
  5
878D
  8
0
 10
295.5939090295632923
 20
274.2774974766842888
 30
0.0
 40
0.1013710735373777
 50
220.5920385782303015
 51
224.0591903554237092
  0
ARC
  5
878E
  8
0
 10
295.4850480601513141
 20
274.1865750683583087
 30
0.0
 40
0.0429298421045848
 50
28.1177971650101384
 51
32.9349274906149816
  0
ARC
  5
878F
  8
0
 10
295.5298797456304101
 20
274.2150145262111778
 30
0.0
 40
0.0119134424125529
 50
222.2526309212099136
 51
234.9439467074006131
  0
ARC
  5
8790
  8
0
 10
295.5162432339648717
 20
274.2031319644631822
 30
0.0
 40
0.0076139189060575
 50
19.860948804457589
 51
28.8626910563856285
  0
ARC
  5
8791
  8
0
 10
295.5233316930484193
 20
274.2055867564728828
 30
0.0
 40
0.0004383597740664
 50
227.7459887149497035
 51
281.5981815006978195
  0
ARC
  5
8792
  8
0
 10
295.5224159580060928
 20
274.2053013405630963
 30
0.0
 40
0.0010728314431671
 50
359.1053017467681912
 51
22.8942962545493387
  0
ARC
  5
8793
  8
0
 10
295.5233446693459882
 20
274.2052802439529273
 30
0.0
 40
0.0001440548345575
 50
301.4468841069175937
 51
1.7282520613806831
  0
ARC
  5
8794
  8
0
 10
295.5814531451111975
 20
273.75958984140442
 30
0.0
 40
0.4178499209047698
 50
39.5673767469088133
 51
60.2483209992320923
  0
ARC
  5
8795
  8
0
 10
295.641443965961173
 20
273.9000309757374225
 30
0.0
 40
0.2131387248308609
 50
26.1558162897905504
 51
62.5127277258144716
  0
ARC
  5
8796
  8
0
 10
295.7494028730038735
 20
274.0766103111150755
 30
0.0
 40
0.0157506397178056
 50
127.4817257720198995
 51
208.6076301910356108
  0
ARC
  5
8797
  8
0
 10
295.9077503550099095
 20
274.1745432767181114
 30
0.0
 40
0.201913834057121
 50
211.4916214186071954
 51
231.9919076623957892
  0
ARC
  5
8798
  8
0
 10
295.8592383259436929
 20
274.0991515009324075
 30
0.0
 40
0.112936587105978
 50
227.827948530166509
 51
248.4186186028964869
  0
ARC
  5
8799
  8
0
 10
295.8254176504444217
 20
274.0135876161393185
 30
0.0
 40
0.0209310779439523
 50
248.3567536631558994
 51
290.5266322634752214
  0
ARC
  5
879A
  8
0
 10
294.4274930245481983
 20
272.9124651930306982
 30
0.0
 40
1.690563708878402
 50
38.2508810090359006
 51
42.6805301564066326
  0
ARC
  5
879B
  8
0
 10
295.6773485023339845
 20
274.0485143954995806
 30
0.0
 40
0.0122335502344635
 50
125.1667997414781013
 51
222.2225102701646051
  0
ARC
  5
879C
  8
0
 10
296.3353941254463848
 20
274.5857176900191234
 30
0.0
 40
0.8616942167039825
 50
219.2693957527808948
 51
226.3710020659216013
  0
ARC
  5
879D
  8
0
 10
295.7500834034594277
 20
273.9709439478376112
 30
0.0
 40
0.012861495347983
 50
224.0358453864531043
 51
292.9827932421192145
  0
ARC
  5
879E
  8
0
 10
295.6844008472721725
 20
274.0226423740691075
 30
0.0
 40
0.0001710284558075
 50
44.9980156064911725
 51
96.1358639740555816
  0
ARC
  5
879F
  8
0
 10
295.6848447102245245
 20
274.0228091251753995
 30
0.0
 40
0.0004621553410676
 50
179.5911800850790883
 51
214.6401143654198052
  0
ARC
  5
87A0
  8
0
 10
295.6736037426180133
 20
274.0086273906616157
 30
0.0
 40
0.0178613485280211
 50
45.2694462420293675
 51
52.3188634901990071
  0
ARC
  5
87A1
  8
0
 10
295.7016403711431849
 20
274.0340634413084899
 30
0.0
 40
0.0206797716292397
 50
213.8431818312708117
 51
219.2192468176199895
  0
ARC
  5
87A2
  8
0
 10
295.4915651260888012
 20
273.8229953204560161
 30
0.0
 40
0.2778559863131683
 50
43.2431320053945782
 51
45.5412908991879277
  0
ARC
  5
87A3
  8
0
 10
294.9370482406961855
 20
273.2948640716771251
 30
0.0
 40
1.043627102415037
 50
42.2469523461074203
 51
43.5078485605717304
  0
ARC
  5
87A4
  8
0
 10
295.3952931083695148
 20
273.7098581085895148
 30
0.0
 40
0.4253986109039745
 50
40.8054884640876523
 51
42.3667763169535974
  0
ARC
  5
87A5
  8
0
 10
295.6553950987972144
 20
273.9349307765734238
 30
0.0
 40
0.08143646621198
 50
37.8947266056392706
 51
40.531133756483257
  0
ARC
  5
87A6
  8
0
 10
296.1073580495233273
 20
274.3769001263514724
 30
0.0
 40
0.5518489917725646
 50
220.1615574945342075
 51
224.8067371164561052
  0
ARC
  5
87A7
  8
0
 10
295.7796022403294955
 20
274.0517712313182983
 30
0.0
 40
0.09018665080297
 50
224.9975128293044122
 51
227.5351925169265996
  0
ARC
  5
87A8
  8
0
 10
295.7272300575389181
 20
273.9943356744847165
 30
0.0
 40
0.0124592935201403
 50
226.8806369617340124
 51
232.4487215434965037
  0
ARC
  5
87A9
  8
0
 10
295.7163114061779083
 20
273.9824026841898785
 30
0.0
 40
0.0042073476323471
 50
30.5110590031255988
 51
37.2621729238813515
  0
ARC
  5
87AA
  8
0
 10
295.7233969048818949
 20
273.9896066768753826
 30
0.0
 40
0.006375836798411
 50
233.8576326169346942
 51
237.3697025608202011
  0
ARC
  5
87AB
  8
0
 10
295.7195350494292256
 20
273.9842330793077281
 30
0.0
 40
0.0005043262382626
 50
359.7838678879915051
 51
37.3112890128825683
  0
ARC
  5
87AC
  8
0
 10
295.72000592035198
 20
273.9843250924084828
 30
0.0
 40
0.0000996952544767
 50
241.8920200622430912
 51
289.6053671409977142
  0
ARC
  5
87AD
  8
0
 10
295.7560916717192754
 20
274.052964811800905
 30
0.0
 40
0.001591247837317
 50
76.9346317064199638
 51
142.3566860907627074
  0
ARC
  5
87AE
  8
0
 10
295.7573662444431761
 20
274.05316810069138
 30
0.0
 40
0.0026485300188393
 50
163.1311398938701132
 51
201.9420958383319089
  0
ARC
  5
87AF
  8
0
 10
295.7455358577392985
 20
274.0210356602246975
 30
0.0
 40
0.0352137214722202
 50
52.4952271797183982
 51
71.9419984906317609
  0
ARC
  5
87B0
  8
0
 10
295.7886130075494862
 20
274.0680029204909829
 30
0.0
 40
0.0372335387722448
 50
205.1510720468313878
 51
222.1399269815518096
  0
ARC
  5
87B1
  8
0
 10
295.8560489086976872
 20
274.1254878084494067
 30
0.0
 40
0.1258342245736472
 50
220.9468150368034003
 51
234.3560824219995027
  0
ARC
  5
87B2
  8
0
 10
295.6860426550467196
 20
273.9361074690247051
 30
0.0
 40
0.1388818411798663
 50
44.5587616136555127
 51
54.356365997761003
  0
ARC
  5
87B3
  8
0
 10
295.7336058523630982
 20
273.981630270347523
 30
0.0
 40
0.0730569355224353
 50
35.1744479853914029
 51
45.2927275871134967
  0
ARC
  5
87B4
  8
0
 10
295.808129383948426
 20
274.0578532474577855
 30
0.0
 40
0.0429483838547027
 50
233.7267074697818998
 51
247.6136782116851975
  0
ARC
  5
87B5
  8
0
 10
295.780301236797925
 20
274.0147499482052922
 30
0.0
 40
0.0158097986858512
 50
21.1464903934173307
 51
34.5497262637871501
  0
ARC
  5
87B6
  8
0
 10
295.7944213959805779
 20
274.0257414973630148
 30
0.0
 40
0.0080483105796206
 50
250.784410280851489
 51
264.7202644576566968
  0
ARC
  5
87B7
  8
0
 10
295.7922859373737765
 20
274.0192061682629969
 30
0.0
 40
0.0030291645510641
 50
345.4162473144814953
 51
24.3140825984763289
  0
ARC
  5
87B8
  8
0
 10
295.7939518663541776
 20
274.0191525207271184
 30
0.0
 40
0.0014507358170288
 50
259.2312649277718037
 51
330.7400211873170974
  0
LINE
  5
87B9
  8
0
 10
295.7398184770426042
 20
274.0891091912866955
 30
0.0
 11
295.7888078026791732
 21
274.1223605711841742
 31
0.0
  0
LINE
  5
87BA
  8
0
 10
295.8327569807267992
 20
273.9939854669016199
 30
0.0
 11
295.9035636442865211
 21
274.0257540439583863
 31
0.0
  0
ARC
  5
87BB
  8
0
 10
291.5133121044544282
 20
270.0066820876930933
 30
0.0
 40
5.8545452144755901
 50
42.7917886310679378
 51
44.1824947190615802
  0
LINE
  5
87BC
  8
0
 10
295.711744501046212
 20
274.0869841695968034
 30
0.0
 11
295.6703024823792134
 21
274.0585150631841884
 31
0.0
  0
LINE
  5
87BD
  8
0
 10
295.7551052343791866
 20
273.9591033702841969
 30
0.0
 11
295.8095368102170823
 21
273.9838862496558818
 31
0.0
  0
LINE
  5
87BE
  8
0
 10
295.582044095748472
 20
274.1543292424366882
 30
0.0
 11
295.644596402888908
 21
274.1808769928882157
 31
0.0
  0
LINE
  5
87BF
  8
0
 10
295.4512742414792115
 20
274.3379713653840781
 30
0.0
 11
295.5007664113794021
 21
274.3677098947840136
 31
0.0
  0
ARC
  5
87C0
  8
0
 10
295.3866638331634249
 20
274.1244769609397736
 30
0.0
 40
0.159270392824497
 50
32.4413911451280228
 51
34.5296464842452977
  0
LINE
  5
87C1
  8
0
 10
295.5108881256080053
 20
274.3118680919936878
 30
0.0
 11
295.5566390504793048
 21
274.3419205207841856
 31
0.0
  0
LINE
  5
87C2
  8
0
 10
295.5880926459792022
 20
274.2078042544840741
 30
0.0
 11
295.6457234075709835
 21
274.2326222939390732
 31
0.0
  0
LINE
  5
87C3
  8
0
 10
295.441091624679018
 20
274.4202467835340258
 30
0.0
 11
295.4488276880040871
 21
274.4235261993187009
 31
0.0
  0
LINE
  5
87C4
  8
0
 10
295.4488276880040871
 20
274.4235261993187009
 30
0.0
 11
295.4482917477894262
 21
274.4243151732238175
 31
0.0
  0
LINE
  5
87C5
  8
0
 10
295.4478507646740013
 20
274.4241279876371209
 30
0.0
 11
295.50776619957918
 21
274.4494961465841811
 31
0.0
  0
LINE
  5
87C6
  8
0
 10
295.4760537048791207
 20
274.4922761819842094
 30
0.0
 11
295.5392599051706952
 21
274.5197431440681726
 31
0.0
  0
LINE
  5
87C7
  8
0
 10
295.4017891740792265
 20
274.5978371299842138
 30
0.0
 11
295.4529673172792172
 21
274.6317035696841913
 31
0.0
  0
LINE
  5
87C8
  8
0
 10
295.3232277308791822
 20
274.6097751609842135
 30
0.0
 11
295.3731808850429275
 21
274.6397899901623987
 31
0.0
  0
LINE
  5
87C9
  8
0
 10
295.3164922621792243
 20
274.6067829689840778
 30
0.0
 11
295.3263464666791833
 21
274.6127990588842067
 31
0.0
  0
LINE
  5
87CA
  8
0
 10
295.3263464666791833
 20
274.6127990588842067
 30
0.0
 11
295.326803127079188
 21
274.6119817366841858
 31
0.0
  0
LINE
  5
87CB
  8
0
 10
295.3781391763972124
 20
274.4403677768428906
 30
0.0
 11
295.4054417061965978
 21
274.4527919056483256
 31
0.0
  0
LINE
  5
87CC
  8
0
 10
295.3101047582791807
 20
274.5487533122840773
 30
0.0
 11
295.3302415654616766
 21
274.5615718238730096
 31
0.0
  0
LINE
  5
87CD
  8
0
 10
295.0510976059435961
 20
275.1490283519497098
 30
0.0
 11
295.1097035443419827
 21
275.1842423296617994
 31
0.0
  0
LINE
  5
87CE
  8
0
 10
295.1597056545792839
 20
274.954062890484181
 30
0.0
 11
295.2253923500197175
 21
274.9819458907991248
 31
0.0
  0
LINE
  5
87CF
  8
0
 10
295.1005507774792136
 20
274.9764681339842127
 30
0.0
 11
295.1109027401791991
 21
274.9808778489842211
 31
0.0
  0
LINE
  5
87D0
  8
0
 10
295.0717260751808908
 20
274.9606654235806786
 30
0.0
 11
295.1115971931624244
 21
274.9799788133357197
 31
0.0
  0
LINE
  5
87D1
  8
0
 10
295.0098243768791804
 20
275.0652916413342268
 30
0.0
 11
295.060598025979175
 21
274.965510943884226
 31
0.0
  0
LINE
  5
87D2
  8
0
 10
295.0133372227792279
 20
275.0752599987841904
 30
0.0
 11
295.0369857117792094
 21
275.086720026584203
 31
0.0
  0
LINE
  5
87D3
  8
0
 10
295.0392073693793122
 20
275.0884983198841951
 30
0.0
 11
295.0473499556657089
 21
275.0934869601758805
 31
0.0
  0
LINE
  5
87D4
  8
0
 10
295.0264751316792058
 20
275.0495222100842057
 30
0.0
 11
295.0392761964234865
 21
275.0562080140650778
 31
0.0
  0
LINE
  5
87D5
  8
0
 10
295.0579464111791026
 20
274.9877563462841863
 30
0.0
 11
295.0733680988000174
 21
274.9954193255395012
 31
0.0
  0
LINE
  5
87D6
  8
0
 10
294.9452295004792859
 20
275.2089289300841983
 30
0.0
 11
294.9849119214451889
 21
275.2301660456864738
 31
0.0
  0
LINE
  5
87D7
  8
0
 10
294.9419290808971255
 20
275.1984118622492019
 30
0.0
 11
294.9924903037565969
 21
275.0991798751285842
 31
0.0
  0
LINE
  5
87D8
  8
0
 10
294.9898386888792174
 20
275.1214252774840929
 30
0.0
 11
295.0316769461788908
 21
275.1422145765668006
 31
0.0
  0
LINE
  5
87D9
  8
0
 10
294.9583674093792069
 20
275.1831911413840999
 30
0.0
 11
294.9992026321792196
 21
275.204518765084174
 31
0.0
  0
LINE
  5
87DA
  8
0
 10
294.8076548066699729
 20
275.4789344695327031
 30
0.0
 11
294.848655275179226
 21
275.5008769737842158
 31
0.0
  0
LINE
  5
87DB
  8
0
 10
294.8043543870791723
 20
275.468417401684178
 30
0.0
 11
294.8549156101040012
 21
275.3691854140428745
 31
0.0
  0
LINE
  5
87DC
  8
0
 10
294.8653640344792279
 20
275.3656737326841721
 30
0.0
 11
294.905636503779192
 21
275.3851815353842198
 31
0.0
  0
LINE
  5
87DD
  8
0
 10
294.820792715479115
 20
275.4531966807841172
 30
0.0
 11
294.8622102955256992
 21
275.4748118053772146
 31
0.0
  0
LINE
  5
87DE
  8
0
 10
294.8522639950791131
 20
275.3914308168841103
 30
0.0
 11
294.8934496388019966
 21
275.4118935361727267
 31
0.0
  0
LINE
  5
87DF
  8
0
 10
294.7388674596938927
 20
275.6139372391804727
 30
0.0
 11
294.7810230710791757
 21
275.6364979492840916
 31
0.0
  0
LINE
  5
87E0
  8
0
 10
294.7810230710791757
 20
275.6364979492840916
 30
0.0
 11
294.7817614581317116
 21
275.6356628399320243
 31
0.0
  0
LINE
  5
87E1
  8
0
 10
294.7388674596938927
 20
275.6139372391804727
 30
0.0
 11
294.7972563121882104
 21
275.4993426639885001
 31
0.0
  0
LINE
  5
87E2
  8
0
 10
294.7972563121882104
 20
275.4993426639885001
 30
0.0
 11
294.8325145635325839
 21
275.5164216020162939
 31
0.0
  0
LINE
  5
87E3
  8
0
 10
294.8231509944791924
 20
275.512542993084196
 30
0.0
 11
294.8445868320876002
 21
275.5214239498379243
 31
0.0
  0
LINE
  5
87E4
  8
0
 10
294.7355670400792178
 20
275.6034201713841867
 30
0.0
 11
294.7861282629792186
 21
275.5041881842842031
 31
0.0
  0
ARC
  5
87E5
  8
0
 10
294.7425828394983114
 20
275.606994899785775
 30
0.0
 40
0.0078740157176858
 50
118.1546616717249947
 51
206.9999952967156105
  0
ARC
  5
87E6
  8
0
 10
294.7938108699858049
 20
275.5066308846464835
 30
0.0
 40
0.0080615899420335
 50
197.6381741654728046
 51
295.3020309184258281
  0
LINE
  5
87E7
  8
0
 10
294.7686174399792094
 20
275.627915796284185
 30
0.0
 11
294.7889812438496051
 21
275.6399173451566753
 31
0.0
  0
LINE
  5
87E8
  8
0
 10
294.9716403727791771
 20
275.3930227030842275
 30
0.0
 11
295.0264140284792234
 21
275.427251840484189
 31
0.0
  0
LINE
  5
87E9
  8
0
 10
295.0715565277761243
 20
275.4439449945372758
 30
0.0
 11
295.1370872964781142
 21
275.4849940946833726
 31
0.0
  0
LINE
  5
87EA
  8
0
 10
295.1287581243792033
 20
275.329249773984202
 30
0.0
 11
295.201477572452518
 21
275.3586232995734235
 31
0.0
  0
LINE
  5
87EB
  8
0
 10
295.029816882068701
 20
275.2788313921016083
 30
0.0
 11
295.0897323666791863
 21
275.3030354252841789
 31
0.0
  0
LINE
  5
87EC
  8
0
 10
294.9446649023793725
 20
275.2357027657843105
 30
0.0
 11
294.994430623479218
 21
275.2567831555841735
 31
0.0
  0
LINE
  5
87ED
  8
0
 10
294.9348310059792198
 20
275.2293371244841751
 30
0.0
 11
294.9727788230902092
 21
275.2476116137681856
 31
0.0
  0
LINE
  5
87EE
  8
0
 10
294.8724621093189171
 20
275.3347484704617045
 30
0.0
 11
294.923023332179298
 21
275.2355164832841865
 31
0.0
  0
LINE
  5
87EF
  8
0
 10
294.8866925058791821
 20
275.3494802184841888
 30
0.0
 11
294.9329645868539274
 21
275.377284258169027
 31
0.0
  0
LINE
  5
87F0
  8
0
 10
294.8757625288791928
 20
275.3452655382841954
 30
0.0
 11
294.9128619030872756
 21
275.365205055757599
 31
0.0
  0
LINE
  5
87F1
  8
0
 10
294.7914960947791769
 20
275.6916190052842239
 30
0.0
 11
294.8481174634525246
 21
275.7256401928681271
 31
0.0
  0
LINE
  5
87F2
  8
0
 10
294.8843603632806207
 20
275.4897848744483895
 30
0.0
 11
294.9428741748791936
 21
275.5146478031841752
 31
0.0
  0
ARC
  5
87F3
  8
0
 10
294.4736730997183258
 20
275.4307033563055143
 30
0.0
 40
0.4766511503121473
 50
10.1434322354755295
 51
38.2262777349127205
  0
ARC
  5
87F4
  8
0
 10
295.0463172831313727
 20
277.0632074323503957
 30
0.0
 40
0.6879583720703172
 50
137.5194821283535873
 51
177.9069659126379861
  0
ARC
  5
87F5
  8
0
 10
295.81728949205052
 20
277.0238211247680056
 30
0.0
 40
1.4598976764923981
 50
177.4673065387219992
 51
189.5261571042036906
  0
ARC
  5
87F6
  8
0
 10
297.0801190179280979
 20
277.2452155002084169
 30
0.0
 40
2.7427088041595171
 50
192.6663284796248945
 51
195.1477319318350112
  0
ARC
  5
87F7
  8
0
 10
298.7011072602909962
 20
277.7386919708272899
 30
0.0
 40
4.4377552814394248
 50
198.8447345960395864
 51
199.8106892170438016
  0
ARC
  5
87F8
  8
0
 10
300.4861390042983089
 20
278.4301705973546746
 30
0.0
 40
6.3522724797867118
 50
202.2549462867943078
 51
203.3587638874496974
  0
ARC
  5
87F9
  8
0
 10
297.6923566562905989
 20
277.1104017878632249
 30
0.0
 40
3.2631665249811199
 50
203.8879242746752993
 51
206.8514588774987999
  0
LINE
  5
87FA
  8
0
 10
294.836697352241174
 20
275.5181548405640228
 30
0.0
 11
294.8458805160792053
 21
275.499392062284187
 31
0.0
  0
LINE
  5
87FB
  8
0
 10
294.9033439219791717
 20
275.3840709032842256
 30
0.0
 11
294.9129053501791873
 21
275.3651435187841798
 31
0.0
  0
LINE
  5
87FC
  8
0
 10
294.9727889889094854
 20
275.2476159199337076
 30
0.0
 11
294.9824371418793021
 21
275.2288417189841994
 31
0.0
  0
ARC
  5
87FD
  8
0
 10
302.8009936713194179
 20
279.1602388999108939
 30
0.0
 40
8.7500763395736332
 50
208.5980207279571061
 51
209.6364673289274094
  0
LINE
  5
87FE
  8
0
 10
295.1580078881892177
 20
274.8099992816459007
 30
0.0
 11
295.2017025347291792
 21
274.8372288084340767
 31
0.0
  0
LINE
  5
87FF
  8
0
 10
295.2017025347291792
 20
274.8372288084340767
 30
0.0
 11
295.2025657780997108
 21
274.8358464188003722
 31
0.0
  0
LINE
  5
8800
  8
0
 10
295.1747452606658726
 20
274.8184708079231768
 30
0.0
 11
295.220305585780693
 21
274.8469241697191023
 31
0.0
  0
LINE
  5
8801
  8
0
 10
295.2217088895791903
 20
274.6992243963841815
 30
0.0
 11
295.2702307223041771
 21
274.7206917965251023
 31
0.0
  0
LINE
  5
8802
  8
0
 10
295.2702307223041771
 20
274.7206917965251023
 30
0.0
 11
295.2696998150111085
 21
274.7217191271615206
 31
0.0
  0
LINE
  5
8803
  8
0
 10
295.2393568980792224
 20
274.7083196995841945
 30
0.0
 11
295.2903316133517251
 21
274.7309965996831806
 31
0.0
  0
ARC
  5
8804
  8
0
 10
300.3672183354645995
 20
277.738737656044691
 30
0.0
 40
5.931431640905088
 50
210.6216845003536093
 51
211.8038225978386038
  0
ARC
  5
8805
  8
0
 10
298.5094637526181032
 20
276.4917982579814861
 30
0.0
 40
3.6938884725922581
 50
214.0496444803040959
 51
215.208890602561695
  0
ARC
  5
8806
  8
0
 10
297.7865744898176104
 20
275.9122929049997879
 30
0.0
 40
2.7677505380418062
 50
218.8696953160128942
 51
221.3286562661901939
  0
ARC
  5
8807
  8
0
 10
295.4820444243836164
 20
273.8754712306857186
 30
0.0
 40
0.3277208536031689
 50
12.6996918217757599
 51
17.9911527810027501
  0
LINE
  5
8808
  8
0
 10
295.8017478253676131
 20
273.9475176968421124
 30
0.0
 11
295.8648640837793096
 21
273.7003740234841871
 31
0.0
  0
ARC
  5
8809
  8
0
 10
296.1136062058538982
 20
273.7638985376419214
 30
0.0
 40
0.2567255483841866
 50
194.3261554709245047
 51
296.9999986505853826
  0
LINE
  5
880A
  8
0
 10
296.2301571604734249
 20
273.535154396360781
 30
0.0
 11
296.5109838466369752
 21
273.6778481101221132
 31
0.0
  0
ARC
  5
880B
  8
0
 10
296.5064439416344726
 20
273.6867581754291905
 30
0.0
 40
0.0100000000605088
 50
297.0000002335111731
 51
26.9999905478985696
  0
LINE
  5
880C
  8
0
 10
296.5153540069576934
 20
273.6912980804003723
 30
0.0
 11
294.5604716715791938
 21
277.5279706886840927
 31
0.0
  0
ARC
  5
880D
  8
0
 10
294.5515608498382107
 20
277.5234322684365225
 30
0.0
 40
0.0100000001222527
 50
26.9904524314815397
 51
116.9999998713263949
  0
LINE
  5
880E
  8
0
 10
294.5389431588791922
 20
277.5278128775840969
 30
0.0
 11
294.5410471000791972
 21
277.529298507884107
 31
0.0
  0
LINE
  5
880F
  8
0
 10
294.5410471000791972
 20
277.529298507884107
 30
0.0
 11
294.5470209448052969
 21
277.5323423337974873
 31
0.0
  0
LINE
  5
8810
  8
0
 10
294.628144097297195
 20
277.3951560750423937
 30
0.0
 11
294.6497864110792193
 21
277.4061832816748279
 31
0.0
  0
LINE
  5
8811
  8
0
 10
296.4476808246791961
 20
273.8241141788842015
 30
0.0
 11
296.4693262375793097
 21
273.8351430676841005
 31
0.0
  0
LINE
  5
8812
  8
0
 10
294.5900535874793036
 20
277.5234177526842245
 30
0.0
 11
296.5055487769791966
 21
273.7639485282841747
 31
0.0
  0
ARC
  5
8813
  8
0
 10
295.7196195155053147
 20
273.3803365568660979
 30
0.0
 40
0.8745529993408974
 50
20.5537355606173406
 51
26.0169973307844202
  0
ARC
  5
8814
  8
0
 10
295.7490710049285099
 20
273.3921838726810734
 30
0.0
 40
0.8428172070276264
 50
0.0071578835307869
 51
20.5025394314565403
  0
ARC
  5
8815
  8
0
 10
294.6321791976711779
 20
277.5448454509648855
 30
0.0
 40
0.047262176078316
 50
114.3049310912963961
 51
206.9607120599908967
  0
LINE
  5
8816
  8
0
 10
294.6127264264670202
 20
277.5879186790787116
 30
0.0
 11
295.2017001954919238
 21
277.8492067833842043
 31
0.0
  0
ARC
  5
8817
  8
0
 10
295.2000724600237049
 20
277.7986020714158144
 30
0.0
 40
0.0506308838176722
 50
30.3244323400330416
 51
88.1576769286743058
  0
LINE
  5
8818
  8
0
 10
295.2439322808675115
 20
277.8238587515554059
 30
0.0
 11
297.1301969191686112
 21
274.1195353190461219
 31
0.0
  0
ARC
  5
8819
  8
0
 10
295.7549913398671038
 20
273.4371127074858236
 30
0.0
 40
1.5352169247734031
 50
22.18631919472611
 51
26.3921319736168911
  0
ARC
  5
881A
  8
0
 10
295.6131963549531747
 20
273.4181080134562194
 30
0.0
 40
1.674076050446798
 50
2.6282324704799578
 51
20.9559279803131204
  0
LINE
  5
881B
  8
0
 10
296.5918882053791776
 20
273.3922891646840867
 30
0.0
 11
296.5918882053791776
 21
268.3049484467841808
 31
0.0
  0
LINE
  5
881C
  8
0
 10
297.2855102524791846
 20
273.4948707343842216
 30
0.0
 11
297.2855102524791846
 21
268.3049484467841808
 31
0.0
  0
ARC
  5
881D
  8
0
 10
296.6710851034583243
 20
268.305101717143998
 30
0.0
 40
0.0791970463915767
 50
180.1108848198529131
 51
264.981359120927209
  0
ARC
  5
881E
  8
0
 10
296.6710851034583243
 20
268.305101717143998
 30
0.0
 40
0.0791970463915767
 50
275.0186408790729047
 51
275.0336611807799727
  0
ARC
  5
881F
  8
0
 10
297.2066657216042245
 20
268.3049834718710258
 30
0.0
 40
0.0788445386546734
 50
267.3655925673893989
 51
267.59660089792402
  0
ARC
  5
8820
  8
0
 10
297.2066657216042245
 20
268.3049834718710258
 30
0.0
 40
0.0788445386546745
 50
272.40339910207598
 51
359.9745475114771125
  0
LINE
  5
8821
  8
0
 10
296.5010855673792207
 20
268.2262082892842159
 30
0.0
 11
297.3763147927792261
 21
268.2262082892842159
 31
0.0
  0
ARC
  5
8822
  8
0
 10
296.5010855673942274
 20
268.2049484467489719
 30
0.0
 40
0.0212598425352075
 50
90.0000000402697964
 51
181.9999999022570023
  0
ARC
  5
8823
  8
0
 10
297.3763152900696127
 20
268.20494844678052
 30
0.0
 40
0.021259842509535
 50
358.000000019621325
 51
90.0013402092467345
  0
LINE
  5
8824
  8
0
 10
296.479838675780627
 20
268.2042064889449762
 30
0.0
 11
296.4852280229007988
 21
268.0498757802841965
 31
0.0
  0
ARC
  5
8825
  8
0
 10
296.5065069197103185
 20
268.0506319877396777
 30
0.0
 40
0.0212923295906493
 50
182.0353411305243014
 51
267.6036112449053235
  0
ARC
  5
8826
  8
0
 10
297.3709259429792269
 20
268.0506177380840995
 30
0.0
 40
0.0212598424999965
 50
270.3440997167155047
 51
357.9999999999083116
  0
LINE
  5
8827
  8
0
 10
297.3921728345575843
 20
268.0498757802808996
 30
0.0
 11
297.397562181678893
 21
268.2042064889766948
 31
0.0
  0
LINE
  5
8828
  8
0
 10
296.397350784779178
 20
268.0293582789842048
 30
0.0
 11
297.6178194837792148
 21
268.0293582789842048
 31
0.0
  0
ARC
  5
8829
  8
0
 10
296.3973470427791881
 20
267.9998307198840735
 30
0.0
 40
0.0295275591000106
 50
90.000000000014623
 51
179.999999999985306
  0
ARC
  5
882A
  8
0
 10
296.6138023244229203
 20
267.9997509031715026
 30
0.0
 40
0.0296078180414241
 50
0.1544580659049258
 51
89.5721142341882341
  0
ARC
  5
882B
  8
0
 10
297.3423215638516126
 20
267.9997377040065203
 30
0.0
 40
0.0296203364202634
 50
90.1791805985601798
 51
179.8200754407106103
  0
ARC
  5
882C
  8
0
 10
297.6178194837792148
 20
267.9998307198841871
 30
0.0
 40
0.0295275590999999
 50
0.0000000000032569
 51
90.0
  0
LINE
  5
882D
  8
0
 10
296.3678194837792148
 20
267.9998307198841871
 30
0.0
 11
296.3678194836792272
 21
266.5470748143861783
 31
0.0
  0
ARC
  5
882E
  8
0
 10
296.3973470430132124
 20
266.5470748144811068
 30
0.0
 40
0.0295275593340029
 50
179.9999723479672866
 51
270.0072605865420883
  0
ARC
  5
882F
  8
0
 10
297.3422289325791894
 20
266.5470748143841888
 30
0.0
 40
0.0295275591000035
 50
180.0
 51
269.9952844985472211
  0
ARC
  5
8830
  8
0
 10
297.6178194839499156
 20
266.5470748143134756
 30
0.0
 40
0.0295275589292885
 50
269.999999668741907
 51
0.0000001372029205
  0
ARC
  5
8831
  8
0
 10
296.613882094531391
 20
266.5470748265295242
 30
0.0
 40
0.0295275711477974
 50
270.0007401640668832
 51
359.9999764329940035
  0
LINE
  5
8832
  8
0
 10
296.3973470427791881
 20
266.5175472553841018
 30
0.0
 11
296.6532673578793151
 21
266.5175472553841018
 31
0.0
  0
LINE
  5
8833
  8
0
 10
297.2241334995791817
 20
266.5175472553841018
 30
0.0
 11
297.3422289325791894
 21
266.5175472553841018
 31
0.0
  0
LINE
  5
8834
  8
0
 10
297.3422289325791894
 20
266.517547255284228
 30
0.0
 11
297.6178194837792148
 21
266.517547255284228
 31
0.0
  0
LINE
  5
8835
  8
0
 10
297.6473470428791757
 20
267.9998307198841871
 30
0.0
 11
297.6473470428791757
 21
266.5470748143841888
 31
0.0
  0
LINE
  5
8836
  8
0
 10
296.6434100348791958
 20
266.5470748143841888
 30
0.0
 11
296.6434100348791958
 21
267.9998307198832208
 31
0.0
  0
LINE
  5
8837
  8
0
 10
297.3127014023987158
 20
267.9998395133998201
 30
0.0
 11
297.3127014023987158
 21
266.5470748143841888
 31
0.0
  0
LINE
  5
8838
  8
0
 10
296.6434100348791958
 20
266.6120350609842262
 30
0.0
 11
297.3127014023987158
 21
266.6120350609842262
 31
0.0
  0
LINE
  5
8839
  8
0
 10
297.6473470428791757
 20
267.4624291450841724
 30
0.0
 11
297.9819927120792045
 21
267.4624291450841724
 31
0.0
  0
LINE
  5
883A
  8
0
 10
297.6473470428791757
 20
267.0844763891840898
 30
0.0
 11
297.9819927120792045
 21
267.0844763891840898
 31
0.0
  0
LINE
  5
883B
  8
0
 10
297.9819927120792045
 20
267.4703030939842279
 30
0.0
 11
297.9819927121031924
 21
267.0766023734944952
 31
0.0
  0
LINE
  5
883C
  8
0
 10
297.9819927121031924
 20
267.0766023734944952
 30
0.0
 11
298.0096969828117039
 21
267.0362989731569883
 31
0.0
  0
LINE
  5
883D
  8
0
 10
297.9819927120792045
 20
267.4703030939842279
 30
0.0
 11
298.0097225388917082
 21
267.5106043914195766
 31
0.0
  0
ARC
  5
883E
  8
0
 10
298.0428225003552143
 20
266.5467524622969222
 30
0.0
 40
0.0297953559071552
 50
180.9142065258764092
 51
274.777734030071997
  0
LINE
  5
883F
  8
0
 10
298.0453041729928145
 20
266.5170606362407284
 30
0.0
 11
299.3694084688060002
 21
266.4939483098385722
 31
0.0
  0
ARC
  5
8840
  8
0
 10
299.3658469867443728
 20
266.434906809133679
 30
0.0
 40
0.0591488204443699
 50
0.4769813662651622
 51
86.5480056339866763
  0
ARC
  5
8841
  8
0
 10
241.2903430027554066
 20
265.6332688081670881
 30
0.0
 40
58.1401843097248587
 50
0.5239615024692965
 51
0.790505660913227
  0
ARC
  5
8842
  8
0
 10
299.4581132771295984
 20
266.1657373112066125
 30
0.0
 40
0.0300274899557383
 50
181.5122639829073137
 51
276.835806259505091
  0
LINE
  5
8843
  8
0
 10
299.4616872836920152
 20
266.1359232770927861
 30
0.0
 11
299.702465153079288
 21
266.1317204836842052
 31
0.0
  0
LINE
  5
8844
  8
0
 10
299.702465153079288
 20
266.1317204836842052
 30
0.0
 11
299.702465153079288
 21
268.4151850506842152
 31
0.0
  0
LINE
  5
8845
  8
0
 10
298.0130309371471071
 20
266.5462770703347246
 30
0.0
 11
298.0080820237893136
 21
267.2736643398092724
 31
0.0
  0
ARC
  5
8846
  8
0
 10
298.0428146863474126
 20
268.0001613008691947
 30
0.0
 40
0.0297878077104868
 50
85.2059704847564774
 51
178.8747562546147947
  0
LINE
  5
8847
  8
0
 10
298.0453041726999004
 20
268.0298448981225192
 30
0.0
 11
299.364020437343811
 21
268.0528631760909093
 31
0.0
  0
ARC
  5
8848
  8
0
 10
299.3652816036354238
 20
268.113250522012379
 30
0.0
 40
0.0604005139700907
 50
268.803573800406582
 51
7.9979680208134356
  0
ARC
  5
8849
  8
0
 10
384.2707066241356983
 20
267.273452767164315
 30
0.0
 40
84.8498516535565841
 50
179.2515789865784086
 51
179.4272330529273063
  0
ARC
  5
884A
  8
0
 10
299.4570479166217751
 20
268.3823947668042251
 30
0.0
 40
0.0289610798460708
 50
80.7825367566884012
 51
181.2462610782390868
  0
LINE
  5
884B
  8
0
 10
299.4616869617792076
 20
268.4109818863842065
 30
0.0
 11
299.702465153079288
 21
268.4151850506842152
 31
0.0
  0
LINE
  5
884C
  8
0
 10
298.0105425948747211
 20
268.0007462722226137
 30
0.0
 11
298.009326114683688
 21
267.2736643398092724
 31
0.0
  0
ARC
  5
884D
  8
0
 10
566.5924159423610718
 20
267.1684262330812771
 30
0.0
 40
267.1684268122274943
 50
179.7977775347588931
 51
180.1572208734845901
  0
LINE
  5
884E
  8
0
 10
296.6532673578792014
 20
266.6120350609842262
 30
0.0
 11
296.6532673578792014
 21
256.7263578955842149
 31
0.0
  0
LINE
  5
884F
  8
0
 10
297.2241334995791817
 20
266.6120350609842262
 30
0.0
 11
297.2240986885981897
 21
256.3851452668772026
 31
0.0
  0
LINE
  5
8850
  8
0
 10
293.9796446411792203
 20
256.7263578955842149
 30
0.0
 11
296.6773325127792873
 21
256.7263578955842149
 31
0.0
  0
ARC
  5
8851
  8
0
 10
296.6773325128157239
 20
256.6463578960061227
 30
0.0
 40
0.079999999578027
 50
70.2375489418535324
 51
90.0000000261316444
  0
ARC
  5
8852
  8
0
 10
296.3383060685791861
 20
255.7027358483840942
 30
0.0
 40
1.0826771654000591
 50
50.508939378127927
 51
70.2375490071988082
  0
ARC
  5
8853
  8
0
 10
296.3243996555243029
 20
255.6870801959375115
 30
0.0
 40
1.103603169935772
 50
42.8378196961213575
 51
50.468673811426541
  0
ARC
  5
8854
  8
0
 10
297.2740572864593105
 20
256.5758960303444951
 30
0.0
 40
0.1971844701379828
 50
224.5976522435798017
 51
255.3235887120638949
  0
ARC
  5
8855
  8
0
 10
297.2738838440791938
 20
256.5755960893841916
 30
0.0
 40
0.1968503937000009
 50
255.3503054547634008
 51
270.0000000000017053
  0
ARC
  5
8856
  8
0
 10
296.3383062508190164
 20
255.6996118926915926
 30
0.0
 40
1.0137795550466051
 50
110.0499846766207952
 51
249.9500138796587123
  0
ARC
  5
8857
  8
0
 10
296.3383061707622801
 20
255.6996119486931036
 30
0.0
 40
1.0137794749925331
 50
290.0469413037483832
 51
69.9500293385668357
  0
ARC
  5
8858
  8
0
 10
296.3365317954284137
 20
255.7016989639720066
 30
0.0
 40
1.0847701572207009
 50
286.8428739131092016
 51
286.8540451714176243
  0
ARC
  5
8859
  8
0
 10
296.3365317954284137
 20
255.7016989639720066
 30
0.0
 40
1.0847701572207009
 50
310.3934176388111723
 51
42.7071335918637374
  0
ARC
  5
885A
  8
0
 10
296.0042394151361123
 20
256.6149695071932229
 30
0.0
 40
0.0393668020936555
 50
89.999333639615628
 51
110.050970003071896
  0
ARC
  5
885B
  8
0
 10
296.6723728903800748
 20
256.614968590852925
 30
0.0
 40
0.0393676751362142
 50
69.9497174585397659
 51
90.0009110827723902
  0
LINE
  5
885C
  8
0
 10
296.0042398729792126
 20
256.6543363092841901
 30
0.0
 11
296.6723722643791916
 21
256.6543362659842273
 31
0.0
  0
ARC
  5
885D
  8
0
 10
296.3382862426112183
 20
255.6997781270644055
 30
0.0
 40
1.0826618033834059
 50
108.5223410264104018
 51
229.1351392823177093
  0
LINE
  5
885E
  8
0
 10
296.0257739856004946
 20
254.6630379526951913
 30
0.0
 11
296.0265025878928213
 21
254.5795810912771913
 31
0.0
  0
LINE
  5
885F
  8
0
 10
296.0257739856004946
 20
254.6630379526951913
 30
0.0
 11
296.0253125790824242
 21
254.686653842282908
 31
0.0
  0
LINE
  5
8860
  8
0
 10
296.0253125790824242
 20
254.686653842282908
 30
0.0
 11
296.6510442787791817
 21
254.6866577929841924
 31
0.0
  0
LINE
  5
8861
  8
0
 10
296.6510442787791817
 20
254.6866577929841924
 30
0.0
 11
296.6510442787791817
 21
254.6634622467985878
 31
0.0
  0
LINE
  5
8862
  8
0
 10
296.6510442787791817
 20
254.6634622467985878
 30
0.0
 11
296.6501095727999768
 21
254.5795833251875138
 31
0.0
  0
LINE
  5
8863
  8
0
 10
296.0658708627792066
 20
254.540556811884187
 30
0.0
 11
296.6107412743792224
 21
254.540556811884187
 31
0.0
  0
ARC
  5
8864
  8
0
 10
296.0658714361508146
 20
254.5799271813409916
 30
0.0
 40
0.0393703694610038
 50
180.5036720674357866
 51
269.9991655711626777
  0
ARC
  5
8865
  8
0
 10
296.6107406214713933
 20
254.5799272655681023
 30
0.0
 40
0.0393704536893337
 50
270.0009501760408739
 51
359.4994575618472936
  0
LINE
  5
8866
  8
0
 10
296.0042401705939028
 20
254.7448875205842
 30
0.0
 11
296.6723722641792165
 21
254.7448875498841971
 31
0.0
  0
ARC
  5
8867
  8
0
 10
296.6723725146072184
 20
254.7842566653222036
 30
0.0
 40
0.0393691154388512
 50
269.9996355401083861
 51
289.9721104495120017
  0
ARC
  5
8868
  8
0
 10
296.0042397515920243
 20
254.7842569153891077
 30
0.0
 40
0.0393693948072024
 50
249.9498487292389939
 51
270.0006097894108166
  0
ARC
  5
8869
  8
0
 10
300.5962537785363224
 20
260.7504806979048908
 30
0.0
 40
7.6886908498015814
 50
229.7747800083820948
 51
231.5342730793151986
  0
ARC
  5
886A
  8
0
 10
295.8786793943078237
 20
254.8105759431886952
 30
0.0
 40
0.1033179606977877
 50
230.9086920748542866
 51
262.8754001261476105
  0
ARC
  5
886B
  8
0
 10
295.8480039972267264
 20
254.6073764187167114
 30
0.0
 40
0.1022513678357342
 50
65.7876194168998154
 51
79.9400444558269356
  0
ARC
  5
886C
  8
0
 10
296.1507269508201148
 20
255.3789211273299031
 30
0.0
 40
0.7266946485426767
 50
248.9692945653584957
 51
253.2977944146323068
  0
ARC
  5
886D
  8
0
 10
295.9700023325011102
 20
254.7786006082496044
 30
0.0
 40
0.0997626344264663
 50
253.6249034484077072
 51
274.2615970450377176
  0
ARC
  5
886E
  8
0
 10
295.9990914328986946
 20
254.7549401547153138
 30
0.0
 40
0.0788636297842768
 50
254.0468970026936972
 51
269.9879189500387042
  0
LINE
  5
886F
  8
0
 10
295.9990748041792017
 20
254.6760765266841986
 30
0.0
 11
296.0255192383464191
 21
254.6760765266841986
 31
0.0
  0
ARC
  5
8870
  8
0
 10
293.2194960729224817
 20
259.3390141646428901
 30
0.0
 40
5.874960234635302
 50
308.3299242762943209
 51
310.6325445925604072
  0
ARC
  5
8871
  8
0
 10
296.7979327427927956
 20
254.8105759434041033
 30
0.0
 40
0.1033179606977877
 50
277.1245999007009004
 51
309.0913079519934854
  0
ARC
  5
8872
  8
0
 10
296.8286081399691057
 20
254.607376418946501
 30
0.0
 40
0.1022513678357342
 50
100.0599555710220017
 51
114.2123806099476013
  0
ARC
  5
8873
  8
0
 10
296.5258851860140794
 20
255.3789211274178115
 30
0.0
 40
0.7266946485426767
 50
286.7022056122165736
 51
291.0307054614896174
  0
ARC
  5
8874
  8
0
 10
296.7066098046145726
 20
254.7786006084222095
 30
0.0
 40
0.0997626344264663
 50
265.738402981809827
 51
286.3750965784400933
  0
ARC
  5
8875
  8
0
 10
296.6775207042280158
 20
254.7549401548743049
 30
0.0
 40
0.0788636297842768
 50
270.0120810768078741
 51
285.9531030241541885
  0
LINE
  5
8876
  8
0
 10
296.6775373329844001
 20
254.6760765268431044
 30
0.0
 11
296.6510928988172964
 21
254.6760765268307125
 31
0.0
  0
ARC
  5
8877
  8
0
 10
294.9406627628960109
 20
255.8602149749031867
 30
0.0
 40
0.3149619052835691
 50
0.0000961013718327
 51
89.9997679907668271
  0
LINE
  5
8878
  8
0
 10
295.2556246681792231
 20
255.8602155031842074
 30
0.0
 11
295.2556244519839765
 21
255.6996119299842007
 31
0.0
  0
ARC
  5
8879
  8
0
 10
293.9796446411792203
 20
256.2184839667842198
 30
0.0
 40
0.0433070866000023
 50
180.0000000000015916
 51
269.9999999999902229
  0
LINE
  5
887A
  8
0
 10
293.9796446411792203
 20
256.1751768801840967
 30
0.0
 11
294.9406640382791807
 21
256.1751768801840967
 31
0.0
  0
LINE
  5
887B
  8
0
 10
293.936337554579211
 20
256.2184839667842198
 30
0.0
 11
293.936337554579211
 21
256.6830508089842056
 31
0.0
  0
ARC
  5
887C
  8
0
 10
293.9796446411792203
 20
256.6830508089842056
 30
0.0
 40
0.0433070866000023
 50
90.0
 51
179.9999999999917861
  0
LINE
  5
887D
  8
0
 10
297.2738838440791938
 20
256.3787456956841879
 30
0.0
 11
297.9912051339791788
 21
256.3787456956841879
 31
0.0
  0
ARC
  5
887E
  8
0
 10
297.9912003030206051
 20
256.3387267943423922
 30
0.0
 40
0.0400189016332966
 50
29.7653231610400297
 51
89.9930834298727262
  0
ARC
  5
887F
  8
0
 10
297.9912672427460052
 20
256.3387725620228821
 30
0.0
 40
0.0399380727526935
 50
359.9712742059685979
 51
29.756002130028449
  0
ARC
  5
8880
  8
0
 10
297.2680155726819748
 20
254.8236277705792077
 30
0.0
 40
0.1968503937055661
 50
89.9998554594671702
 51
130.1464568621026956
  0
ARC
  5
8881
  8
0
 10
297.9912024774417887
 20
255.0604858447096888
 30
0.0
 40
0.0400081307100476
 50
270.0037760534763152
 51
359.0675815681512972
  0
LINE
  5
8882
  8
0
 10
297.268016069278076
 20
255.0204781642840999
 30
0.0
 11
297.9912051141603229
 21
255.0204777140864962
 31
0.0
  0
LINE
  5
8883
  8
0
 10
298.0115202711792222
 20
256.3732030380759284
 30
0.0
 11
298.0115202711792222
 21
255.0260208221424989
 31
0.0
  0
LINE
  5
8884
  8
0
 10
298.0115202711792222
 20
255.3393757095842034
 30
0.0
 11
298.0292368065792061
 21
255.3393757095842034
 31
0.0
  0
LINE
  5
8885
  8
0
 10
298.0115202711792222
 20
256.0598481504841857
 30
0.0
 11
298.0292368065792061
 21
256.0598481504841857
 31
0.0
  0
LINE
  5
8886
  8
0
 10
298.0312053104792085
 20
256.3387525386842185
 30
0.0
 11
298.0312053104792085
 21
256.112997756784182
 31
0.0
  0
LINE
  5
8887
  8
0
 10
298.0449848380791877
 20
256.1129975280841791
 30
0.0
 11
298.0292368065792061
 21
256.1129975280841791
 31
0.0
  0
LINE
  5
8888
  8
0
 10
298.0292368065792061
 20
256.1129975280841791
 30
0.0
 11
298.0292368065792061
 21
255.2862261032842071
 31
0.0
  0
LINE
  5
8889
  8
0
 10
298.0292368065792061
 20
255.2862261032842071
 30
0.0
 11
298.0449848380791877
 21
255.2862261032842071
 31
0.0
  0
LINE
  5
888A
  8
0
 10
298.0312053104792085
 20
255.2862261032842071
 30
0.0
 11
298.0312053104788106
 21
255.0598347902351009
 31
0.0
  0
LINE
  5
888B
  8
0
 10
298.0449848380791877
 20
256.1129975280841791
 30
0.0
 11
298.0548273577791747
 21
256.1228402764842258
 31
0.0
  0
LINE
  5
888C
  8
0
 10
298.0548273577791747
 20
256.1228402764842258
 30
0.0
 11
298.0548273577791747
 21
255.2763835835841064
 31
0.0
  0
LINE
  5
888D
  8
0
 10
298.0548273577791747
 20
255.2763835835841064
 30
0.0
 11
298.0449848380791877
 21
255.2862261032842071
 31
0.0
  0
LINE
  5
888E
  8
0
 10
298.0548273577791747
 20
255.2763835835841064
 30
0.0
 11
298.1079769640792279
 21
255.2763835835841064
 31
0.0
  0
LINE
  5
888F
  8
0
 10
298.0548273577791747
 20
256.1228402764842258
 30
0.0
 11
298.1079769640792279
 21
256.1228402764842258
 31
0.0
  0
LINE
  5
8890
  8
0
 10
298.1079769640792279
 20
256.3196905592841972
 30
0.0
 11
298.1079769640792279
 21
255.0795333007841919
 31
0.0
  0
LINE
  5
8891
  8
0
 10
298.1079769640792279
 20
255.0795333007841919
 30
0.0
 11
298.1276621178793107
 21
255.0598481504842141
 31
0.0
  0
LINE
  5
8892
  8
0
 10
298.1276621178793107
 20
255.0598481504842141
 30
0.0
 11
298.4426226333791874
 21
255.0598481504842141
 31
0.0
  0
LINE
  5
8893
  8
0
 10
298.1079769640792279
 20
255.510532048109809
 30
0.0
 11
298.1276612139791951
 21
255.453548937884193
 31
0.0
  0
LINE
  5
8894
  8
0
 10
298.1276612139791951
 20
255.453548937884193
 30
0.0
 11
298.1276621178793107
 21
255.0598481504842141
 31
0.0
  0
LINE
  5
8895
  8
0
 10
298.1276621178793107
 20
255.453548937884193
 30
0.0
 11
298.4426226333791874
 21
255.453548937884193
 31
0.0
  0
LINE
  5
8896
  8
0
 10
298.1079769640792279
 20
256.3196905592841972
 30
0.0
 11
298.1276621178793107
 21
256.3393757095842034
 31
0.0
  0
LINE
  5
8897
  8
0
 10
298.1276621178793107
 20
256.3393757095842034
 30
0.0
 11
298.1276659259792154
 21
255.945674922184196
 31
0.0
  0
LINE
  5
8898
  8
0
 10
298.1276659259792154
 20
255.945674922184196
 30
0.0
 11
298.1079769640792279
 21
255.8886771249430865
 31
0.0
  0
LINE
  5
8899
  8
0
 10
295.8658651236792139
 20
254.7080557233732918
 30
0.0
 11
295.8658653845791946
 21
254.4310823050842032
 31
0.0
  0
LINE
  5
889A
  8
0
 10
295.8658653845791946
 20
254.4310823050842032
 30
0.0
 11
296.8107470134792152
 21
254.4310823050842032
 31
0.0
  0
LINE
  5
889B
  8
0
 10
296.8107470134792152
 20
254.4310823050842032
 30
0.0
 11
296.810750695432489
 21
254.7080561838799895
 31
0.0
  0
ARC
  5
889C
  8
0
 10
295.8937590948792149
 20
254.4232082892841049
 30
0.0
 40
0.0078740156999865
 50
89.9999999998957776
 51
182.3859443023530105
  0
ARC
  5
889D
  8
0
 10
296.7828530422809195
 20
254.4232082892879987
 30
0.0
 40
0.0078740156961638
 50
357.6140556685899128
 51
90.000000011942987
  0
LINE
  5
889E
  8
0
 10
296.79072023178162
 20
254.4228804896841893
 30
0.0
 11
296.7327929201888992
 21
253.0326250108711008
 31
0.0
  0
LINE
  5
889F
  8
0
 10
295.8858919053791965
 20
254.4228804896841893
 30
0.0
 11
295.9438192169695867
 21
253.0326250108711008
 31
0.0
  0
ARC
  5
88A0
  8
0
 10
295.9634871912434733
 20
253.0334445099485947
 30
0.0
 40
0.019685039770823
 50
182.3859715712212051
 51
270.0082974241562965
  0
LINE
  5
88A1
  8
0
 10
295.9634900420148824
 20
253.0137594703842012
 30
0.0
 11
296.7131249462792084
 21
253.0137594703842012
 31
0.0
  0
ARC
  5
88A2
  8
0
 10
296.7131249462865981
 20
253.0334445097659
 30
0.0
 40
0.0196850393816749
 50
269.9999999785322871
 51
357.6140560226941716
  0
LINE
  5
88A3
  8
0
 10
296.0528729976791737
 20
253.0137594703842012
 30
0.0
 11
296.0528729976791737
 21
242.002050808984194
 31
0.0
  0
LINE
  5
88A4
  8
0
 10
297.2241334995791817
 20
255.0153202378841968
 30
0.0
 11
297.2241337598791802
 21
242.0020508092842135
 31
0.0
  0
LINE
  5
88A5
  8
0
 10
296.6237391394791985
 20
253.0137594703842012
 30
0.0
 11
296.6237423547839853
 21
242.0019843337327075
 31
0.0
  0
LINE
  5
88A6
  8
0
 10
296.6532673578792014
 20
253.0137594703842012
 30
0.0
 11
296.6532641426744021
 21
242.0019839154462034
 31
0.0
  0
ARC
  5
88A7
  8
0
 10
394.5821542797891084
 20
241.5212445512266868
 30
0.0
 40
98.5304546620056669
 50
179.7204084891696141
 51
182.9749060124426876
  0
ARC
  5
88A8
  8
0
 10
305.802404593211179
 20
236.8608919578628047
 30
0.0
 40
9.6285948043147691
 50
182.6980284157324945
 51
188.7190440792006996
  0
ARC
  5
88A9
  8
0
 10
296.892422271058706
 20
235.4389526821236132
 30
0.0
 40
0.6085062438217825
 50
183.5476324372698969
 51
214.280165524855903
  0
ARC
  5
88AA
  8
0
 10
296.6411731583104938
 20
235.2755817332555068
 30
0.0
 40
0.3089525508701878
 50
215.4896296467699983
 51
269.6073036522083726
  0
ARC
  5
88AB
  8
0
 10
296.6381654610689225
 20
235.2677320362516014
 30
0.0
 40
0.3010969132985303
 50
270.1693967674767123
 51
307.3306782192996138
  0
ARC
  5
88AC
  8
0
 10
296.2813164778095256
 20
235.5081791647415059
 30
0.0
 40
0.7219856610977706
 50
318.3449196377545718
 51
356.0987837457890919
  0
ARC
  5
88AD
  8
0
 10
244.9938396112981138
 20
240.1620384344940931
 30
0.0
 40
52.2199981086011817
 50
354.8328887103834859
 51
0.0882336062683854
  0
ARC
  5
88AE
  8
0
 10
148.6120668710393886
 20
241.9970361877988978
 30
0.0
 40
148.6120669734440014
 50
359.3235246137044214
 51
0.0019333331113947
  0
ARC
  5
88AF
  8
0
 10
441.8883893826217104
 20
241.9859517706445899
 30
0.0
 40
145.2646511352351126
 50
179.993650162335598
 51
180.8171815702914955
  0
ARC
  5
88B0
  8
0
 10
151.3843705660966066
 20
241.9846524435380104
 30
0.0
 40
145.2688978355542986
 50
359.1833548424468745
 51
0.0068621220905806
  0
ARC
  5
88B1
  8
0
 10
321.9137025528049207
 20
239.3691779091521994
 30
0.0
 40
25.281065010664431
 50
178.7647298003601861
 51
189.3118999462332965
  0
LINE
  5
88B2
  8
0
 10
298.1276621178793107
 20
256.3393757095842034
 30
0.0
 11
298.4426226333791874
 21
256.3393757095842034
 31
0.0
  0
LINE
  5
88B3
  8
0
 10
298.1276621178793107
 20
255.945674922184196
 30
0.0
 11
298.4426226333791874
 21
255.945674922184196
 31
0.0
  0
LINE
  5
88B4
  8
0
 10
298.4426226332791998
 20
256.4181158669841807
 30
0.0
 11
298.4426226333791874
 21
254.9811079929841924
 31
0.0
  0
LINE
  5
88B5
  8
0
 10
298.4721501923792175
 20
256.4476434260840847
 30
0.0
 11
299.2300242081792021
 21
256.4476434260840847
 31
0.0
  0
LINE
  5
88B6
  8
0
 10
298.4721501923792175
 20
254.9515804338842031
 30
0.0
 11
299.2300242081792021
 21
254.9515804338842031
 31
0.0
  0
LINE
  5
88B7
  8
0
 10
299.702465153079288
 20
256.9692969693841746
 30
0.0
 11
299.702465153079288
 21
254.429926890684186
 31
0.0
  0
LINE
  5
88B8
  8
0
 10
299.3087643656792238
 20
254.4397694102841001
 30
0.0
 11
299.3087643656792238
 21
256.9594544496841877
 31
0.0
  0
LINE
  5
88B9
  8
0
 10
299.3481344443791841
 20
256.9988245283842048
 30
0.0
 11
299.6729375939792135
 21
256.9988245283842048
 31
0.0
  0
ARC
  5
88BA
  8
0
 10
298.4721501923792175
 20
256.4181158669841807
 30
0.0
 40
0.0295275591000106
 50
90.000000000014623
 51
180.0000000039765951
  0
ARC
  5
88BB
  8
0
 10
299.2300242081792021
 20
256.5263835835842201
 30
0.0
 40
0.0787401574999978
 50
270.0000000000048885
 51
0.0000000000016284
  0
ARC
  5
88BC
  8
0
 10
299.3481344443791841
 20
256.959454449684074
 30
0.0
 40
0.0393700787000029
 50
90.0
 51
179.999999999985306
  0
ARC
  5
88BD
  8
0
 10
299.672937594150028
 20
256.9692969694548879
 30
0.0
 40
0.029527558929277
 50
359.9999998627661171
 51
90.0000003312711101
  0
ARC
  5
88BE
  8
0
 10
299.3481344443791841
 20
254.4397694102842138
 30
0.0
 40
0.0393700786999958
 50
180.0000000000098055
 51
270.0000000000097771
  0
ARC
  5
88BF
  8
0
 10
299.6729375939792135
 20
254.429926890684186
 30
0.0
 40
0.0295275590999874
 50
270.0000030782916269
 51
0.0000000000244267
  0
LINE
  5
88C0
  8
0
 10
299.3481344443791841
 20
254.4003993315841967
 30
0.0
 11
299.6729375939792135
 21
254.4003993315841967
 31
0.0
  0
ARC
  5
88C1
  8
0
 10
298.4721501923792175
 20
254.9811079929841924
 30
0.0
 40
0.0295275591000035
 50
180.0000000000065086
 51
270.0
  0
ARC
  5
88C2
  8
0
 10
299.2300242083500166
 20
254.8728402765549106
 30
0.0
 40
0.0787401573292899
 50
359.999999948547611
 51
90.0000001242160863
  0
LINE
  5
88C3
  8
0
 62
     4
 10
299.702465153079288
 20
255.6996119299842007
 30
0.0
 11
310.8341896117386227
 21
233.6301727857936896
 31
0.0
  0
LINE
  5
88C4
  8
0
 10
295.0029387282792186
 20
275.0956681932842116
 30
0.0
 11
295.0419013612903996
 21
275.1097903313744268
 31
0.0
  0
LINE
  5
88C5
  8
0
 10
295.267457498379315
 20
274.8678811933842212
 30
0.0
 11
295.3212023583386099
 21
274.9027820296578284
 31
0.0
  0
LINE
  5
88C6
  8
0
 10
295.3363831715792003
 20
274.7593582176842233
 30
0.0
 11
295.4002055935791873
 21
274.7864674668841758
 31
0.0
  0
ENDBLK
  5
88CA
  8
0
  0
ENDSEC
  0
SECTION
  2
ENTITIES
  0
ATTDEF
  5
3930
  8
DEFPOINTS
 10
3985.1521353902721785
 20
156.730864151927193
 30
0.0
 40
0.001
  1
K-23522T-9
  3

  2
MODELNUMBER
 70
     0
1001
ACDBATTR
1070
     0
1070
     1
  0
ATTDEF
  5
3931
  8
DEFPOINTS
 10
3985.1521353902721785
 20
156.7291974852604994
 30
0.0
 40
0.001
  1
PARALLEL
  3

  2
TRADENAME
 70
     0
1001
ACDBATTR
1070
     0
1070
     1
  0
ATTDEF
  5
3932
  8
DEFPOINTS
 10
3985.1521353902721785
 20
156.7275308185938059
 30
0.0
 40
0.001
  1
BATH AND SHOWER FAUCET
  3

  2
PRODUCT
 70
     0
1001
ACDBATTR
1070
     0
1070
     1
  0
ARC
  5
88CC
  8
0
 10
3980.6838826584212256
 20
177.8950934119692135
 30
0.0
 40
0.9186200754724483
 50
187.7046732443239989
 51
194.4862776102702071
  0
ARC
  5
88CD
  8
0
 10
3979.8063317458468191
 20
177.6700759569853858
 30
0.0
 40
0.0127883632730528
 50
201.918016848570403
 51
287.5720357697168197
  0
ARC
  5
88CE
  8
0
 10
3979.7862217348501872
 20
177.7739404377558969
 30
0.0
 40
0.012823599540151
 50
120.6152026287881966
 51
188.98924500569521
  0
ARC
  5
88CF
  8
0
 10
3979.7797082362130823
 20
177.690469419129812
 30
0.0
 40
0.0099178552946601
 50
0.4012380442039193
 51
9.5038408995174386
  0
ARC
  5
88D0
  8
0
 10
3979.7886273504927885
 20
177.6904537412476941
 30
0.0
 40
0.0010021203750399
 50
352.6961732361097006
 51
4.873217674768731
  0
LINE
  5
88D1
  8
0
 10
3979.7796910630868297
 20
177.7849765163842051
 30
0.0
 11
3979.8101926119661584
 21
177.6578843226403137
 31
0.0
  0
ARC
  5
88D2
  8
0
 10
3979.7789120671891396
 20
177.7412332826116028
 30
0.0
 40
0.0006894344719034
 50
8.5786302178708613
 51
53.2613454669797477
  0
ARC
  5
88D3
  8
0
 10
3979.5225375451291256
 20
177.6733180596480111
 30
0.0
 40
0.265902931788547
 50
11.1534223649224202
 51
14.8210149227071408
  0
ARC
  5
88D4
  8
0
 10
3978.739213722434215
 20
177.5090445793171057
 30
0.0
 40
1.0662520918094771
 50
10.7021494696268498
 51
11.6718240227928405
  0
ARC
  5
88D5
  8
0
 10
3979.4726943174678127
 20
177.6453050726308902
 30
0.0
 40
0.3202341356502889
 50
8.4038248381781386
 51
11.1171619442741907
  0
ARC
  5
88D6
  8
0
 10
3979.7847401134081338
 20
177.7411222635113859
 30
0.0
 40
0.0054561446275928
 50
173.0150656168138994
 51
189.1491590008307924
  0
ARC
  5
88D7
  8
0
 10
3980.2818117027759399
 20
177.8147769925087118
 30
0.0
 40
0.5079546572071983
 50
188.4363429477091927
 51
193.9501670491322898
  0
ARC
  5
88D8
  8
0
 10
3979.8071395345641577
 20
177.6970179824704132
 30
0.0
 40
0.0188940582490438
 50
194.3964494263395864
 51
199.9827691161846985
  0
ARC
  5
88D9
  8
0
 10
3979.7899791618660856
 20
177.6907377560241912
 30
0.0
 40
0.0006217783743856
 50
196.4988207214223905
 51
229.9142793094445949
  0
ARC
  5
88DA
  8
0
 10
3979.789545954028199
 20
177.6903300093003963
 30
0.0
 40
0.0000754747954642
 50
295.7782948868222093
 51
357.2140243200917098
  0
LINE
  5
88DB
  8
0
 10
3979.7796910630868297
 20
177.7849765163842051
 30
0.0
 11
3979.8316666970667939
 21
177.8143437529402888
 31
0.0
  0
ARC
  5
88DC
  8
0
 10
3973.787155850932777
 20
176.6185167230034097
 30
0.0
 40
6.1616648443873219
 50
9.8698918746805013
 51
11.1907109886042306
  0
LINE
  5
88DD
  8
0
 10
3979.8576251994668382
 20
177.6746964157402999
 30
0.0
 11
3979.8101926119661584
 21
177.6578843226403137
 31
0.0
  0
ARC
  5
88DE
  8
0
 10
3979.862465385177984
 20
177.812101509148988
 30
0.0
 40
0.0176123201623783
 50
120.8150839913119938
 51
158.0473166829798117
  0
ARC
  5
88DF
  8
0
 10
3979.9508564726747863
 20
177.7859768519558088
 30
0.0
 40
0.1097154783629713
 50
162.6550153542505086
 51
186.9109505599778913
  0
ARC
  5
88E0
  8
0
 10
3980.0660862122208528
 20
177.7851604678862998
 30
0.0
 40
0.2244899793226611
 50
183.1626628706306974
 51
200.2115162958475025
  0
ARC
  5
88E1
  8
0
 10
3979.8750658046069475
 20
177.7153318912727968
 30
0.0
 40
0.0211122164868318
 50
201.4769609351735937
 51
239.6887194111104975
  0
ARC
  5
88E2
  8
0
 10
3979.8711450909381711
 20
177.7089313744100139
 30
0.0
 40
0.0136087758509916
 50
240.3388387682954885
 51
289.9026862348846976
  0
ARC
  5
88E3
  8
0
 10
3979.852614920861015
 20
177.8191373177542971
 30
0.0
 40
0.0081323771257593
 50
13.7911953835988896
 51
84.1547387808215746
  0
ARC
  5
88E4
  8
0
 10
3979.5492954150849982
 20
177.711385768116088
 30
0.0
 40
0.3299833009931152
 50
359.4201881015274012
 51
19.4137795378753104
  0
ARC
  5
88E5
  8
0
 10
3979.8626159840450782
 20
177.7064503247682978
 30
0.0
 40
0.0167221913478745
 50
321.9143165561964111
 51
5.4774249477250523
  0
LINE
  5
88E6
  8
0
 10
3979.8534431398679772
 20
177.8272274111401998
 30
0.0
 11
3979.9208053336869853
 21
177.8658624891347131
 31
0.0
  0
LINE
  5
88E7
  8
0
 10
3979.8757778398689879
 20
177.6961354212409958
 30
0.0
 11
3979.9314891756371253
 21
177.7162294302295891
 31
0.0
  0
ARC
  5
88E8
  8
0
 10
3979.5204674722749587
 20
177.7620803105864979
 30
0.0
 40
0.4135712077588969
 50
353.6347755913791957
 51
14.5332321938484892
  0
ARC
  5
88E9
  8
0
 10
3979.8510096697400513
 20
177.7810415844618035
 30
0.0
 40
0.0014597335495167
 50
78.6301527123493713
 51
156.9145597475811087
  0
ARC
  5
88EA
  8
0
 10
3979.8484017572291123
 20
177.7778557451698873
 30
0.0
 40
0.0054498626275021
 50
23.2678867154762088
 51
57.9045022786832391
  0
ARC
  5
88EB
  8
0
 10
3979.7819554943771436
 20
177.7522815969603016
 30
0.0
 40
0.0766439871041451
 50
7.3305151814656933
 51
21.2085494254040405
  0
ARC
  5
88EC
  8
0
 10
3979.7583838114769605
 20
177.7452331549812925
 30
0.0
 40
0.1010009167327409
 50
355.2565615623726103
 51
9.5907208084197109
  0
ARC
  5
88ED
  8
0
 10
3979.8302834511500805
 20
177.7387617473474961
 30
0.0
 40
0.0288167879441548
 50
343.4580777114180137
 51
356.2578464226808137
  0
ARC
  5
88EE
  8
0
 10
3979.8830016181841529
 20
177.7697937701202875
 30
0.0
 40
0.0353684150079277
 50
160.4760052149441094
 51
183.7768010118846007
  0
ARC
  5
88EF
  8
0
 10
3979.9731491847751386
 20
177.7688181639418019
 30
0.0
 40
0.1254464781396594
 50
180.6184767425095004
 51
193.1580164724863096
  0
ARC
  5
88F0
  8
0
 10
3979.8802612381209656
 20
177.7454597615196121
 30
0.0
 40
0.0297230841772267
 50
190.0715516203480036
 51
211.7626518265564073
  0
ARC
  5
88F1
  8
0
 10
3979.8567584125407848
 20
177.7310402682500126
 30
0.0
 40
0.0021526033585101
 50
214.7438872472311004
 51
255.2613286175698022
  0
ARC
  5
88F2
  8
0
 10
3979.8560931231199902
 20
177.7307831686003965
 30
0.0
 40
0.0018284635628263
 50
273.6889796090450773
 51
352.8985892833794082
  0
ARC
  5
88F3
  8
0
 10
3979.8498294310020356
 20
177.5221295307484013
 30
0.0
 40
0.0130986954370884
 50
120.8520329416690942
 51
186.6200438840371021
  0
ARC
  5
88F4
  8
0
 10
3980.3909362162671641
 20
177.6106627331793106
 30
0.0
 40
0.5613864187785264
 50
189.2297938109556128
 51
196.7800125726211888
  0
ARC
  5
88F5
  8
0
 10
3981.372366508606774
 20
177.8832135674365986
 30
0.0
 40
1.5798711829992771
 50
195.967947499068913
 51
198.5972600904019032
  0
ARC
  5
88F6
  8
0
 10
3980.5271518584631849
 20
177.5936489261943905
 30
0.0
 40
0.6864617776208025
 50
198.1887886190691006
 51
202.2617061700080114
  0
ARC
  5
88F7
  8
0
 10
3979.9703762739409285
 20
177.3667301440187032
 30
0.0
 40
0.0852261094282881
 50
202.8819779191537123
 51
208.2460603217456026
  0
ARC
  5
88F8
  8
0
 10
3979.9076324437419316
 20
177.3318847537630063
 30
0.0
 40
0.0134999495894019
 50
203.9893942894503027
 51
267.8578107708768243
  0
ARC
  5
88F9
  8
0
 10
3979.9068333182221977
 20
177.3323905486167007
 30
0.0
 40
0.0139994079336952
 50
271.2054120499914234
 51
291.3492013430561087
  0
LINE
  5
88FA
  8
0
 10
3979.9119298189671099
 20
177.3193517947402995
 30
0.0
 11
3979.960656607016972
 21
177.3400863597402974
 31
0.0
  0
LINE
  5
88FB
  8
0
 10
3979.9075346786657974
 20
177.3164287658402998
 30
0.0
 11
3979.9505718978489313
 21
177.3346973794110113
 31
0.0
  0
LINE
  5
88FC
  8
0
 10
3979.9505718978489313
 20
177.3346973794110113
 30
0.0
 11
3979.9501766639032212
 21
177.3356260134156059
 31
0.0
  0
LINE
  5
88FD
  8
0
 10
3979.9214780809479635
 20
177.3800093887207083
 30
0.0
 11
3979.9726620872070271
 21
177.3993506785176919
 31
0.0
  0
LINE
  5
88FE
  8
0
 10
3979.8823552385169933
 20
177.5034442139402984
 30
0.0
 11
3979.9366019611052252
 21
177.5356663510326882
 31
0.0
  0
LINE
  5
88FF
  8
0
 10
3979.8357914467669616
 20
177.5301484546403117
 30
0.0
 11
3979.8820493862672265
 21
177.5579429958403068
 31
0.0
  0
LINE
  5
8900
  8
0
 10
3979.8820493862672265
 20
177.5579429958403068
 30
0.0
 11
3979.8822940729669426
 21
177.5569869111403136
 31
0.0
  0
LINE
  5
8901
  8
0
 10
3979.8947025536667752
 20
177.5644408228403108
 30
0.0
 11
3979.8431121224480194
 21
177.5333746891710121
 31
0.0
  0
ARC
  5
8902
  8
0
 10
3979.4541434361999563
 20
177.3456822179417998
 30
0.0
 40
0.4318855202918937
 50
17.3499184912868891
 51
25.7591110310221083
  0
ARC
  5
8903
  8
0
 10
3976.8803326712250055
 20
176.4718045183344088
 30
0.0
 40
3.1498914134372069
 50
16.7276873431297908
 51
18.5612672026301588
  0
ARC
  5
8904
  8
0
 10
3979.4768445702247845
 20
177.2403096557540891
 30
0.0
 40
0.4422067767548176
 50
10.2966534796100806
 51
18.1987059244105005
  0
ARC
  5
8905
  8
0
 10
3979.8826356846179806
 20
177.5323135956967064
 30
0.0
 40
0.0472864324715099
 50
185.1562334968066068
 51
194.3180585397903997
  0
ARC
  5
8906
  8
0
 10
3979.839153746861939
 20
177.5286864796879911
 30
0.0
 40
0.0036663923267954
 50
156.4999245828537937
 51
189.7769631304012989
  0
ARC
  5
8907
  8
0
 10
3979.8464892028077884
 20
177.5126176129313933
 30
0.0
 40
0.0205370980263119
 50
121.3925812221938969
 51
169.5833735321425024
  0
ARC
  5
8908
  8
0
 10
3979.8674628273502094
 20
177.5106667623377916
 30
0.0
 40
0.0415600262254946
 50
172.1670079315537976
 51
192.045567440659795
  0
ARC
  5
8909
  8
0
 10
3980.3434003649717852
 20
177.5907001897639077
 30
0.0
 40
0.5241434225102543
 50
189.7436936362217068
 51
199.5011045524977078
  0
ARC
  5
890A
  8
0
 10
3980.55804283535781
 20
177.6163866329042946
 30
0.0
 40
0.7365770214585059
 50
195.8083481479903867
 51
202.9084068957716909
  0
ARC
  5
890B
  8
0
 10
3979.9012047793321472
 20
177.3375885662156008
 30
0.0
 40
0.0230478608156968
 50
200.1016626115909105
 51
251.7221535538625972
  0
ARC
  5
890C
  8
0
 10
3979.8997548633301449
 20
177.3347740224052131
 30
0.0
 40
0.019926714860041
 50
253.1428559144843859
 51
292.9807208798442844
  0
ARC
  5
890D
  8
0
 10
3979.8546131687739944
 20
177.4583892375416099
 30
0.0
 40
0.0007692641807342
 50
16.4040310862475209
 51
76.9786642574144651
  0
ARC
  5
890E
  8
0
 10
3979.7797342258918434
 20
177.4218944855475115
 30
0.0
 40
0.0840576317536017
 50
18.6144180962075012
 51
25.8965714632842889
  0
ARC
  5
890F
  8
0
 10
3979.3874796648638039
 20
177.2829696583849
 30
0.0
 40
0.5001787140221953
 50
16.0683256117263511
 51
19.3533605343395791
  0
ARC
  5
8910
  8
0
 10
3979.337245459208134
 20
177.2562438208746869
 30
0.0
 40
0.5559724192011792
 50
14.6201471105738001
 51
17.2821705483333012
  0
ARC
  5
8911
  8
0
 10
3979.7250514892962201
 20
177.3558422045913971
 30
0.0
 40
0.155591125998657
 50
10.9290932658820896
 51
15.1771416417586398
  0
ARC
  5
8912
  8
0
 10
3979.8627063527128485
 20
177.3824032966136031
 30
0.0
 40
0.0153971557085443
 50
3.0980801614901359
 51
11.0005491876007593
  0
ARC
  5
8913
  8
0
 10
3979.8762403276891746
 20
177.3831091511520981
 30
0.0
 40
0.0018450048528596
 50
348.476786202130711
 51
3.9249529749547469
  0
ARC
  5
8914
  8
0
 10
3979.877841666123004
 20
177.3827535366646089
 30
0.0
 40
0.0002068840133057
 50
302.4024422796026101
 51
356.4102502178740224
  0
ARC
  5
8915
  8
0
 10
3979.8779275707702254
 20
177.3828579230979017
 30
0.0
 40
0.0002801734002324
 50
216.8696841599339962
 51
275.1104668694648012
  0
ARC
  5
8916
  8
0
 10
3979.8926646013201207
 20
177.3925248769052985
 30
0.0
 40
0.0179043277193281
 50
199.9498388684874897
 51
213.319806734446189
  0
ARC
  5
8917
  8
0
 10
3980.1362910066650329
 20
177.4900026466063139
 30
0.0
 40
0.2802992990565577
 50
198.1091288033821058
 51
201.6883235848061986
  0
ARC
  5
8918
  8
0
 10
3981.0328877322999688
 20
177.7755359817224985
 30
0.0
 40
1.221257720734926
 50
196.1213588678540987
 51
197.7667636031576137
  0
ARC
  5
8919
  8
0
 10
3980.0751668127149969
 20
177.498921167048195
 30
0.0
 40
0.2243901735577642
 50
190.9840779756837037
 51
196.1713830343828135
  0
ARC
  5
891A
  8
0
 10
3979.8680121174979831
 20
177.4586528647508885
 30
0.0
 40
0.0133580831187144
 50
179.1991749430684138
 51
190.7261876530685072
  0
ARC
  5
891B
  8
0
 10
3979.8550163561931186
 20
177.4588596170104893
 30
0.0
 40
0.0003615734789999
 50
129.4738235895586058
 51
183.1791109989090103
  0
ARC
  5
891C
  8
0
 10
3979.8830429702388756
 20
177.5025708767466881
 30
0.0
 40
0.0011116171892889
 50
46.5352888708700689
 51
113.2004050176837069
  0
ARC
  5
891D
  8
0
 10
3979.8368612487238352
 20
177.4676941909301036
 30
0.0
 40
0.058968444196492
 50
19.6235628154913506
 51
37.238100643588858
  0
ARC
  5
891E
  8
0
 10
3979.3216528642637968
 20
177.2621623870923031
 30
0.0
 40
0.6136235975141378
 50
15.1220280125789905
 51
21.5443543818401793
  0
ARC
  5
891F
  8
0
 10
3979.6462381378551072
 20
177.343849422428292
 30
0.0
 40
0.279028432311104
 50
8.8513140369689065
 51
16.3167829614891389
  0
ARC
  5
8920
  8
0
 10
3979.8937808479058731
 20
177.3829248719135023
 30
0.0
 40
0.0284259093477003
 50
356.8211461568016034
 51
7.8021335435145041
  0
ARC
  5
8921
  8
0
 10
3979.9208236054978443
 20
177.381188876105
 30
0.0
 40
0.0013488990341568
 50
299.0250733655296926
 51
6.799087618090506
  0
ARC
  5
8922
  8
0
 10
3979.8897345635618876
 20
177.4920211361369979
 30
0.0
 40
0.013599306769979
 50
122.8625194520456034
 51
170.6613441671734108
  0
ARC
  5
8923
  8
0
 10
3979.9367132375759866
 20
177.4871490412328967
 30
0.0
 40
0.0608111611638106
 50
173.3152109278329078
 51
192.3469989112037979
  0
ARC
  5
8924
  8
0
 10
3980.2760113081608324
 20
177.5468117653772993
 30
0.0
 40
0.405270529950461
 50
190.3291444961390937
 51
200.9667008551020899
  0
ARC
  5
8925
  8
0
 10
3979.9360020557669486
 20
177.4114118136594982
 30
0.0
 40
0.039612618512622
 50
194.0491112340750135
 51
230.2579718944811873
  0
ARC
  5
8926
  8
0
 10
3979.917053717815179
 20
177.3916650538062072
 30
0.0
 40
0.0124671375109218
 50
239.2344033691801997
 51
290.7862147649852886
  0
ARC
  5
8927
  8
0
 10
3979.3362071729129639
 20
177.3039141333734108
 30
0.0
 40
0.6435705028022931
 50
8.5279753511481822
 51
21.1065741203095385
  0
ARC
  5
8928
  8
0
 10
3979.8851111531430433
 20
177.4609973677142136
 30
0.0
 40
0.0005184655968305
 50
47.6240601955483598
 51
112.1633293186140037
  0
ARC
  5
8929
  8
0
 10
3979.871003288294105
 20
177.4496359982896934
 30
0.0
 40
0.0186264375028328
 50
20.0271169653973899
 51
39.0886502546993881
  0
ARC
  5
892A
  8
0
 10
3979.7014892431880071
 20
177.3837049556711918
 30
0.0
 40
0.2005069115294597
 50
10.2288695475224003
 51
21.1392392801497699
  0
ARC
  5
892B
  8
0
 10
3979.8561096413068299
 20
177.4116702988912948
 30
0.0
 40
0.0433779535699731
 50
4.0463768651935048
 51
10.1452964123245195
  0
ARC
  5
892C
  8
0
 10
3979.8861303763319484
 20
177.4135938088446096
 30
0.0
 40
0.0132978210953674
 50
354.8549293005319782
 51
4.9066986813316591
  0
ARC
  5
892D
  8
0
 10
3979.8980422286131216
 20
177.4124623508863863
 30
0.0
 40
0.0013337880676492
 50
312.2418389149789846
 51
357.3760651917290261
  0
ARC
  5
892E
  8
0
 10
3979.8988188689759227
 20
177.4120530233302873
 30
0.0
 40
0.000590420453086
 50
220.9588325138552989
 51
281.7281519376189749
  0
ARC
  5
892F
  8
0
 10
3979.9598136603522107
 20
177.4481320615608126
 30
0.0
 40
0.071447390047646
 50
193.2163105363408135
 51
210.6898437899621115
  0
ARC
  5
8930
  8
0
 10
3980.0243614735318261
 20
177.4746542489810963
 30
0.0
 40
0.1407845829983078
 50
186.3439144597680865
 51
197.7230250733396986
  0
ARC
  5
8931
  8
0
 10
3979.8877991384301822
 20
177.459662519244489
 30
0.0
 40
0.0034072354612606
 50
147.8125018513256066
 51
189.5351559750068873
  0
ARC
  5
8932
  8
0
 10
3979.0793888527227864
 20
177.2615425990213964
 30
0.0
 40
0.8697607515507115
 50
17.2743785447274689
 51
20.3805986524887608
  0
ARC
  5
8933
  8
0
 10
3978.9067434115008837
 20
177.0986922472253866
 30
0.0
 40
1.0812049487673441
 50
12.9008145068319209
 51
15.6311996993598807
  0
ARC
  5
8934
  8
0
 10
3980.0481092956638349
 20
177.1955553725296966
 30
0.0
 40
0.0086875479796735
 50
15.6668958350884608
 51
78.5443966063745478
  0
ARC
  5
8935
  8
0
 10
3979.9703653048918568
 20
177.1531886792517128
 30
0.0
 40
0.0970255055355228
 50
13.5177510075407401
 51
27.4409811647779094
  0
ARC
  5
8936
  8
0
 10
3980.0078592740737804
 20
177.1595523624854138
 30
0.0
 40
0.0591388820743259
 50
359.4807505300879029
 51
16.0149314771700908
  0
ARC
  5
8937
  8
0
 10
3980.0605312250158931
 20
177.1587285649301862
 30
0.0
 40
0.0064709081642953
 50
332.1488052672706885
 51
2.5495887233381871
  0
ARC
  5
8938
  8
0
 10
3980.0647728022008778
 20
177.1563893241543042
 30
0.0
 40
0.0016301271739896
 50
286.4410986973744002
 51
335.1977761861609793
  0
ARC
  5
8939
  8
0
 10
3980.064963017402988
 20
177.1568904892239118
 30
0.0
 40
0.0020823684750036
 50
232.282679374928307
 51
277.4821074999655934
  0
ARC
  5
893A
  8
0
 10
3980.1065165113259354
 20
177.1906743809167892
 30
0.0
 40
0.055583740212855
 50
195.1203973368239133
 51
219.6009612846445123
  0
ARC
  5
893B
  8
0
 10
3980.1348866931461998
 20
177.2044410174082998
 30
0.0
 40
0.0867628806362456
 50
184.8039767803938105
 51
199.0127985436822939
  0
ARC
  5
893C
  8
0
 10
3980.0569506703591287
 20
177.1990278175111939
 30
0.0
 40
0.0087211772394229
 50
144.6803668301816117
 51
192.2667580770894062
  0
ARC
  5
893D
  8
0
 10
3980.04830819625613
 20
177.2432728563935029
 30
0.0
 40
0.0028581270019935
 50
73.0358383965187272
 51
118.345493699843999
  0
ARC
  5
893E
  8
0
 10
3980.0227800946090611
 20
177.2102476083290128
 30
0.0
 40
0.0444259308013582
 50
20.1006048219245201
 51
53.6018571895509766
  0
ARC
  5
893F
  8
0
 10
3979.8422272872658141
 20
177.1112665691368875
 30
0.0
 40
0.2499159793085301
 50
4.3876204514417001
 51
27.2033008098715712
  0
ARC
  5
8940
  8
0
 10
3980.0832816270690273
 20
177.1297583061216017
 30
0.0
 40
0.0081534127503296
 50
311.4947707546264155
 51
4.4155976409879161
  0
ARC
  5
8941
  8
0
 10
3980.0835689235518657
 20
177.1377906254986101
 30
0.0
 40
0.0150360304395096
 50
235.4911285606642082
 51
289.8870471055813027
  0
ARC
  5
8942
  8
0
 10
3980.1322467660861548
 20
177.1860522459022889
 30
0.0
 40
0.0833670436681944
 50
197.8483553918865141
 51
226.6795854773299084
  0
ARC
  5
8943
  8
0
 10
3980.2418339607611415
 20
177.2395047626741018
 30
0.0
 40
0.2047943545316817
 50
186.0335289026936891
 51
202.6918221607924977
  0
ARC
  5
8944
  8
0
 10
3980.0670971835979799
 20
177.2241400179167101
 30
0.0
 40
0.0295720953528347
 50
132.9413983025629022
 51
192.0255402543774892
  0
ARC
  5
8945
  8
0
 10
3979.9778599307278455
 20
177.1831101102434047
 30
0.0
 40
0.0008482583708837
 50
65.1555967575068564
 51
113.8347743300686972
  0
ARC
  5
8946
  8
0
 10
3979.9464289452780577
 20
177.1549580017835979
 30
0.0
 40
0.0429757142990217
 50
23.1007736693303691
 51
42.2976005644366992
  0
ARC
  5
8947
  8
0
 10
3979.7292292276911212
 20
177.0557088685442864
 30
0.0
 40
0.2817653336743175
 50
14.3616076235080907
 51
24.3357375050279892
  0
ARC
  5
8948
  8
0
 10
3979.9505905134851673
 20
177.1098455687107958
 30
0.0
 40
0.0539497627185253
 50
0.8007399790447474
 51
16.9769211728851488
  0
ARC
  5
8949
  8
0
 10
3980.0027146066490786
 20
177.1103706471932924
 30
0.0
 40
0.0018347325165578
 50
308.4768269430815053
 51
7.166056003004897
  0
ARC
  5
894A
  8
0
 10
3980.0038512216729032
 20
177.1111227884198058
 30
0.0
 40
0.0021884836265277
 50
220.0806276789315064
 51
270.1297008899501861
  0
ARC
  5
894B
  8
0
 10
3980.1249956673050292
 20
177.1875844171777885
 30
0.0
 40
0.1454246903567984
 50
198.0984177615389115
 51
212.3758648823987016
  0
ARC
  5
894C
  8
0
 10
3980.1870944745969609
 20
177.2175908096382955
 30
0.0
 40
0.2139718098773922
 50
191.2895967173697898
 51
200.5709399965080877
  0
ARC
  5
894D
  8
0
 10
3980.0030081847298788
 20
177.1808288799161915
 30
0.0
 40
0.0262507392808705
 50
176.8536617070313923
 51
191.2625904113137949
  0
ARC
  5
894E
  8
0
 10
3979.9789448063670534
 20
177.1822813638160028
 30
0.0
 40
0.0021478224801389
 50
131.6593035220699051
 51
180.3114777458442006
  0
ARC
  5
894F
  8
0
 10
3979.9485492127751058
 20
177.2294453605352942
 30
0.0
 40
0.0368064467410614
 50
21.5299175238470006
 51
56.5946142529799872
  0
ARC
  5
8950
  8
0
 10
3979.2043814400608426
 20
176.8550764970937053
 30
0.0
 40
0.8696919587119079
 50
16.4476451020663106
 51
26.4868752754704389
  0
ARC
  5
8951
  8
0
 10
3979.6731106179800008
 20
176.9893652090536875
 30
0.0
 40
0.3821414579780842
 50
11.6931130560937309
 51
17.0357075924485493
  0
ARC
  5
8952
  8
0
 10
3980.0183450377971894
 20
177.0579803218446955
 30
0.0
 40
0.0302930171290989
 50
344.8448942264610082
 51
16.9535655040505802
  0
ARC
  5
8953
  8
0
 10
3980.0391652139519465
 20
177.0739909542911903
 30
0.0
 40
0.0253680960219062
 50
202.5455023260307996
 51
289.3832485829839243
  0
ARC
  5
8954
  8
0
 10
3980.5100879131591682
 20
177.3341523820596137
 30
0.0
 40
0.5632259511554928
 50
191.6232727840047971
 51
208.6320197346279883
  0
ARC
  5
8955
  8
0
 10
3979.9936437176670552
 20
177.232514518570099
 30
0.0
 40
0.0371677521568458
 50
131.917693092278995
 51
198.573217265185292
  0
ARC
  5
8956
  8
0
 10
3979.9534324840078625
 20
177.1865729558824114
 30
0.0
 40
0.0120883348962581
 50
120.2502194458432001
 51
195.8643000780095065
  0
ARC
  5
8957
  8
0
 10
3982.5015251382478709
 20
178.1056513740898879
 30
0.0
 40
2.7208380260657048
 50
199.8163810520019013
 51
201.9457216814033984
  0
ARC
  5
8958
  8
0
 10
3979.9967047117747825
 20
177.0945508146324983
 30
0.0
 40
0.0197189708868885
 50
196.9626907615273979
 51
239.0744114408418
  0
ARC
  5
8959
  8
0
 10
3979.9893648989182111
 20
177.0955670508872117
 30
0.0
 40
0.0181482710859696
 50
261.1430682291743892
 51
288.2717745720246967
  0
LINE
  5
895A
  8
0
 10
3979.9473426554668549
 20
177.1970152654403137
 30
0.0
 11
3979.9618114669851821
 21
177.2052477249407048
 31
0.0
  0
LINE
  5
895B
  8
0
 10
3979.9950548302667812
 20
177.0783338148403061
 30
0.0
 11
3980.0061204714820633
 21
177.0826761609473863
 31
0.0
  0
LINE
  5
895C
  8
0
 10
3979.9473426554668549
 20
177.1970152654403137
 30
0.0
 11
3979.9950548302667812
 21
177.0783338148403061
 31
0.0
  0
LINE
  5
895D
  8
0
 10
3979.9688133411082163
 20
177.2601712392788897
 30
0.0
 11
3980.0297938571670784
 21
177.2968983763402946
 31
0.0
  0
ARC
  5
895E
  8
0
 10
3979.7915315593768355
 20
177.1449078003496993
 30
0.0
 40
0.2826129115208741
 50
21.807441410627419
 51
32.5343256911363028
  0
LINE
  5
895F
  8
0
 10
3980.0469361069672232
 20
177.2457794044402988
 30
0.0
 11
3980.1063050194720745
 21
177.2807672626624935
 31
0.0
  0
ARC
  5
8960
  8
0
 10
3979.8591663579031774
 20
177.1344681936564029
 30
0.0
 40
0.2871949436076926
 50
2.1310259774479259
 51
30.6243278007850392
  0
LINE
  5
8961
  8
0
 10
3980.1461626787790919
 20
177.1451474931450036
 30
0.0
 11
3980.088711677181891
 21
177.1236606808942042
 31
0.0
  0
LINE
  5
8962
  8
0
 10
3980.047584513396032
 20
177.0500607287893899
 30
0.0
 11
3980.1054131069181494
 21
177.0746076269618925
 31
0.0
  0
ARC
  5
8963
  8
0
 10
3979.7620781959008127
 20
177.0340669768330031
 30
0.0
 40
0.3457201258231162
 50
6.734247304681019
 51
15.4438779951698795
  0
ARC
  5
8964
  8
0
 10
3980.1823308399498274
 20
176.9740164776708866
 30
0.0
 40
0.0028581270019935
 50
73.0358383965187272
 51
118.345493699843999
  0
ARC
  5
8965
  8
0
 10
3980.1571366839389157
 20
176.9352327648078926
 30
0.0
 40
0.0490016510376104
 50
27.1694345153043315
 51
57.915631781420899
  0
ARC
  5
8966
  8
0
 10
3980.007624377763932
 20
176.8418878205179965
 30
0.0
 40
0.2251255972984591
 50
5.9972595825284136
 51
30.9323243737960887
  0
ARC
  5
8967
  8
0
 10
3980.2207572838119631
 20
176.8641265964060096
 30
0.0
 40
0.0108367187121532
 50
313.3232054095830108
 51
6.7970059532156721
  0
ARC
  5
8968
  8
0
 10
3980.2185558844289517
 20
176.8710582362461992
 30
0.0
 40
0.0176736348706036
 50
237.5511085600604986
 51
303.0419973998160117
  0
ARC
  5
8969
  8
0
 10
3980.2662694097812164
 20
176.916795867179701
 30
0.0
 40
0.0833670436681944
 50
197.8483553918848941
 51
226.6795854773299084
  0
ARC
  5
896A
  8
0
 10
3980.3758566044562031
 20
176.9702483839515139
 30
0.0
 40
0.2047943545316817
 50
186.0335289026936891
 51
202.6918221607924977
  0
ARC
  5
896B
  8
0
 10
3980.201119827292132
 20
176.9548836391942075
 30
0.0
 40
0.0295720953528347
 50
132.9413983025623054
 51
192.0255402543774892
  0
LINE
  5
896C
  8
0
 10
3980.1809587506609205
 20
176.9765230257177961
 30
0.0
 11
3980.2403276631662266
 21
177.0115108839397919
 31
0.0
  0
ARC
  5
896D
  8
0
 10
3980.0513845437440068
 20
176.8685025246720954
 30
0.0
 40
0.2369617969156025
 50
2.7761369615160252
 51
37.1215607530365332
  0
LINE
  5
896E
  8
0
 10
3980.2880682413670002
 20
176.8799794788403119
 30
0.0
 11
3980.2281924979670293
 21
176.856242938440289
 31
0.0
  0
ARC
  5
896F
  8
0
 10
3980.1863522521321102
 20
176.9312806069139867
 30
0.0
 40
0.0037585300332783
 50
38.9316659020078077
 51
101.3425864747636069
  0
ARC
  5
8970
  8
0
 10
3980.143218743512989
 20
176.8941751729720124
 30
0.0
 40
0.0606542323624881
 50
18.0801042091915889
 51
40.5938513168236526
  0
ARC
  5
8971
  8
0
 10
3980.1274885749749046
 20
176.8853718080625868
 30
0.0
 40
0.0784173550870317
 50
8.2290611326061054
 51
20.6286437338055393
  0
ARC
  5
8972
  8
0
 10
3980.1849880116687928
 20
176.8929919427430093
 30
0.0
 40
0.0204308658271031
 50
348.6343123709615952
 51
10.1595998695762209
  0
ARC
  5
8973
  8
0
 10
3980.2021618891672006
 20
176.8893842143943971
 30
0.0
 40
0.0028868347149651
 50
297.6654427565511014
 51
351.6627894796844771
  0
ARC
  5
8974
  8
0
 10
3980.2033682675441923
 20
176.8922409299485992
 30
0.0
 40
0.0054151677454556
 50
209.2001894079988062
 51
271.4179668628092941
  0
ARC
  5
8975
  8
0
 10
3980.2526057517029585
 20
176.930511247548111
 30
0.0
 40
0.0677198108596634
 50
198.9535883851800975
 51
217.1669064655515058
  0
ARC
  5
8976
  8
0
 10
3980.2514855306658319
 20
176.9339364691338972
 30
0.0
 40
0.0678685698041563
 50
184.0532833047292911
 51
201.9970365537004113
  0
ARC
  5
8977
  8
0
 10
3980.1900527559400871
 20
176.9303746122972996
 30
0.0
 40
0.0063866573498821
 50
134.0395169016024113
 51
191.1530598040627069
  0
ARC
  5
8978
  8
0
 10
3980.0274611968839054
 20
176.8792596724526902
 30
0.0
 40
0.0731421290331432
 50
23.6775171460072507
 51
41.111067345620242
  0
ARC
  5
8979
  8
0
 10
3979.4001379483888741
 20
176.5618853409607993
 30
0.0
 40
0.7760784356743438
 50
19.6310052211242798
 51
26.5381901714235013
  0
ARC
  5
897A
  8
0
 10
3980.1006591595701138
 20
176.8096303556060036
 30
0.0
 40
0.0331023839854931
 50
1.0455674287506249
 51
23.1000344091279288
  0
ARC
  5
897B
  8
0
 10
3980.1291792972269832
 20
176.8227997802381992
 30
0.0
 40
0.0133729365137121
 50
210.2804305805773026
 51
290.0133190390068876
  0
ARC
  5
897C
  8
0
 10
3980.4557850705018609
 20
177.0144510072315995
 30
0.0
 40
0.3920568430792675
 50
202.0953902132656026
 51
210.4000506342256926
  0
ARC
  5
897D
  8
0
 10
3980.3129069723718203
 20
176.9683304194705897
 30
0.0
 40
0.2425736205276728
 50
192.8422796593835074
 51
204.6968682171209082
  0
ARC
  5
897E
  8
0
 10
3980.0894275592440863
 20
176.9161432762201116
 30
0.0
 40
0.0131406477612948
 50
121.4614015667023068
 51
187.5616444830403111
  0
LINE
  5
897F
  8
0
 10
3980.0825691391660257
 20
176.927352143139899
 30
0.0
 11
3980.130920578767018
 21
176.9553586215403129
 31
0.0
  0
ARC
  5
8980
  8
0
 10
3979.3920916081369796
 20
176.5706922966228944
 30
0.0
 40
0.8329684444005131
 50
18.1644810156196606
 51
27.5034354526471212
  0
LINE
  5
8981
  8
0
 10
3980.1835494804149675
 20
176.8303668346194115
 30
0.0
 11
3980.1337560319789191
 21
176.8102343940520029
 31
0.0
  0
ARC
  5
8982
  8
0
 10
3980.0878436533671447
 20
176.8860474086318959
 30
0.0
 40
0.0013435953582373
 50
30.272173247771299
 51
78.1915851115635832
  0
ARC
  5
8983
  8
0
 10
3980.0242494601811813
 20
176.8439604694974889
 30
0.0
 40
0.0776011393365552
 50
24.0828045623016997
 51
33.4409784764533029
  0
ARC
  5
8984
  8
0
 10
3979.8167743511207846
 20
176.7444611941191965
 30
0.0
 40
0.3076802616585681
 50
20.8454611826881084
 51
25.2331474006064305
  0
ARC
  5
8985
  8
0
 10
3980.0045509887017943
 20
176.8144993353454026
 30
0.0
 40
0.1072805303434416
 50
15.4929749595972801
 51
21.5752147814395983
  0
ARC
  5
8986
  8
0
 10
3980.1008615988198471
 20
176.8407457157038039
 30
0.0
 40
0.0074712062900066
 50
357.9096176938048188
 51
18.8219178307962203
  0
ARC
  5
8987
  8
0
 10
3980.1080669625421251
 20
176.8404694857991046
 30
0.0
 40
0.0002608972950245
 50
295.8658069913402073
 51
0.8157442060914849
  0
ARC
  5
8988
  8
0
 10
3980.1083075390320118
 20
176.8412177093680953
 30
0.0
 40
0.0009911226637596
 50
207.0784782749082069
 51
262.6522328014431196
  0
ARC
  5
8989
  8
0
 10
3980.2990114035101215
 20
176.9504911191247913
 30
0.0
 40
0.2207822694926258
 50
196.9710258703593126
 51
209.8004606092895017
  0
ARC
  5
898A
  8
0
 10
3980.0884657617748417
 20
176.8866036701330984
 30
0.0
 40
0.0008345332398803
 50
114.5815125144352038
 51
221.8016577082676974
  0
ARC
  5
898B
  8
0
 10
3979.074158177245863
 20
176.4050385809046873
 30
0.0
 40
1.115793324263854
 50
20.8254886703739288
 51
27.3908314997935705
  0
ARC
  5
898C
  8
0
 10
3980.0710019745401951
 20
176.9079296517174953
 30
0.0
 40
0.0121117923776405
 50
120.4778336086442039
 51
192.8967794007257908
  0
ARC
  5
898D
  8
0
 10
3980.8524143060258211
 20
177.1923920692688057
 30
0.0
 40
0.8436017774568902
 50
199.902024516913599
 51
207.1814406959848043
  0
ARC
  5
898E
  8
0
 10
3980.1125958977559094
 20
176.8131452939524024
 30
0.0
 40
0.0122563212599667
 50
209.9494088199392934
 51
291.3302889970610181
  0
ARC
  5
898F
  8
0
 10
3980.0707449776828071
 20
176.8784518016192067
 30
0.0
 40
0.0000754517205515
 50
42.7133406823860327
 51
116.5917811090587008
  0
ARC
  5
8990
  8
0
 10
3980.026892643660176
 20
176.8512207902892897
 30
0.0
 40
0.0516934281101734
 50
24.3454379502971783
 51
31.8548446290293192
  0
ARC
  5
8991
  8
0
 10
3979.4708280653399015
 20
176.5881726539830083
 30
0.0
 40
0.6668305746989988
 50
22.1160169019694486
 51
25.2413556218280206
  0
ARC
  5
8992
  8
0
 10
3979.9356109310051579
 20
176.7773110466937965
 30
0.0
 40
0.1650375770445627
 50
20.2308887370225285
 51
22.0329500395996014
  0
ARC
  5
8993
  8
0
 10
3980.0579171267768288
 20
176.8222668932127135
 30
0.0
 40
0.0347311134027659
 50
17.107152123162269
 51
20.4150124258475891
  0
ARC
  5
8994
  8
0
 10
3980.0842874118939108
 20
176.8304041447078987
 30
0.0
 40
0.0071339247567267
 50
12.4107303116600391
 51
16.9452697986057785
  0
ARC
  5
8995
  8
0
 10
3980.0900742114081368
 20
176.8316654789335871
 30
0.0
 40
0.0012113249456185
 50
0.07105445122026
 51
12.9702664632754807
  0
ARC
  5
8996
  8
0
 10
3980.0912284111250301
 20
176.8316625012919019
 30
0.0
 40
0.0000572996893425
 50
252.3515411551331908
 51
4.4841167578568166
  0
ARC
  5
8997
  8
0
 10
3980.0753174830201715
 20
176.8219021243477869
 30
0.0
 40
0.0185841823886272
 50
31.8788865287508401
 51
34.1177316748291233
  0
ARC
  5
8998
  8
0
 10
3980.0913042580209549
 20
176.8318166496426045
 30
0.0
 40
0.0002286193523324
 50
205.867744744485293
 51
245.936635955317513
  0
ARC
  5
8999
  8
0
 10
3980.6489545330418878
 20
177.1057466864943137
 30
0.0
 40
0.6216137119882236
 50
201.8190363749237122
 51
206.0947206178238957
  0
ARC
  5
899A
  8
0
 10
3980.1119186760802222
 20
176.8902416088837128
 30
0.0
 40
0.0429541889142441
 50
196.9432136635911945
 51
201.2010305052145895
  0
ARC
  5
899B
  8
0
 10
3980.0728801928698886
 20
176.8785167649132859
 30
0.0
 40
0.0021991981176076
 50
182.3416703950935869
 51
201.1369482766735928
  0
ARC
  5
899C
  8
0
 10
3980.0707840119739558
 20
176.8784463674979861
 30
0.0
 40
0.000103034849318
 50
134.962395539280692
 51
190.8858767213066017
  0
LINE
  5
899D
  8
0
 10
3980.0648588118151565
 20
176.9183679018740918
 30
0.0
 11
3980.1107470016440857
 21
176.9450048997746876
 31
0.0
  0
LINE
  5
899E
  8
0
 10
3980.1107470016440857
 20
176.9450048997746876
 30
0.0
 11
3980.1112544704319589
 21
176.9439674728413081
 31
0.0
  0
LINE
  5
899F
  8
0
 10
3980.1170540575399173
 20
176.8017285421302915
 30
0.0
 11
3980.1641275487668281
 21
176.8208754610402877
 31
0.0
  0
LINE
  5
89A0
  8
0
 10
3980.1641275487668281
 20
176.8208754610402877
 30
0.0
 11
3980.1635583760898953
 21
176.8222830117134095
 31
0.0
  0
ARC
  5
89A1
  8
0
 10
3980.2245200356828718
 20
176.6166181165044975
 30
0.0
 40
0.0011484336652129
 50
37.8222742989218403
 51
92.0503089148908487
  0
ARC
  5
89A2
  8
0
 10
3980.1639622740158302
 20
176.5706293678946111
 30
0.0
 40
0.077189197685181
 50
25.5317435074270804
 51
37.2228010092025627
  0
ARC
  5
89A3
  8
0
 10
3980.0343168218560095
 20
176.5012610003618079
 30
0.0
 40
0.2241734854724668
 50
22.0828191632742694
 51
27.248440708135039
  0
ARC
  5
89A4
  8
0
 10
3980.1414776170850018
 20
176.5430003176350908
 30
0.0
 40
0.1091939690717305
 50
18.4219006071242113
 51
22.92729410326438
  0
ARC
  5
89A5
  8
0
 10
3980.2077684668897746
 20
176.5649567883139071
 30
0.0
 40
0.0393618478160238
 50
13.4865247292184307
 51
18.5927424439912414
  0
ARC
  5
89A6
  8
0
 10
3980.2383528415921319
 20
176.5720565653066956
 30
0.0
 40
0.0079683422557082
 50
359.9999999996937845
 51
15.1318249446508499
  0
ARC
  5
89A7
  8
0
 10
3980.245705961333897
 20
176.5719950164383079
 30
0.0
 40
0.000618293624011
 50
307.28216335330319
 51
5.7130474184987028
  0
ARC
  5
89A8
  8
0
 10
3980.2460636625942243
 20
176.5726050491759906
 30
0.0
 40
0.0011021139597947
 50
211.3053804624962879
 51
270.8746853692640002
  0
ARC
  5
89A9
  8
0
 10
3980.3948747500890022
 20
176.6704574662074947
 30
0.0
 40
0.1792020656684509
 50
198.6565324632794898
 51
213.3149517264762096
  0
ARC
  5
89AA
  8
0
 10
3980.2402687420458278
 20
176.6183726246702008
 30
0.0
 40
0.0160588331227852
 50
184.3131451615635115
 51
199.0476745508333067
  0
ARC
  5
89AB
  8
0
 10
3980.2248857531521935
 20
176.6172724242443905
 30
0.0
 40
0.0006394721843227
 50
129.5058822585806126
 51
189.6818282775338957
  0
ARC
  5
89AC
  8
0
 10
3980.104707732334191
 20
176.5600652772810122
 30
0.0
 40
0.1492949755697298
 50
24.0473555284221483
 51
40.6589441912898693
  0
ARC
  5
89AD
  8
0
 10
3979.6180714498241286
 20
176.3041605547562938
 30
0.0
 40
0.6988714617990683
 50
23.2852475589495711
 51
26.9503394593375809
  0
ARC
  5
89AE
  8
0
 10
3980.0133364040962078
 20
176.4694529028753891
 30
0.0
 40
0.27049615748527
 50
17.1029162276548696
 51
24.2221170610427414
  0
ARC
  5
89AF
  8
0
 10
3980.2475413085521723
 20
176.5413499436299105
 30
0.0
 40
0.0255046228602065
 50
4.4342666878097727
 51
17.4611578050362297
  0
ARC
  5
89B0
  8
0
 10
3980.2712333167291945
 20
176.5431650191958113
 30
0.0
 40
0.0017433393017369
 50
316.4138448755654167
 51
5.1610639158228002
  0
ARC
  5
89B1
  8
0
 10
3980.2677230202120882
 20
176.554187667738006
 30
0.0
 40
0.0131233609883003
 50
263.7804493800508112
 51
291.3280590394510909
  0
ARC
  5
89B2
  8
0
 10
3980.2728385053960665
 20
176.5638221682106064
 30
0.0
 40
0.0236039422913161
 50
205.5495177627500141
 51
253.9213921577535871
  0
ARC
  5
89B3
  8
0
 10
3980.6373807698591918
 20
176.7841285184065896
 30
0.0
 40
0.4494385742888415
 50
200.6421384791003106
 51
210.852657835755906
  0
ARC
  5
89B4
  8
0
 10
3980.2838295790470511
 20
176.6529972617209125
 30
0.0
 40
0.0723830805849707
 50
184.9816461201735081
 51
202.1658375024331065
  0
ARC
  5
89B5
  8
0
 10
3980.2249391143877801
 20
176.6460935113713902
 30
0.0
 40
0.0132336431413981
 50
121.8125242723340023
 51
177.3222861945461943
  0
ARC
  5
89B6
  8
0
 10
3980.2608581804770438
 20
176.6457310573509005
 30
0.0
 40
0.0050361421102053
 50
37.3615989549704892
 51
92.793718461486236
  0
ARC
  5
89B7
  8
0
 10
3980.1955078487180799
 20
176.5883135730034894
 30
0.0
 40
0.0920158787428795
 50
27.2743809774673309
 51
41.0873359338590305
  0
ARC
  5
89B8
  8
0
 10
3980.1003210554558791
 20
176.5354191756721889
 30
0.0
 40
0.2008876641566366
 50
18.6748567478055705
 51
28.2424859014358596
  0
ARC
  5
89B9
  8
0
 10
3980.264067592479023
 20
176.6475025511969079
 30
0.0
 40
0.004749215043746
 50
136.6740696824950874
 51
192.6104168517954918
  0
ARC
  5
89BA
  8
0
 10
3980.3550298111881602
 20
176.6601366641451136
 30
0.0
 40
0.0965694393173317
 50
188.1384833480668988
 51
202.2681172406871895
  0
ARC
  5
89BB
  8
0
 10
3980.5522639007749603
 20
176.7389245726068054
 30
0.0
 40
0.3089553520788417
 50
201.9290809344894058
 51
207.9644762571433887
  0
ARC
  5
89BC
  8
0
 10
3980.5898228406072121
 20
176.803487284932686
 30
0.0
 40
0.3744835651110796
 50
214.005675489106892
 51
215.8505040414696907
  0
ARC
  5
89BD
  8
0
 10
3980.1931157561380132
 20
176.5668099064706951
 30
0.0
 40
0.1029272987370855
 50
13.1903312413757305
 51
18.6607038566003212
  0
ARC
  5
89BE
  8
0
 10
3980.2570797001790197
 20
176.5811912683840887
 30
0.0
 40
0.0373739716005201
 50
2.9530918955403549
 51
14.1006404900882103
  0
ARC
  5
89BF
  8
0
 10
3980.3056944907580146
 20
176.5985333415399907
 30
0.0
 40
0.0241497065919634
 50
216.51752674028819
 51
231.3311727654578078
  0
ARC
  5
89C0
  8
0
 10
3980.2929918196468861
 20
176.5826926933094967
 30
0.0
 40
0.0038449931163579
 50
231.6343730235145983
 51
264.1845537350035897
  0
ARC
  5
89C1
  8
0
 10
3980.2926222333758233
 20
176.5802282491964945
 30
0.0
 40
0.0013609075267068
 50
269.157704890399998
 51
330.2789766042423025
  0
ARC
  5
89C2
  8
0
 10
3980.2876109842168262
 20
176.5824283641358079
 30
0.0
 40
0.0068278433705789
 50
335.0994748713019931
 51
5.7861116462664279
  0
ARC
  5
89C3
  8
0
 10
3980.2429084836658149
 20
176.7150735614679888
 30
0.0
 40
0.0062657342319356
 50
48.2107820965852625
 51
111.2325021601266002
  0
ARC
  5
89C4
  8
0
 10
3980.0825067029782076
 20
176.559448639288803
 30
0.0
 40
0.2297404630059193
 50
24.4117348995403205
 51
44.2451116348882465
  0
ARC
  5
89C5
  8
0
 10
3979.7622723642448364
 20
176.3817030308146059
 30
0.0
 40
0.595537532409857
 50
18.6998018575202316
 51
27.2515322804657814
  0
ARC
  5
89C6
  8
0
 10
3980.1058298296929934
 20
176.4960061926481956
 30
0.0
 40
0.2334768430434551
 50
10.10577209129195
 51
19.1608209369094595
  0
ARC
  5
89C7
  8
0
 10
3980.3145715707792078
 20
176.5303317687213109
 30
0.0
 40
0.0221328484696643
 50
329.813133831239611
 51
17.4624701815076584
  0
ARC
  5
89C8
  8
0
 10
3980.3274802337641631
 20
176.5381201999273912
 30
0.0
 40
0.0199144989516852
 50
220.2562848792944976
 51
288.208354286405779
  0
ARC
  5
89C9
  8
0
 10
3980.6639674081479825
 20
176.796786396029006
 30
0.0
 40
0.4443126805188277
 50
196.6690194100814892
 51
217.6716273487562034
  0
ARC
  5
89CA
  8
0
 10
3980.3101106486901699
 20
176.6987094279037933
 30
0.0
 40
0.0775610501395647
 50
170.3083205332783905
 51
202.2519465913611043
  0
ARC
  5
89CB
  8
0
 10
3980.2498008919478707
 20
176.7066815118261047
 30
0.0
 40
0.0169262250659918
 50
122.7697621361051006
 51
162.5169908752972106
  0
ARC
  5
89CC
  8
0
 10
3980.4177283802500824
 20
176.3590773058996888
 30
0.0
 40
0.026286856442322
 50
24.8248702015965108
 51
65.7666514201177819
  0
ARC
  5
89CD
  8
0
 10
3980.3540741123588305
 20
176.3165900666797086
 30
0.0
 40
0.1025824082028036
 50
19.292993551050909
 51
31.4505634211902994
  0
ARC
  5
89CE
  8
0
 10
3980.4334860483818375
 20
176.3416709473266053
 30
0.0
 40
0.0195127948878938
 50
353.1114198532358159
 51
26.8472200071150588
  0
ARC
  5
89CF
  8
0
 10
3980.4503006156801348
 20
176.3396547557468921
 30
0.0
 40
0.0025778316610566
 50
303.492709160857828
 51
352.7761427453766032
  0
ARC
  5
89D0
  8
0
 10
3980.4510550478707955
 20
176.3403540069483029
 30
0.0
 40
0.0029263345485632
 50
231.2403575748683124
 51
283.1972620743201787
  0
ARC
  5
89D1
  8
0
 10
3980.488646717096799
 20
176.3815244520993133
 30
0.0
 40
0.0586714165245421
 50
203.9729205308298106
 51
227.7829710375307002
  0
ARC
  5
89D2
  8
0
 10
3980.4956762799038188
 20
176.3912832868095109
 30
0.0
 40
0.0693251032550055
 50
191.2749895423532962
 51
208.9885078488283909
  0
ARC
  5
89D3
  8
0
 10
3980.4332729988609572
 20
176.3795828838335069
 30
0.0
 40
0.0058835707701959
 50
143.9200257365276912
 51
198.3667937706705118
  0
ARC
  5
89D4
  8
0
 10
3980.4214747396431449
 20
176.4106353046296078
 30
0.0
 40
0.0118226765307696
 50
32.9351258740202226
 51
92.3464240239447633
  0
ARC
  5
89D5
  8
0
 10
3980.2852328551111896
 20
176.2876527939351092
 30
0.0
 40
0.1952206562757526
 50
25.3539980691966811
 51
41.5208678817076233
  0
ARC
  5
89D6
  8
0
 10
3980.2889267079772253
 20
176.2773906767519918
 30
0.0
 40
0.1965769457334521
 50
12.1542216172451596
 51
28.5196066527926
  0
ARC
  5
89D7
  8
0
 10
3980.4712372488770598
 20
176.3151436703622039
 30
0.0
 40
0.0105087420092152
 50
319.0541195268651791
 51
20.2372377214883912
  0
ARC
  5
89D8
  8
0
 10
3980.4298108760558534
 20
176.4090362031008112
 30
0.0
 40
0.0160519839124368
 50
123.3559141548345934
 51
157.5924678183421861
  0
ARC
  5
89D9
  8
0
 10
3980.4512035797501994
 20
176.4041722502699088
 30
0.0
 40
0.0378494234628452
 50
162.9650688705636981
 51
201.2165675824383015
  0
ARC
  5
89DA
  8
0
 10
3980.609927475639779
 20
176.4481257657768936
 30
0.0
 40
0.2023924050446035
 50
196.5497419005037898
 51
221.0464468612069027
  0
ARC
  5
89DB
  8
0
 10
3980.4735517145231825
 20
176.3284596174495107
 30
0.0
 40
0.0209711692463334
 50
219.1457417365691924
 51
285.5445501611824852
  0
ARC
  5
89DC
  8
0
 10
3980.5293659093299539
 20
176.4190593940566032
 30
0.0
 40
0.0142723435735644
 50
27.5608509863977282
 51
99.8237880489864864
  0
ARC
  5
89DD
  8
0
 10
3980.5424433063958531
 20
176.422868076705214
 30
0.0
 40
0.0185954532055264
 50
146.5337311411265091
 51
206.0249343780133131
  0
ARC
  5
89DE
  8
0
 10
3980.574124271106939
 20
176.4287804458597861
 30
0.0
 40
0.0503952575160156
 50
196.2136434443746964
 51
232.0667127969456942
  0
ARC
  5
89DF
  8
0
 10
3980.5477169136338489
 20
176.3940673146516076
 30
0.0
 40
0.0068015785761851
 50
227.7539268601207141
 51
23.1704252074916113
  0
ARC
  5
89E0
  8
0
 10
3980.5017248125718652
 20
176.392082071782113
 30
0.0
 40
0.0524525967343408
 50
5.0985763861938649
 51
39.807937910690832
  0
ARC
  5
89E1
  8
0
 10
3980.5237706041079946
 20
176.4472436545923131
 30
0.0
 40
0.0262797378277973
 50
38.7563201696267186
 51
96.268805843052931
  0
ARC
  5
89E2
  8
0
 10
3980.444517822931175
 20
176.3635153410380099
 30
0.0
 40
0.141369224817659
 50
4.5691354488762084
 51
45.1242486209603229
  0
ARC
  5
89E3
  8
0
 10
3980.5683396261938469
 20
176.3728394361243943
 30
0.0
 40
0.0172075836269191
 50
304.597609952395203
 51
6.4654857817703242
  0
ARC
  5
89E4
  8
0
 10
3980.569149327453033
 20
176.384117217434607
 30
0.0
 40
0.0269753584804066
 50
233.7735908404887937
 51
289.3845541243559865
  0
ARC
  5
89E5
  8
0
 10
3980.6234043607701096
 20
176.4532351441322078
 30
0.0
 40
0.1148325922379083
 50
180.1440321390622046
 51
232.3166275656355992
  0
ARC
  5
89E6
  8
0
 10
3980.5347392610838142
 20
176.4510792939348107
 30
0.0
 40
0.0262336623427091
 50
121.8366107685558006
 51
175.9185232265886896
  0
ARC
  5
89E7
  8
0
 10
3980.3436108907189919
 20
176.3395418435518991
 30
0.0
 40
0.0002402127140606
 50
42.2468815260968569
 51
111.8545801690789006
  0
ARC
  5
89E8
  8
0
 10
3980.3325254359301653
 20
176.3285142991242935
 30
0.0
 40
0.0158762739123603
 50
30.8415899409458092
 51
44.810580304188619
  0
ARC
  5
89E9
  8
0
 10
3980.1071052761099054
 20
176.1908801349239866
 30
0.0
 40
0.279991829299379
 50
26.9483211242825895
 51
31.3748191807848009
  0
ARC
  5
89EA
  8
0
 10
3980.1362268206030421
 20
176.2035505211464965
 30
0.0
 40
0.2482976710005011
 50
22.5977763734029296
 51
27.3874362741985102
  0
ARC
  5
89EB
  8
0
 10
3980.3373986905648962
 20
176.2872042228885903
 30
0.0
 40
0.0304260988534574
 50
15.7963850724303203
 51
22.7314609914319412
  0
ARC
  5
89EC
  8
0
 10
3980.361691882490959
 20
176.2940304370688125
 30
0.0
 40
0.0051922983648214
 50
5.7893769166830076
 51
16.28918358194408
  0
ARC
  5
89ED
  8
0
 10
3980.3660413838820205
 20
176.294504500474801
 30
0.0
 40
0.0008178244289657
 50
344.5167281108924726
 51
3.4835935777810292
  0
ARC
  5
89EE
  8
0
 10
3980.3724092355619177
 20
176.3004276077253962
 30
0.0
 40
0.0085831395670182
 50
217.3425908517399137
 51
224.156714069853706
  0
ARC
  5
89EF
  8
0
 10
3980.3669770655801585
 20
176.2950882309791041
 30
0.0
 40
0.0009674827568781
 50
221.4023998729940956
 51
250.9839097476964014
  0
ARC
  5
89F0
  8
0
 10
3980.3666898621258952
 20
176.2943129685951931
 30
0.0
 40
0.0001422125998361
 50
258.6301101691311146
 51
349.140886601443583
  0
ARC
  5
89F1
  8
0
 10
3980.5994364732541726
 20
176.442524377459705
 30
0.0
 40
0.276377486506253
 50
202.8772416699463861
 51
212.2068896147112014
  0
ARC
  5
89F2
  8
0
 10
3980.3687027921778281
 20
176.3453268608143958
 30
0.0
 40
0.0260074458651331
 50
194.2735062187346955
 51
203.2024549300558931
  0
ARC
  5
89F3
  8
0
 10
3980.3446661830980702
 20
176.3393080919697979
 30
0.0
 40
0.0012324533551471
 50
158.2497090278463077
 51
198.6144635998149113
  0
ARC
  5
89F4
  8
0
 10
3980.3277623101421341
 20
176.3673134155303046
 30
0.0
 40
0.0142382926110765
 50
29.8128583249035088
 51
54.4692484037503775
  0
ARC
  5
89F5
  8
0
 10
3979.6941507683609416
 20
175.9801827515287869
 30
0.0
 40
0.7567512751895042
 50
22.6083549232522998
 51
31.3942155831900997
  0
ARC
  5
89F6
  8
0
 10
3980.3804167859448171
 20
176.265378360007503
 30
0.0
 40
0.0135950048703075
 50
358.9280509047717942
 51
24.8918988657938591
  0
ARC
  5
89F7
  8
0
 10
3980.342884250215775
 20
176.3679828924101116
 30
0.0
 40
0.0128872592658748
 50
122.0338876319547978
 51
199.4269389510290011
  0
ARC
  5
89F8
  8
0
 10
3980.5948280240309032
 20
176.4556029747153048
 30
0.0
 40
0.2796322335758174
 50
199.1880084822585104
 51
206.0384805964970951
  0
ARC
  5
89F9
  8
0
 10
3980.9993792770451364
 20
176.6451881951576866
 30
0.0
 40
0.7263548363564856
 50
205.4669523483150044
 51
209.5767527898927938
  0
ARC
  5
89FA
  8
0
 10
3980.5011180273481841
 20
176.3603578843286925
 30
0.0
 40
0.1524406530135032
 50
208.9078760298905877
 51
216.0173336471636958
  0
ARC
  5
89FB
  8
0
 10
3980.3961703525151279
 20
176.284866845750912
 30
0.0
 40
0.0231760039870076
 50
217.2983812376980097
 51
232.0743929514794957
  0
ARC
  5
89FC
  8
0
 10
3980.3891064022632236
 20
176.2762210366689999
 30
0.0
 40
0.012017108495903
 50
233.3049332238026921
 51
267.4665874261190197
  0
ARC
  5
89FD
  8
0
 10
3980.3892095704568419
 20
176.2771298216848948
 30
0.0
 40
0.012929718501845
 50
267.1878681595010789
 51
291.791216397645087
  0
ARC
  5
89FE
  8
0
 10
3980.3411001845370265
 20
176.3421590632165135
 30
0.0
 40
0.0072174045403166
 50
126.9765699105801957
 51
202.8040751195632936
  0
ARC
  5
89FF
  8
0
 10
3980.3658250639259677
 20
176.2932591601561967
 30
0.0
 40
0.0070373272807896
 50
209.9507222443156138
 51
286.0201179933407047
  0
ARC
  5
8A00
  8
0
 10
3980.3288224180519137
 20
176.3677444583557872
 30
0.0
 40
0.0078740158719273
 50
118.1546626577915049
 51
206.9999974212234974
  0
ARC
  5
8A01
  8
0
 10
3980.3807335645078638
 20
176.2665522974837131
 30
0.0
 40
0.0085201003303908
 50
190.9235766143056878
 51
293.8272280790257014
  0
ARC
  5
8A02
  8
0
 10
3980.2607146957698205
 20
176.5014133896505086
 30
0.0
 40
0.0078740157975002
 50
118.1546628893549951
 51
206.9999950705536946
  0
ARC
  5
8A03
  8
0
 10
3980.3112759186269614
 20
176.4021814026258994
 30
0.0
 40
0.007874015926898
 50
207.0000030538188867
 51
295.8453371879105021
  0
ARC
  5
8A04
  8
0
 10
3980.2731841621812237
 20
176.47586495270059
 30
0.0
 40
0.0074085538587501
 50
114.284822215870804
 51
202.492947173230192
  0
ARC
  5
8A05
  8
0
 10
3980.2979361293218972
 20
176.4272862588387056
 30
0.0
 40
0.0074084438900957
 50
211.5062288916402906
 51
299.7160026195610953
  0
ARC
  5
8A06
  8
0
 10
3989.313019674854786
 20
181.2019431790916997
 30
0.0
 40
10.1535634200545406
 50
207.3934995967412931
 51
207.5955779017915006
  0
ARC
  5
8A07
  8
0
 10
3979.4052459155209363
 20
176.0137568450525976
 30
0.0
 40
1.0304380085152669
 50
24.51480491376849
 51
28.043136089648911
  0
ARC
  5
8A08
  8
0
 10
3980.0129428584650668
 20
176.2746901203526022
 30
0.0
 40
0.3695479071039074
 50
22.2472980786431798
 51
26.8006642086279392
  0
ARC
  5
8A09
  8
0
 10
3979.585814126835885
 20
175.9244967877309023
 30
0.0
 40
0.9310904871447835
 50
22.8597929631584087
 51
31.1912745775006712
  0
ARC
  5
8A0A
  8
0
 10
3980.2862607974188904
 20
176.281831901775405
 30
0.0
 40
0.2578349048946496
 50
11.3233482221448192
 51
42.6963608253775035
  0
ARC
  5
8A0B
  8
0
 10
3980.5197277149982256
 20
176.4008373907348073
 30
0.0
 40
0.131717081297617
 50
354.4264439471410242
 51
59.5743765784192902
  0
ARC
  5
8A0C
  8
0
 10
3979.8604569841868397
 20
175.9230601798105056
 30
0.0
 40
0.665203961873915
 50
27.2916366223452513
 51
30.3911586565345999
  0
ARC
  5
8A0D
  8
0
 10
3979.1565928470590734
 20
175.5173386576965981
 30
0.0
 40
1.477232526110734
 50
26.2903950324919293
 51
28.758781765766841
  0
ARC
  5
8A0E
  8
0
 10
3980.0448605167130154
 20
175.9404062783887923
 30
0.0
 40
0.4936633192537978
 50
25.9249764105662592
 51
27.9301795807528492
  0
ARC
  5
8A0F
  8
0
 10
3980.5138057768799627
 20
176.1573371710749996
 30
0.0
 40
0.0249850387346494
 50
122.1485855371881968
 51
182.5332315657641971
  0
ARC
  5
8A10
  8
0
 10
3980.5020523912480712
 20
176.1752395358367949
 30
0.0
 40
0.0035986490958059
 50
66.1510990979712972
 51
115.3644801801530946
  0
ARC
  5
8A11
  8
0
 10
3980.4837317104811518
 20
176.1410465450981064
 30
0.0
 40
0.0423810871825486
 50
41.615197879744052
 51
62.1851201013653991
  0
ARC
  5
8A12
  8
0
 10
3980.1018045990140308
 20
175.8269323022541073
 30
0.0
 40
0.5368587315182093
 50
19.0750358537773508
 51
39.6074702556873817
  0
ARC
  5
8A13
  8
0
 10
3980.5737518397891108
 20
175.9902487726139952
 30
0.0
 40
0.0374528022829556
 50
353.8054695859698882
 51
18.9010484974154487
  0
ARC
  5
8A14
  8
0
 10
3980.6061768048680278
 20
175.9875801951455117
 30
0.0
 40
0.0050012455244003
 50
274.4526831643863147
 51
344.0689153725405731
  0
ARC
  5
8A15
  8
0
 10
3980.5996788908469171
 20
176.0098609429045098
 30
0.0
 40
0.0281230040950951
 50
229.1057676499781905
 51
284.1735410634797745
  0
ARC
  5
8A16
  8
0
 10
3980.664075173504898
 20
176.0898625375131985
 30
0.0
 40
0.1308079549774903
 50
217.4259799865384082
 51
230.7248075886633103
  0
ARC
  5
8A17
  8
0
 10
3980.9510429409288008
 20
176.3050840027254935
 30
0.0
 40
0.4895105245102233
 50
201.8488346667859901
 51
217.0180845898983932
  0
ARC
  5
8A18
  8
0
 10
3980.5830983912610463
 20
176.1608465999559883
 30
0.0
 40
0.0943660913129608
 50
182.8024172666137872
 51
203.7053973967441038
  0
ARC
  5
8A19
  8
0
 10
3980.519266230300218
 20
176.1044592657607097
 30
0.0
 40
0.0022903645092161
 50
58.2738770473241274
 51
110.5681967236402983
  0
ARC
  5
8A1A
  8
0
 10
3980.4863688055629609
 20
176.0610134654519072
 30
0.0
 40
0.0567762539016347
 50
32.6266342018829931
 51
53.0845731344413778
  0
ARC
  5
8A1B
  8
0
 10
3980.3691617477120417
 20
175.9759069723303924
 30
0.0
 40
0.2015530770529442
 50
27.4286456625731603
 51
35.0388821701815871
  0
ARC
  5
8A1C
  8
0
 10
3980.4273950687570505
 20
176.0043313969933081
 30
0.0
 40
0.1367818224689121
 50
19.3420018377390797
 51
28.0970794658376093
  0
ARC
  5
8A1D
  8
0
 10
3980.5175957786927938
 20
176.0359940032346913
 30
0.0
 40
0.0411853334849591
 50
10.0466454689928195
 51
19.3413256076112283
  0
ARC
  5
8A1E
  8
0
 10
3980.5465423798991651
 20
176.0409200907388936
 30
0.0
 40
0.0118249201164454
 50
355.8987987130719262
 51
11.0117844666511999
  0
ARC
  5
8A1F
  8
0
 10
3980.554666253187861
 20
176.0402930478439032
 30
0.0
 40
0.0036772731165714
 50
335.6906188196206813
 51
356.5910994939687271
  0
ARC
  5
8A20
  8
0
 10
3980.5566978140541323
 20
176.0393104278614089
 30
0.0
 40
0.0014225614196333
 50
271.2326089524545978
 51
338.0748473664435778
  0
ARC
  5
8A21
  8
0
 10
3980.55749618963182
 20
176.0437718397780031
 30
0.0
 40
0.0059335266685002
 50
230.1149172858661984
 51
262.5653517027034809
  0
ARC
  5
8A22
  8
0
 10
3980.6573901427509554
 20
176.1389322136215014
 30
0.0
 40
0.1438617414383914
 50
207.2676140239302924
 51
223.8775440623844872
  0
ARC
  5
8A23
  8
0
 10
3980.6385434584490213
 20
176.1356617590145106
 30
0.0
 40
0.1257415322003513
 50
197.1846409340539878
 51
209.8783396859921879
  0
ARC
  5
8A24
  8
0
 10
3980.534413224068885
 20
176.1039821672268886
 30
0.0
 40
0.0169075231750041
 50
177.0658312817242859
 51
198.8797609977854961
  0
ARC
  5
8A25
  8
0
 10
3980.5197901439341877
 20
176.1047709593059949
 30
0.0
 40
0.0022635765473324
 50
125.9397088722157036
 51
178.0587234516619901
  0
ARC
  5
8A26
  8
0
 10
3980.4888707843438169
 20
176.1172496742275939
 30
0.0
 40
0.000742244299016
 50
62.5974164884548472
 51
115.2272367830474025
  0
ARC
  5
8A27
  8
0
 10
3980.4723914488358787
 20
176.095699736695309
 30
0.0
 40
0.0278599959193842
 50
32.3356983956736812
 51
52.8598324558677035
  0
ARC
  5
8A28
  8
0
 10
3980.2865093440541386
 20
175.9592496533200858
 30
0.0
 40
0.2583889829567665
 50
32.0992362756680478
 51
35.8561176920983584
  0
ARC
  5
8A29
  8
0
 10
3980.0206269471109408
 20
175.7916538498463979
 30
0.0
 40
0.5726843668220689
 50
30.1158242096555604
 51
32.1681432157360803
  0
ARC
  5
8A2A
  8
0
 10
3979.9075745963591544
 20
175.7262053933999937
 30
0.0
 40
0.7033148554899816
 50
27.0469004975990295
 51
30.1068450337252393
  0
ARC
  5
8A2B
  8
0
 10
3980.1996480524021536
 20
175.873083305447409
 30
0.0
 40
0.3764011532523367
 50
22.7334495330412807
 51
27.3508856056571013
  0
ARC
  5
8A2C
  8
0
 10
3980.4807336896751622
 20
175.9908637084753025
 30
0.0
 40
0.0716367219161519
 50
14.44207199239038
 51
22.7283792807647806
  0
ARC
  5
8A2D
  8
0
 10
3980.5462858638161379
 20
176.0075848324597985
 30
0.0
 40
0.0039887650532012
 50
334.865130181924485
 51
16.6840403545596203
  0
ARC
  5
8A2E
  8
0
 10
3980.5448483131081048
 20
176.0177785935385941
 30
0.0
 40
0.0129156070796734
 50
234.0507234042779885
 51
293.0100809984006105
  0
ARC
  5
8A2F
  8
0
 10
3980.625748599299186
 20
176.0956368919187867
 30
0.0
 40
0.1250141294621874
 50
210.7525429944315079
 51
224.945336083904607
  0
ARC
  5
8A30
  8
0
 10
3981.1216647027231375
 20
176.3991269016092076
 30
0.0
 40
0.7064173447992914
 50
206.3456482908991063
 51
211.3395271411561964
  0
ARC
  5
8A31
  8
0
 10
3980.5279624853142195
 20
176.1076928833699071
 30
0.0
 40
0.045106302279191
 50
176.3208390593017896
 51
209.2845278469783921
  0
ARC
  5
8A32
  8
0
 10
3980.4960681343832221
 20
176.1063693555855991
 30
0.0
 40
0.0137803891443481
 50
123.0414733170272967
 51
162.176549923298694
  0
ARC
  5
8A33
  8
0
 10
3980.3676798412780045
 20
175.9915109775980966
 30
0.0
 40
0.2932125091297327
 50
23.8906141604560389
 51
49.2575089136595423
  0
ARC
  5
8A34
  8
0
 10
3980.3459536417699383
 20
175.9389392009211122
 30
0.0
 40
0.3366663213451267
 50
12.4233152019004205
 51
30.5887981976312489
  0
ARC
  5
8A35
  8
0
 10
3980.398289389688216
 20
176.2314078501254926
 30
0.0
 40
0.0078740159158925
 50
118.1546627720364029
 51
206.9999991799809891
  0
ARC
  5
8A36
  8
0
 10
3980.4108890606680689
 20
176.2058078323636892
 30
0.0
 40
0.0075097526886225
 50
115.0284861955698972
 51
201.749282160594305
  0
ARC
  5
8A37
  8
0
 10
3980.435510823138884
 20
176.157280719323694
 30
0.0
 40
0.0074084437816247
 50
211.5062284537195865
 51
299.7160029447629199
  0
ARC
  5
8A38
  8
0
 10
3980.4488506124739615
 20
176.1321758631634964
 30
0.0
 40
0.007874015850621
 50
207.0000028282127005
 51
295.845337083370282
  0
ARC
  5
8A39
  8
0
 10
3980.4663342815620126
 20
176.0977909594624009
 30
0.0
 40
0.0077985471190983
 50
117.9280766359047021
 51
203.2470414460015888
  0
ARC
  5
8A3A
  8
0
 10
3980.478866578313955
 20
176.0721904819855865
 30
0.0
 40
0.0074085538446671
 50
114.284821691463307
 51
202.4929462553442931
  0
ARC
  5
8A3B
  8
0
 10
3980.5036185453382132
 20
176.0236117878795881
 30
0.0
 40
0.0074084436194808
 50
211.5062282797186981
 51
299.7160045560818276
  0
ARC
  5
8A3C
  8
0
 10
3980.517640500564994
 20
175.9974096362896034
 30
0.0
 40
0.0080864774604118
 50
197.8539092430874007
 51
295.0984721582318002
  0
ARC
  5
8A3D
  8
0
 10
3980.6136233288461881
 20
175.8293460559085872
 30
0.0
 40
0.0118667533648288
 50
121.8848046506244032
 51
182.3199762748255921
  0
ARC
  5
8A3E
  8
0
 10
3980.6340258969471506
 20
175.8340392439407083
 30
0.0
 40
0.0326823534794226
 50
189.2647337779276029
 51
211.693734090618193
  0
ARC
  5
8A3F
  8
0
 10
3981.6552767655039133
 20
176.3765409511177893
 30
0.0
 40
1.1889884939520301
 50
208.0798663122386927
 51
212.0332730663147913
  0
ARC
  5
8A40
  8
0
 10
3980.7660659676530486
 20
175.8178623149865984
 30
0.0
 40
0.1388530054775853
 50
211.2217762806733958
 51
218.3849783643541969
  0
ARC
  5
8A41
  8
0
 10
3980.6662302520689991
 20
175.7398207987828869
 30
0.0
 40
0.0121714945059022
 50
220.5648615099777032
 51
293.3413229545810168
  0
ARC
  5
8A42
  8
0
 10
3980.6620351025580931
 20
175.727346213511197
 30
0.0
 40
0.0091107087120781
 50
8.1981835637378264
 51
31.6688365912145606
  0
ARC
  5
8A43
  8
0
 10
3980.3989847118727994
 20
175.601375191121889
 30
0.0
 40
0.3007187007006487
 50
25.7729344062446302
 51
28.8724098745664186
  0
ARC
  5
8A44
  8
0
 10
3978.9839679264050574
 20
174.830555366875501
 30
0.0
 40
1.912061307513591
 50
28.6251534548428808
 51
30.4781010615149199
  0
ARC
  5
8A45
  8
0
 10
3980.2802547220771885
 20
175.6072573040837028
 30
0.0
 40
0.4011175105689446
 50
28.7792868290788491
 51
35.3658700873872434
  0
ARC
  5
8A46
  8
0
 10
3980.6164013931029331
 20
175.8009082198236968
 30
0.0
 40
0.0000887425462533
 50
56.1189068240840783
 51
103.248414669220395
  0
ARC
  5
8A47
  8
0
 10
3980.6142316516547908
 20
175.7984672766183962
 30
0.0
 40
0.0033538341256015
 50
36.2041400658633705
 51
48.5707988582652206
  0
ARC
  5
8A48
  8
0
 10
3980.5612160074670101
 20
175.759496882700887
 30
0.0
 40
0.0691516250652189
 50
31.5710581954628893
 51
36.3130674268144915
  0
ARC
  5
8A49
  8
0
 10
3980.1623106014030782
 20
175.5071043251633967
 30
0.0
 40
0.5411925497071058
 50
30.3827836652937293
 51
32.2261032520236483
  0
ARC
  5
8A4A
  8
0
 10
3980.0494195159590163
 20
175.4385496416759906
 30
0.0
 40
0.6732561285262212
 50
28.9553956403561301
 51
30.5565901642845112
  0
ARC
  5
8A4B
  8
0
 10
3980.4763269991108245
 20
175.6758464153581087
 30
0.0
 40
0.1848337394263566
 50
27.20262261173756
 51
28.6591022710728716
  0
ARC
  5
8A4C
  8
0
 10
3980.5840157550428557
 20
175.7309737027451888
 30
0.0
 40
0.0638553461133819
 50
25.0071977276865702
 51
27.3809406754280715
  0
ARC
  5
8A4D
  8
0
 10
3980.632453086201167
 20
175.7538010436610136
 30
0.0
 40
0.0103111042671971
 50
19.46182436137547
 51
23.8325976532487189
  0
ARC
  5
8A4E
  8
0
 10
3980.6431139128171708
 20
175.7580422000679903
 30
0.0
 40
0.0015363439799958
 50
220.5155274585505083
 51
233.4655573538884994
  0
ARC
  5
8A4F
  8
0
 10
3980.6422319497028184
 20
175.7568585392878049
 30
0.0
 40
0.0000603694523457
 50
237.28025437217849
 51
319.8401050394807044
  0
ARC
  5
8A50
  8
0
 10
3980.6421551060611819
 20
175.756886559568386
 30
0.0
 40
0.000140025419843
 50
331.4349968864211746
 51
26.4229749600848507
  0
ARC
  5
8A51
  8
0
 10
3980.6216011065548628
 20
175.7495300688021018
 30
0.0
 40
0.0219698900880604
 50
19.7356143905147583
 51
20.5345218869833488
  0
ARC
  5
8A52
  8
0
 10
3981.0918293763838847
 20
176.0515619642928868
 30
0.0
 40
0.5377135629146151
 50
208.4711472615194054
 51
213.2109118434999004
  0
ARC
  5
8A53
  8
0
 10
3980.6775602035741031
 20
175.8284713928485132
 30
0.0
 40
0.0672105068969859
 50
205.6354109511981108
 51
209.6471643942886942
  0
ARC
  5
8A54
  8
0
 10
3980.6359531205871463
 20
175.8081499177974081
 30
0.0
 40
0.0209095103389339
 50
200.7444766769129103
 51
204.758184427393104
  0
ARC
  5
8A55
  8
0
 10
3980.6169033354358362
 20
175.8010009003284893
 30
0.0
 40
0.0005659430475417
 50
190.7964913093346127
 51
207.024764453243705
  0
ARC
  5
8A56
  8
0
 10
3980.6164304419030486
 20
175.8009224036640887
 30
0.0
 40
0.0000874722197487
 50
124.3740593832714012
 51
198.334712118550101
  0
ARC
  5
8A57
  8
0
 10
3980.6242753777419239
 20
175.8470009709488977
 30
0.0
 40
0.0009102215745353
 50
44.5174956772008699
 51
102.216422834175205
  0
ARC
  5
8A58
  8
0
 10
3980.1511158672437887
 20
175.4911486665355085
 30
0.0
 40
0.5929418106114209
 50
28.1567077102510694
 51
36.9575668280388427
  0
ARC
  5
8A59
  8
0
 10
3980.2164875352182207
 20
175.52153268559249
 30
0.0
 40
0.5209842705257878
 50
27.0345798639161714
 51
28.6031581917728488
  0
ARC
  5
8A5A
  8
0
 10
3980.630655519166794
 20
175.8375225091729135
 30
0.0
 40
0.0122740408444197
 50
122.4353875543269936
 51
158.7087545846507908
  0
ARC
  5
8A5B
  8
0
 10
3980.6341074369911439
 20
175.8367243672807092
 30
0.0
 40
0.0157854452477542
 50
160.2353885308901056
 51
204.780828182810609
  0
ARC
  5
8A5C
  8
0
 10
3980.8381718057457874
 20
175.9207300225019139
 30
0.0
 40
0.2364514514596006
 50
202.5356864540021888
 51
209.7550667970569975
  0
ARC
  5
8A5D
  8
0
 10
3980.8600996098830365
 20
175.9142068040684137
 30
0.0
 40
0.2527928115112278
 50
206.0022627519896048
 51
215.8301514191844035
  0
ARC
  5
8A5E
  8
0
 10
3980.8166232915828004
 20
175.8649920950012131
 30
0.0
 40
0.1892217460019387
 50
211.451162717114812
 51
220.3519863877747866
  0
ARC
  5
8A5F
  8
0
 10
3980.684802311689964
 20
175.7524576444949957
 30
0.0
 40
0.0159047380019306
 50
218.8793420049640872
 51
259.2875015566818888
  0
ARC
  5
8A60
  8
0
 10
3980.6837263926140622
 20
175.7489502541884008
 30
0.0
 40
0.0122651760886842
 50
261.1807573864672918
 51
293.9258724570532877
  0
ARC
  5
8A61
  8
0
 10
3980.5097598198021842
 20
175.6694062500775999
 30
0.0
 40
0.1925509763274319
 50
22.6232486789984399
 51
27.5061443803355203
  0
ARC
  5
8A62
  8
0
 10
3980.6625601409541559
 20
175.7330197874007922
 30
0.0
 40
0.0270378483453592
 50
12.9885262719595005
 51
22.7481498362820496
  0
ARC
  5
8A63
  8
0
 10
3980.6884739995412019
 20
175.738134574730509
 30
0.0
 40
0.0004558632703732
 50
299.8053376729565116
 51
352.729527316462395
  0
ARC
  5
8A64
  8
0
 10
3980.6865116168360146
 20
175.738539709446286
 30
0.0
 40
0.0024585377451487
 50
349.1491828603672047
 51
13.0943497350064906
  0
ARC
  5
8A65
  8
0
 10
3980.6332501504471111
 20
175.8083067033248028
 30
0.0
 40
0.0012561271586111
 50
39.7818953168500471
 51
86.8644214332583147
  0
ARC
  5
8A66
  8
0
 10
3980.6341683153359554
 20
175.8091218566146949
 30
0.0
 40
0.0009477869440017
 50
151.6792005952887052
 51
202.7679359255836005
  0
ARC
  5
8A67
  8
0
 10
3980.7396365120489463
 20
175.8510109860112891
 30
0.0
 40
0.1144299437962397
 50
201.6708054632250082
 51
211.0438088079297927
  0
ARC
  5
8A68
  8
0
 10
3980.8954827173979538
 20
175.9367765989665884
 30
0.0
 40
0.2922647157819611
 50
209.693519276178904
 51
213.5962866274913097
  0
ARC
  5
8A69
  8
0
 10
3980.544394369046131
 20
175.7335034743250901
 30
0.0
 40
0.1174063261234844
 50
30.1902070647549117
 51
40.0890237784958927
  0
ARC
  5
8A6A
  8
0
 10
3980.4047523528661259
 20
175.6420995584161062
 30
0.0
 40
0.284207667811946
 50
28.35024706632624
 51
31.9613019076265203
  0
ARC
  5
8A6B
  8
0
 10
3980.7274835196571985
 20
175.8241790276921108
 30
0.0
 40
0.090027938388947
 50
213.0688889608740055
 51
219.1350793093621121
  0
ARC
  5
8A6C
  8
0
 10
3980.5495159358351884
 20
175.7199687898261118
 30
0.0
 40
0.1198300392132527
 50
24.6596218387348003
 51
28.4519807229794814
  0
ARC
  5
8A6D
  8
0
 10
3980.6659629175710506
 20
175.7741965416886103
 30
0.0
 40
0.0107625366296861
 50
219.451075824728008
 51
230.0595659488031117
  0
ARC
  5
8A6E
  8
0
 10
3980.6595681797239195
 20
175.7663903500971969
 30
0.0
 40
0.0006807844817604
 50
220.8823862170960979
 51
264.6180751681133074
  0
ARC
  5
8A6F
  8
0
 10
3980.6319894637099424
 20
175.7578681664589908
 30
0.0
 40
0.0290652823394765
 50
19.5382900671605491
 51
24.5947930294262811
  0
ARC
  5
8A70
  8
0
 10
3980.6508438109349299
 20
175.7645375505179004
 30
0.0
 40
0.0090661378579139
 50
11.5123430783439602
 51
19.6661862216420111
  0
ARC
  5
8A71
  8
0
 10
3980.6587734055879082
 20
175.7661262104948037
 30
0.0
 40
0.0009793517473217
 50
344.9395310991828865
 51
13.0267105801325709
  0
ARC
  5
8A72
  8
0
 10
3980.6595167911009412
 20
175.7659202570168873
 30
0.0
 40
0.0002080639572192
 50
266.5653733267453163
 51
346.5147063140178716
  0
ARC
  5
8A73
  8
0
 10
3980.0027842683789459
 20
175.3944118585444016
 30
0.0
 40
0.8227818649390019
 50
26.4130803777275389
 51
35.8550548186569671
  0
ARC
  5
8A74
  8
0
 10
3980.6233763862728665
 20
175.7472544918850872
 30
0.0
 40
0.2363582200513474
 50
16.8808428662096901
 51
51.4894585949199524
  0
ARC
  5
8A75
  8
0
 10
3980.7179506196857801
 20
175.8801207804283138
 30
0.0
 40
0.0172200226512573
 50
33.4329469746060894
 51
93.8245899245635542
  0
ARC
  5
8A76
  8
0
 10
3980.5554905056751522
 20
175.7150211459529032
 30
0.0
 40
0.2484950786308556
 50
25.4169518345592813
 51
44.6342082142625998
  0
ARC
  5
8A77
  8
0
 10
3980.7275220947049093
 20
175.7910715273004882
 30
0.0
 40
0.0606923475456314
 50
1.8480512580262749
 51
30.2817695776350817
  0
ARC
  5
8A78
  8
0
 10
3980.7832922724819582
 20
175.7930204737994018
 30
0.0
 40
0.00489060870179
 50
299.8726563820118827
 51
0.0974752668835913
  0
ARC
  5
8A79
  8
0
 10
3980.7787274754377904
 20
175.8074476089072107
 30
0.0
 40
0.0199374525597429
 50
233.6763969005023114
 51
290.5551194588965132
  0
ARC
  5
8A7A
  8
0
 10
3980.8783697432249937
 20
175.9294125788262875
 30
0.0
 40
0.1774073753891971
 50
201.5856696018894922
 51
231.0805537317048959
  0
ARC
  5
8A7B
  8
0
 10
3980.7372234995218605
 20
175.8784593882330967
 30
0.0
 40
0.0277891473926138
 50
137.3138489776553968
 51
211.0026296256087903
  0
ARC
  5
8A7C
  8
0
 10
3980.7283893496028213
 20
175.8562855449528115
 30
0.0
 40
0.0033523354171688
 50
54.6498923657028115
 51
113.9484056221046018
  0
ARC
  5
8A7D
  8
0
 10
3980.683039540423124
 20
175.7976897256089899
 30
0.0
 40
0.0774445927341223
 50
26.5733655066604406
 51
52.3655072570984004
  0
ARC
  5
8A7E
  8
0
 10
3980.7065547813617741
 20
175.8083718671713029
 30
0.0
 40
0.0516438921429705
 50
18.149859269411639
 51
27.6447948103995493
  0
ARC
  5
8A7F
  8
0
 10
3980.7429021981461119
 20
175.819491639902111
 30
0.0
 40
0.0136620162526571
 50
356.102481297540578
 51
21.3212732623495604
  0
ARC
  5
8A80
  8
0
 10
3980.7543695487061086
 20
175.821781304902288
 30
0.0
 40
0.0053724196597762
 50
230.4838890060707968
 51
279.6053148023509038
  0
ARC
  5
8A81
  8
0
 10
3980.7541786303449953
 20
175.8185720207216036
 30
0.0
 40
0.0023540041300453
 50
297.5110665994574788
 51
359.7805395625779852
  0
ARC
  5
8A82
  8
0
 10
3980.7291492246658891
 20
175.8570263280003871
 30
0.0
 40
0.0031453468999366
 50
132.3930804551129086
 51
186.8236903516790903
  0
ARC
  5
8A83
  8
0
 10
3980.7867006929068339
 20
175.8699197764121891
 30
0.0
 40
0.0621081054530291
 50
192.3342268740337033
 51
217.5376776107898991
  0
ARC
  5
8A84
  8
0
 10
3980.7820910188329435
 20
175.8602746276334017
 30
0.0
 40
0.0527984922163153
 50
212.2785217959894908
 51
233.8580376478392964
  0
ARC
  5
8A85
  8
0
 10
3980.5860060541667735
 20
175.4170874938936038
 30
0.0
 40
0.3456989824616868
 50
38.2994426325389128
 51
46.8290720517842018
  0
ARC
  5
8A86
  8
0
 10
3980.6722384047529886
 20
175.3607785285828129
 30
0.0
 40
0.3083990692254963
 50
22.5351927397288101
 51
32.1952214437047601
  0
ARC
  5
8A87
  8
0
 10
3980.725004776419155
 20
175.4352319935059086
 30
0.0
 40
0.2871678310630504
 50
23.3748517208932505
 51
51.8710408969983376
  0
ARC
  5
8A88
  8
0
 10
3980.848458290212875
 20
175.6042835927611065
 30
0.0
 40
0.0231300457207227
 50
41.7415179192923205
 51
83.3578768506077949
  0
ARC
  5
8A89
  8
0
 10
3980.6681878534141106
 20
175.4154344973109119
 30
0.0
 40
0.2841393027173847
 50
27.7929409264522391
 51
45.9581295285410576
  0
ARC
  5
8A8A
  8
0
 10
3980.8970121996248963
 20
175.5291304249097095
 30
0.0
 40
0.0293430580816412
 50
345.3263438597934964
 51
39.8231406253988709
  0
ARC
  5
8A8B
  8
0
 10
3980.860306571054025
 20
175.6143386170506062
 30
0.0
 40
0.0158449484549982
 50
125.3743075700887033
 51
180.7756914204784096
  0
ARC
  5
8A8C
  8
0
 10
3980.9086366976448517
 20
175.6210383040528882
 30
0.0
 40
0.0645450229034476
 50
186.1494408029780914
 51
211.8407667728550052
  0
ARC
  5
8A8D
  8
0
 10
3981.0527370648869692
 20
175.69713771635071
 30
0.0
 40
0.2273924773830017
 50
208.9737146205995089
 51
225.8691954633866033
  0
ARC
  5
8A8E
  8
0
 10
3980.9343614203139623
 20
175.5735637243689098
 30
0.0
 40
0.0562825382282638
 50
224.7696235618371077
 51
247.2896664344318935
  0
ARC
  5
8A8F
  8
0
 10
3980.9189509447887758
 20
175.5372823925548005
 30
0.0
 40
0.0168658821077442
 50
247.9978397999250035
 51
292.4741735044640905
  0
ARC
  5
8A90
  8
0
 10
3980.8638529533968722
 20
175.5850200717854079
 30
0.0
 40
0.0050970411094048
 50
45.0925953006823974
 51
104.7211001476695031
  0
ARC
  5
8A91
  8
0
 10
3980.8649663720179888
 20
175.5880968447324051
 30
0.0
 40
0.0030389187842426
 50
142.4292097471098941
 51
200.8847570189356873
  0
ARC
  5
8A92
  8
0
 10
3980.9140048791268782
 20
175.6026268342679941
 30
0.0
 40
0.0541763679150346
 50
196.7498950678850065
 51
216.7087667731252054
  0
ARC
  5
8A93
  8
0
 10
3980.944907449611037
 20
175.6183791677636066
 30
0.0
 40
0.0885593952614135
 50
212.9253846178833101
 51
228.0383795055975895
  0
ARC
  5
8A94
  8
0
 10
3980.8122044441529397
 20
175.5193825155976981
 30
0.0
 40
0.0885857362583563
 50
31.764577109445721
 51
51.416550994684151
  0
ARC
  5
8A95
  8
0
 10
3980.8344716863780377
 20
175.5308633895230059
 30
0.0
 40
0.0636400569658273
 50
22.5045171124351491
 51
33.5302792854410612
  0
ARC
  5
8A96
  8
0
 10
3980.9013547991839914
 20
175.5693692314737007
 30
0.0
 40
0.0229984406612289
 50
227.0811724806669929
 51
241.7974706381376961
  0
ARC
  5
8A97
  8
0
 10
3980.8752835323621184
 20
175.5480475942516136
 30
0.0
 40
0.0193603716088404
 50
12.8305245096178595
 51
21.7509441128067387
  0
ARC
  5
8A98
  8
0
 10
3980.8884450575819756
 20
175.5508013159850123
 30
0.0
 40
0.0059207376147987
 50
347.4560690126136251
 51
15.1322575487505908
  0
ARC
  5
8A99
  8
0
 10
3980.8928761768979712
 20
175.5532825521659106
 30
0.0
 40
0.0048163847819263
 50
240.2467996732700044
 51
271.5778753590873862
  0
ARC
  5
8A9A
  8
0
 10
3980.8928280292338968
 20
175.5499069842315976
 30
0.0
 40
0.0014503005382201
 50
277.1601439769440276
 51
344.3356942495552744
  0
ARC
  5
8A9B
  8
0
 10
3980.7735783290850122
 20
175.6362426777859014
 30
0.0
 40
0.0031228309957334
 50
60.2329835076001103
 51
108.6037072237682963
  0
ARC
  5
8A9C
  8
0
 10
3980.7005913858811255
 20
175.5376871068341984
 30
0.0
 40
0.1257405651991457
 50
36.1338936287441328
 51
53.6449808418612406
  0
ARC
  5
8A9D
  8
0
 10
3980.1458732264618448
 20
175.0775524548639055
 30
0.0
 40
0.8462552573715724
 50
28.8713481923439907
 51
39.1495634651759588
  0
ARC
  5
8A9E
  8
0
 10
3980.7660702280768419
 20
175.4190971394075973
 30
0.0
 40
0.1382324664864165
 50
17.8752242690359786
 51
29.0230384805699089
  0
ARC
  5
8A9F
  8
0
 10
3980.895623395640996
 20
175.4559015983909092
 30
0.0
 40
0.0028291972968265
 50
303.7514724605367178
 51
0.9851723821422274
  0
ARC
  5
8AA0
  8
0
 10
3980.8808009782719637
 20
175.4561963390532071
 30
0.0
 40
0.01765291192804
 50
359.2012228281967054
 51
17.5757230859145892
  0
ARC
  5
8AA1
  8
0
 10
3980.7794912127860698
 20
175.6277301749881019
 30
0.0
 40
0.0133920321191606
 50
121.0585394391238054
 51
150.5896346771451135
  0
ARC
  5
8AA2
  8
0
 10
3980.7834420373878856
 20
175.6262846776457138
 30
0.0
 40
0.0175567301791129
 50
152.8122478337919858
 51
193.2828406905209988
  0
ARC
  5
8AA3
  8
0
 10
3980.8867110207747828
 20
175.6547670989436085
 30
0.0
 40
0.1246710837850826
 50
195.118491869158504
 51
210.7663395276422875
  0
ARC
  5
8AA4
  8
0
 10
3981.3025152304471703
 20
175.8721137232438991
 30
0.0
 40
0.5937033906662423
 50
208.2619584060049931
 51
223.8753927338495942
  0
ARC
  5
8AA5
  8
0
 10
3980.9152954237010817
 20
175.509038958745208
 30
0.0
 40
0.0632832308860343
 50
229.9137608870813096
 51
236.5582191290864955
  0
ARC
  5
8AA6
  8
0
 10
3980.892659108054886
 20
175.4736631606504034
 30
0.0
 40
0.0212980322929253
 50
234.9265633174121035
 51
264.4409143614258255
  0
ARC
  5
8AA7
  8
0
 10
3980.8912654561268027
 20
175.4690202092297113
 30
0.0
 40
0.0165684460558201
 50
267.6840258445054133
 51
290.9711760495757176
  0
ARC
  5
8AA8
  8
0
 10
3980.8020641846492254
 20
175.5713131437730965
 30
0.0
 40
0.0022317152669357
 50
49.0352655889915212
 51
100.8493480066274941
  0
ARC
  5
8AA9
  8
0
 10
3980.802881426597196
 20
175.5723380153598896
 30
0.0
 40
0.0017007995457644
 50
136.6762337111034071
 51
198.5411416065331878
  0
ARC
  5
8AAA
  8
0
 10
3980.7531510220837845
 20
175.5113480316825019
 30
0.0
 40
0.0796148763255295
 50
36.9142785531083888
 51
50.7467416497666193
  0
ARC
  5
8AAB
  8
0
 10
3980.8971211070270328
 20
175.6050358775906091
 30
0.0
 40
0.1014517376013437
 50
199.1250244236063054
 51
209.5033867907922058
  0
ARC
  5
8AAC
  8
0
 10
3980.601971800139836
 20
175.3861584989357993
 30
0.0
 40
0.2758357905248888
 50
29.0819155631044204
 51
38.84479695738586
  0
ARC
  5
8AAD
  8
0
 10
3981.0646718235989283
 20
175.7101555531895087
 30
0.0
 40
0.2991790108048989
 50
211.2222379829179033
 51
220.6863436083384045
  0
ARC
  5
8AAE
  8
0
 10
3980.8755776248558504
 20
175.5485117212126056
 30
0.0
 40
0.0504172204713065
 50
221.4830002726523048
 51
230.320872256453498
  0
ARC
  5
8AAF
  8
0
 10
3980.7913311568008794
 20
175.4919164324365113
 30
0.0
 40
0.058946385285529
 50
20.4024567928986613
 51
28.7080359837755097
  0
ARC
  5
8AB0
  8
0
 10
3980.8488099443688952
 20
175.5157468859092944
 30
0.0
 40
0.0081157777555137
 50
228.0705563819462895
 51
248.9933144368949058
  0
ARC
  5
8AB1
  8
0
 10
3980.8357294561151321
 20
175.5082467616747977
 30
0.0
 40
0.0116416393729485
 50
7.5720688647976289
 51
21.2485692209571617
  0
ARC
  5
8AB2
  8
0
 10
3980.846373616002893
 20
175.5092020075042001
 30
0.0
 40
0.0011347862436236
 50
245.3666427326504049
 51
293.2871240473351122
  0
ARC
  5
8AB3
  8
0
 10
3980.8446615282928178
 20
175.509349136309396
 30
0.0
 40
0.0026435351295615
 50
343.5402753330670862
 51
9.3983112871998031
  0
ARC
  5
8AB4
  8
0
 10
3980.8464659945298081
 20
175.5088419897342931
 30
0.0
 40
0.0007697252904986
 50
297.5694436728883829
 51
341.6852496529479026
  0
ARC
  5
8AB5
  8
0
 10
3980.7663753625829486
 20
175.5675872408561986
 30
0.0
 40
0.0125952550127456
 50
123.0008106930579999
 51
212.788738250228306
  0
ARC
  5
8AB6
  8
0
 10
3983.026054119472974
 20
176.9935938128575117
 30
0.0
 40
2.6846057184940011
 50
212.257138464818496
 51
214.5237194996666972
  0
ARC
  5
8AB7
  8
0
 10
3980.8225450867689688
 20
175.4806248780334954
 30
0.0
 40
0.0119081997882134
 50
225.7114683205732888
 51
294.5018444752229243
  0
LINE
  5
8AB8
  8
0
 10
3980.7595153455849868
 20
175.5781504134681086
 30
0.0
 11
3980.8274836855848662
 21
175.4697890363989927
 31
0.0
  0
LINE
  5
8AB9
  8
0
 10
3980.8425411346670444
 20
175.4761764331402958
 30
0.0
 11
3980.8577185575168187
 21
175.4603441970403139
 31
0.0
  0
LINE
  5
8ABA
  8
0
 10
3980.8577185575168187
 20
175.4603441970403139
 30
0.0
 11
3980.8606366633671314
 21
175.4577825714902986
 31
0.0
  0
ARC
  5
8ABB
  8
0
 10
3980.8891947052647993
 20
175.4892493416739114
 30
0.0
 40
0.042493756986971
 50
227.7743124993073138
 51
250.7292736120662084
  0
ARC
  5
8ABC
  8
0
 10
3980.882052029316128
 20
175.4709784903074024
 30
0.0
 40
0.0229004010819815
 50
252.5122080541827074
 51
291.4760140512473754
  0
ARC
  5
8ABD
  8
0
 10
3980.7786845789441941
 20
175.6188097425740864
 30
0.0
 40
0.0216248537924687
 50
126.4500871435740947
 51
167.4388044659484081
  0
ARC
  5
8ABE
  8
0
 10
3980.7933988751528886
 20
175.6176618690552118
 30
0.0
 40
0.03629622507468
 50
170.7235348390667866
 51
205.2885491979739925
  0
ARC
  5
8ABF
  8
0
 10
3980.9210358049967908
 20
175.6658207733260042
 30
0.0
 40
0.1726233742849038
 50
201.6417443768393127
 51
208.2150692392438032
  0
ARC
  5
8AC0
  8
0
 10
3980.9217758475351729
 20
175.2778888642986033
 30
0.0
 40
0.0741521831782721
 50
31.55124713542995
 51
58.7602869772593834
  0
ARC
  5
8AC1
  8
0
 10
3980.5249066151832267
 20
174.9352164598705031
 30
0.0
 40
0.5976427254346037
 50
32.080449452143057
 51
39.6649218278675733
  0
ARC
  5
8AC2
  8
0
 10
3981.0032785769049042
 20
175.2325257328616885
 30
0.0
 40
0.034480377202354
 50
7.833976710563908
 51
35.6667161332380616
  0
ARC
  5
8AC3
  8
0
 10
3980.9687796156908917
 20
175.3297712717723869
 30
0.0
 40
0.0143428396881806
 50
126.5772446935643956
 51
211.6349706524827923
  0
ARC
  5
8AC4
  8
0
 10
3981.2585033947480042
 20
175.492752315180411
 30
0.0
 40
0.3467514443357928
 50
209.4535666952029089
 51
225.6559491252361909
  0
ARC
  5
8AC5
  8
0
 10
3981.03227933397784
 20
175.256504006845006
 30
0.0
 40
0.0199565378819576
 50
216.009779465984991
 51
284.9782708963900859
  0
ARC
  5
8AC6
  8
0
 10
3980.5569803700300326
 20
174.9144247339202138
 30
0.0
 40
0.6406067839691754
 50
32.8635316989079982
 51
45.5005066019322584
  0
ARC
  5
8AC7
  8
0
 10
3980.9726662659841168
 20
175.3042522980449007
 30
0.0
 40
0.0003810147187202
 50
94.8864570388330719
 51
186.0072959252850922
  0
ARC
  5
8AC8
  8
0
 10
3981.0116090654209984
 20
175.3182077397146941
 30
0.0
 40
0.0417380725615224
 50
199.591570215801994
 51
218.7781362072695117
  0
ARC
  5
8AC9
  8
0
 10
3981.1533404803572012
 20
175.4145474560262983
 30
0.0
 40
0.2130054589152211
 50
215.1004218770291061
 51
221.3501332900331136
  0
ARC
  5
8ACA
  8
0
 10
3981.048682594139791
 20
175.3202872934847107
 30
0.0
 40
0.0721845157030614
 50
220.0668113036298905
 51
230.0543494322176912
  0
ARC
  5
8ACB
  8
0
 10
3980.9466766250889123
 20
175.2681816432838104
 30
0.0
 40
0.0450766355317795
 50
42.7944999282215974
 51
53.0092537521546205
  0
ARC
  5
8ACC
  8
0
 10
3980.8362258403581109
 20
175.1634394584283996
 30
0.0
 40
0.197292082829209
 50
38.5425987884382621
 51
43.3237059378107716
  0
ARC
  5
8ACD
  8
0
 10
3980.8605554338091679
 20
175.1803455145210933
 30
0.0
 40
0.1677398897746215
 50
32.2592502937393419
 51
39.2041439101699325
  0
ARC
  5
8ACE
  8
0
 10
3980.9682385527921724
 20
175.249071798571407
 30
0.0
 40
0.0400009817056804
 50
27.0805812308584102
 51
31.3398673750320214
  0
ARC
  5
8ACF
  8
0
 10
3980.97239223983388
 20
175.3022574495855963
 30
0.0
 40
0.0023867349960262
 50
53.8966866919540806
 51
84.1909230343854773
  0
ARC
  5
8AD0
  8
0
 10
3981.0051842661641786
 20
175.2679259503823062
 30
0.0
 40
0.0041218441791769
 50
226.2846008201670998
 51
262.8278623032006749
  0
ARC
  5
8AD1
  8
0
 10
3980.9851720958290571
 20
175.2577878255472115
 30
0.0
 40
0.020956063044517
 50
21.8246048743423486
 51
26.9395449730214906
  0
ARC
  5
8AD2
  8
0
 10
3981.0019268064570497
 20
175.2643289439496925
 30
0.0
 40
0.0029745786180068
 50
356.7062537104404214
 51
24.8414081299761591
  0
ARC
  5
8AD3
  8
0
 10
3981.00450277339678
 20
175.2641948315497018
 30
0.0
 40
0.0003954133835736
 50
294.9629858277651238
 51
354.6610523458483044
  0
ARC
  5
8AD4
  8
0
 10
3979.6470437677071459
 20
174.3363524319194084
 30
0.0
 40
1.62311247839713
 50
31.4720226476542599
 51
39.436608886034648
  0
ARC
  5
8AD5
  8
0
 10
3981.0233323959091649
 20
175.2042582515674098
 30
0.0
 40
0.0220333904905154
 50
222.1811590394275981
 51
291.4467515498308785
  0
ARC
  5
8AD6
  8
0
 10
3981.7754667550448175
 20
175.8904525533685899
 30
0.0
 40
1.0401534533473129
 50
212.2169098087290138
 51
222.3710091134196034
  0
ARC
  5
8AD7
  8
0
 10
3980.912686019836201
 20
175.3492552244086937
 30
0.0
 40
0.0217849554337069
 50
123.6368225222409052
 51
217.7446312555744043
  0
ARC
  5
8AD8
  8
0
 10
3980.1879388545721667
 20
174.7267085551694947
 30
0.0
 40
1.015072765698521
 50
38.367700317821182
 51
41.3355388008332412
  0
ARC
  5
8AD9
  8
0
 10
3980.3931081561431711
 20
174.7514875214183974
 30
0.0
 40
0.8376597392102048
 50
33.2113682826310992
 51
36.4987142560238809
  0
ARC
  5
8ADA
  8
0
 10
3980.9245842987002106
 20
175.2981256488317001
 30
0.0
 40
0.0002324918146568
 50
45.473118539491999
 51
130.6654011904468007
  0
ARC
  5
8ADB
  8
0
 10
3980.9253014645551048
 20
175.2981687718936996
 30
0.0
 40
0.0008788242534648
 50
171.2804236881063957
 51
204.6430996599682999
  0
ARC
  5
8ADC
  8
0
 10
3981.0424798400799773
 20
175.3625533955847118
 30
0.0
 40
0.1345782674489042
 50
208.7599197164213081
 51
216.3640568094508865
  0
ARC
  5
8ADD
  8
0
 10
3980.9198186716539567
 20
175.291024405549507
 30
0.0
 40
0.0087807096897212
 50
43.2326902187762201
 51
55.853871241522242
  0
ARC
  5
8ADE
  8
0
 10
3980.8025661550968834
 20
175.180977535955293
 30
0.0
 40
0.169586384934707
 50
38.633161084407881
 51
43.1867733357116066
  0
ARC
  5
8ADF
  8
0
 10
3980.3357882256359517
 20
174.8010660753193974
 30
0.0
 40
0.7714236287013058
 50
36.9789966672417094
 51
39.030304104665241
  0
ARC
  5
8AE0
  8
0
 10
3981.4747777622378635
 20
175.6643815849849943
 30
0.0
 40
0.6617840824581335
 50
215.2156585016946906
 51
217.3135271908276991
  0
ARC
  5
8AE1
  8
0
 10
3981.3459492699171278
 20
175.5633866133474896
 30
0.0
 40
0.4981071195236218
 50
217.0568314047878005
 51
220.3386619475456882
  0
ARC
  5
8AE2
  8
0
 10
3980.4930523518969494
 20
174.9161135118723109
 30
0.0
 40
0.5765949195786836
 50
34.6783287357048096
 51
37.2464522134290021
  0
ARC
  5
8AE3
  8
0
 10
3980.8360083413558641
 20
175.1538982198239864
 30
0.0
 40
0.1592703940260348
 50
32.4413912065816987
 51
34.5296464825750533
  0
ARC
  5
8AE4
  8
0
 10
3981.0432535387508324
 20
175.3069187362405046
 30
0.0
 40
0.1013710735373777
 50
220.5920385782260951
 51
224.059190355415808
  0
ARC
  5
8AE5
  8
0
 10
3980.9343925693387973
 20
175.2159963279144108
 30
0.0
 40
0.0429298421045848
 50
28.1177971650063014
 51
32.9349274906176177
  0
ARC
  5
8AE6
  8
0
 10
3980.9792242548178365
 20
175.2444357857673936
 30
0.0
 40
0.0119134424125529
 50
222.2526309212165074
 51
234.9439467073937919
  0
ARC
  5
8AE7
  8
0
 10
3980.9655877431528097
 20
175.2325532240193127
 30
0.0
 40
0.0076139189060575
 50
19.8609488044609002
 51
28.8626910563888508
  0
ARC
  5
8AE8
  8
0
 10
3980.9726762022360163
 20
175.2350080160290986
 30
0.0
 40
0.0004383597740664
 50
227.7459887149545921
 51
281.5981815007024807
  0
ARC
  5
8AE9
  8
0
 10
3980.9717604671941444
 20
175.2347226001191984
 30
0.0
 40
0.0010728314431671
 50
359.1053017467684185
 51
22.8942962545461697
  0
ARC
  5
8AEA
  8
0
 10
3980.9726891785339831
 20
175.234701503509001
 30
0.0
 40
0.0001440548345575
 50
301.4468841069227096
 51
1.7282520613805361
  0
ARC
  5
8AEB
  8
0
 10
3981.0307976542990218
 20
174.7890111009604936
 30
0.0
 40
0.4178499209047698
 50
39.567376746916068
 51
60.2483209992415709
  0
ARC
  5
8AEC
  8
0
 10
3981.090788475149111
 20
174.9294522352936099
 30
0.0
 40
0.2131387248308609
 50
26.1558162897934103
 51
62.5127277258235168
  0
ARC
  5
8AED
  8
0
 10
3981.1987473821918684
 20
175.1060315706712061
 30
0.0
 40
0.0157506397178056
 50
127.4817257720120978
 51
208.6076301910401867
  0
ARC
  5
8AEE
  8
0
 10
3981.3570948641968243
 20
175.2039645362742135
 30
0.0
 40
0.201913834057121
 50
211.4916214186098102
 51
231.991907662390787
  0
ARC
  5
8AEF
  8
0
 10
3981.3085828351308919
 20
175.1285727604885096
 30
0.0
 40
0.112936587105978
 50
227.8279485301640932
 51
248.4186186029029102
  0
ARC
  5
8AF0
  8
0
 10
3981.2747621596317913
 20
175.0430088756955058
 30
0.0
 40
0.0209310779439523
 50
248.3567536631647101
 51
290.5266322634856238
  0
ARC
  5
8AF1
  8
0
 10
3979.876837533735852
 20
173.9418864525868003
 30
0.0
 40
1.690563708878402
 50
38.2508810090379185
 51
42.6805301564143491
  0
ARC
  5
8AF2
  8
0
 10
3981.126693011522093
 20
175.0779356550557964
 30
0.0
 40
0.0122335502344635
 50
125.1667997414829046
 51
222.2225102701623882
  0
ARC
  5
8AF3
  8
0
 10
3981.7847386346338681
 20
175.6151389495751971
 30
0.0
 40
0.8616942167039825
 50
219.2693957527746988
 51
226.3710020659204929
  0
ARC
  5
8AF4
  8
0
 10
3981.1994279126479341
 20
175.0003652073937133
 30
0.0
 40
0.012861495347983
 50
224.0358453864457999
 51
292.9827932421134733
  0
ARC
  5
8AF5
  8
0
 10
3981.1337453564601674
 20
175.0520636336252096
 30
0.0
 40
0.0001710284558075
 50
44.9980156064923165
 51
96.1358639740652166
  0
ARC
  5
8AF6
  8
0
 10
3981.1341892194118373
 20
175.0522303847315015
 30
0.0
 40
0.0004621553410676
 50
179.5911800850790883
 51
214.6401143654161103
  0
ARC
  5
8AF7
  8
0
 10
3981.1229482518060649
 20
175.0380486502176893
 30
0.0
 40
0.0178613485280211
 50
45.2694462420270582
 51
52.3188634901912692
  0
ARC
  5
8AF8
  8
0
 10
3981.1509848803311797
 20
175.0634847008647057
 30
0.0
 40
0.0206797716292397
 50
213.8431818312743928
 51
219.2192468176241107
  0
ARC
  5
8AF9
  8
0
 10
3980.9409096352769666
 20
174.8524165800120898
 30
0.0
 40
0.2778559863131683
 50
43.2431320054023729
 51
45.5412908991821226
  0
ARC
  5
8AFA
  8
0
 10
3980.3863927498841804
 20
174.3242853312331988
 30
0.0
 40
1.043627102415037
 50
42.2469523461008478
 51
43.5078485605795819
  0
ARC
  5
8AFB
  8
0
 10
3980.8446376175579644
 20
174.7392793681457022
 30
0.0
 40
0.4253986109039745
 50
40.8054884640876523
 51
42.3667763169573703
  0
ARC
  5
8AFC
  8
0
 10
3981.1047396079848113
 20
174.9643520361296112
 30
0.0
 40
0.08143646621198
 50
37.8947266056422833
 51
40.531133756480088
  0
ARC
  5
8AFD
  8
0
 10
3981.5567025587110948
 20
175.4063213859076882
 30
0.0
 40
0.5518489917725646
 50
220.1615574945352876
 51
224.8067371164468966
  0
ARC
  5
8AFE
  8
0
 10
3981.2289467495170356
 20
175.0811924908744004
 30
0.0
 40
0.09018665080297
 50
224.9975128293021953
 51
227.5351925169277933
  0
ARC
  5
8AFF
  8
0
 10
3981.1765745667271403
 20
175.0237569340407902
 30
0.0
 40
0.0124592935201403
 50
226.8806369617435053
 51
232.4487215434978111
  0
ARC
  5
8B00
  8
0
 10
3981.1656559153648232
 20
175.011823943746009
 30
0.0
 40
0.0042073476323471
 50
30.5110590031206392
 51
37.2621729238882509
  0
ARC
  5
8B01
  8
0
 10
3981.1727414140700603
 20
175.0190279364315984
 30
0.0
 40
0.006375836798411
 50
233.8576326169281003
 51
237.3697025608132094
  0
ARC
  5
8B02
  8
0
 10
3981.1688795586169363
 20
175.0136543388638017
 30
0.0
 40
0.0005043262382626
 50
359.7838678879915051
 51
37.3112890128815806
  0
ARC
  5
8B03
  8
0
 10
3981.169350429539918
 20
175.0137463519646985
 30
0.0
 40
0.0000996952544767
 50
241.8920200622386858
 51
289.6053671410004995
  0
ARC
  5
8B04
  8
0
 10
3981.2054361809068723
 20
175.0823860713570923
 30
0.0
 40
0.001591247837317
 50
76.9346317064265008
 51
142.3566860907590979
  0
ARC
  5
8B05
  8
0
 10
3981.2067107536308868
 20
175.0825893602475105
 30
0.0
 40
0.0026485300188393
 50
163.1311398938672994
 51
201.9420958383288109
  0
ARC
  5
8B06
  8
0
 10
3981.1948803669279187
 20
175.0504569197809133
 30
0.0
 40
0.0352137214722202
 50
52.4952271797248713
 51
71.9419984906222112
  0
ARC
  5
8B07
  8
0
 10
3981.2379575167369694
 20
175.0974241800471134
 30
0.0
 40
0.0372335387722448
 50
205.1510720468328088
 51
222.1399269815578918
  0
ARC
  5
8B08
  8
0
 10
3981.30539341788608
 20
175.154909068005594
 30
0.0
 40
0.1258342245736472
 50
220.9468150367968917
 51
234.3560824219991048
  0
ARC
  5
8B09
  8
0
 10
3981.1353871642340891
 20
174.9655287285808072
 30
0.0
 40
0.1388818411798663
 50
44.5587616136566425
 51
54.3563659977578766
  0
ARC
  5
8B0A
  8
0
 10
3981.1829503615508656
 20
175.0110515299037104
 30
0.0
 40
0.0730569355224353
 50
35.1744479853848375
 51
45.2927275871123385
  0
ARC
  5
8B0B
  8
0
 10
3981.2574738931361935
 20
175.0872745070140013
 30
0.0
 40
0.0429483838547027
 50
233.7267074697911085
 51
247.6136782116803943
  0
ARC
  5
8B0C
  8
0
 10
3981.2296457459851808
 20
175.0441712077613943
 30
0.0
 40
0.0158097986858512
 50
21.1464903934196791
 51
34.5497262637945397
  0
ARC
  5
8B0D
  8
0
 10
3981.2437659051679475
 20
175.0551627569190885
 30
0.0
 40
0.0080483105796206
 50
250.7844102808589071
 51
264.7202644576469197
  0
ARC
  5
8B0E
  8
0
 10
3981.2416304465609755
 20
175.0486274278192127
 30
0.0
 40
0.0030291645510641
 50
345.4162473144830869
 51
24.3140825984749895
  0
ARC
  5
8B0F
  8
0
 10
3981.2432963755418314
 20
175.048573780283192
 30
0.0
 40
0.0014507358170288
 50
259.2312649277815808
 51
330.7400211873123226
  0
LINE
  5
8B10
  8
0
 10
3981.1891629862298032
 20
175.1185304508429113
 30
0.0
 11
3981.2381523118669975
 21
175.1517818307403047
 31
0.0
  0
LINE
  5
8B11
  8
0
 10
3981.2821014899150214
 20
175.0234067264576936
 30
0.0
 11
3981.3529081534738907
 21
175.0551753035144884
 31
0.0
  0
ARC
  5
8B12
  8
0
 10
3976.9626566136421388
 20
171.0361033472491954
 30
0.0
 40
5.8545452144755901
 50
42.7917886310690534
 51
44.1824947190525066
  0
LINE
  5
8B13
  8
0
 10
3981.1610890102338089
 20
175.1164054291529055
 30
0.0
 11
3981.1196469915671514
 21
175.0879363227402905
 31
0.0
  0
LINE
  5
8B14
  8
0
 10
3981.2044497435667836
 20
174.988524629840299
 30
0.0
 11
3981.2588813194051909
 21
175.0133075092120123
 31
0.0
  0
LINE
  5
8B15
  8
0
 10
3981.0313886049361827
 20
175.1837505019927903
 30
0.0
 11
3981.0939409120769596
 21
175.210298252444403
 31
0.0
  0
LINE
  5
8B16
  8
0
 10
3980.9006187506670358
 20
175.3673926249402939
 30
0.0
 11
3980.9501109205671128
 21
175.3971311543400873
 31
0.0
  0
ARC
  5
8B17
  8
0
 10
3980.8360083423508513
 20
175.1538982204959893
 30
0.0
 40
0.159270392824497
 50
32.4413911451332595
 51
34.5296464842443669
  0
LINE
  5
8B18
  8
0
 10
3980.9602326347958297
 20
175.3412893515497899
 30
0.0
 11
3981.0059835596671292
 21
175.3713417803402876
 31
0.0
  0
LINE
  5
8B19
  8
0
 10
3981.0374371551670265
 20
175.2372255140402899
 30
0.0
 11
3981.0950679167590351
 21
175.2620435534952037
 31
0.0
  0
LINE
  5
8B1A
  8
0
 10
3980.8904361338659328
 20
175.4496680430902131
 30
0.0
 11
3980.8981721971917977
 21
175.452947458874803
 31
0.0
  0
LINE
  5
8B1B
  8
0
 10
3980.8981721971917977
 20
175.452947458874803
 30
0.0
 11
3980.8976362569769663
 21
175.4537364327798912
 31
0.0
  0
LINE
  5
8B1C
  8
0
 10
3980.897195273862053
 20
175.4535492471931946
 30
0.0
 11
3980.957110708766777
 21
175.4789174061403116
 31
0.0
  0
LINE
  5
8B1D
  8
0
 10
3980.9253982140671724
 20
175.5216974415403115
 30
0.0
 11
3980.9886044143581785
 21
175.5491644036243883
 31
0.0
  0
LINE
  5
8B1E
  8
0
 10
3980.8511336832661982
 20
175.6272583895402875
 30
0.0
 11
3980.9023118264672121
 21
175.6611248292402934
 31
0.0
  0
LINE
  5
8B1F
  8
0
 10
3980.7725722400668928
 20
175.6391964205402871
 30
0.0
 11
3980.8225253942309791
 21
175.6692112497185008
 31
0.0
  0
LINE
  5
8B20
  8
0
 10
3980.7658367713670486
 20
175.6362042285402936
 30
0.0
 11
3980.7756909758668371
 21
175.6422203184403088
 31
0.0
  0
LINE
  5
8B21
  8
0
 10
3980.7756909758668371
 20
175.6422203184403088
 30
0.0
 11
3980.7761476362661597
 21
175.6414029962402878
 31
0.0
  0
LINE
  5
8B22
  8
0
 10
3980.8274836855848662
 20
175.4697890363989927
 30
0.0
 11
3980.8547862153850474
 21
175.482213165204513
 31
0.0
  0
LINE
  5
8B23
  8
0
 10
3980.7594492674670619
 20
175.5781745718402931
 30
0.0
 11
3980.7795860746500693
 21
175.590993083429197
 31
0.0
  0
LINE
  5
8B24
  8
0
 10
3980.5004421151311362
 20
176.1784496115058971
 30
0.0
 11
3980.5590480535302049
 21
176.2136635892179015
 31
0.0
  0
LINE
  5
8B25
  8
0
 10
3980.609050163766824
 20
175.9834841500403115
 30
0.0
 11
3980.6747368592082239
 21
176.0113671503551984
 31
0.0
  0
LINE
  5
8B26
  8
0
 10
3980.5498952866669242
 20
176.0058893935402864
 30
0.0
 11
3980.5602472493669666
 21
176.0102991085402948
 31
0.0
  0
LINE
  5
8B27
  8
0
 10
3980.5210705843678625
 20
175.9900866831368091
 30
0.0
 11
3980.5609417023501919
 21
176.0094000728917933
 31
0.0
  0
LINE
  5
8B28
  8
0
 10
3980.459168886066891
 20
176.0947129008903005
 30
0.0
 11
3980.5099425351668287
 21
175.9949322034402996
 31
0.0
  0
LINE
  5
8B29
  8
0
 10
3980.4626817319672227
 20
176.1046812583402925
 30
0.0
 11
3980.48633022096692
 21
176.1161412861403051
 31
0.0
  0
LINE
  5
8B2A
  8
0
 10
3980.4885518785667955
 20
176.1179195794402972
 30
0.0
 11
3980.4966944648540448
 21
176.1229082197320963
 31
0.0
  0
LINE
  5
8B2B
  8
0
 10
3980.4758196408670301
 20
176.0789434696403077
 30
0.0
 11
3980.4886207056119929
 21
176.0856292736212936
 31
0.0
  0
LINE
  5
8B2C
  8
0
 10
3980.5072909203668132
 20
176.0171776058402884
 30
0.0
 11
3980.5227126079880691
 21
176.0248405850956033
 31
0.0
  0
LINE
  5
8B2D
  8
0
 10
3980.3945740096669397
 20
176.2383501896403004
 30
0.0
 11
3980.4342564306321037
 21
176.2595873052426043
 31
0.0
  0
LINE
  5
8B2E
  8
0
 10
3980.3912735900848929
 20
176.227833121805304
 30
0.0
 11
3980.441834812945217
 21
176.1286011346846863
 31
0.0
  0
LINE
  5
8B2F
  8
0
 10
3980.4391831980669849
 20
176.1508465370403087
 30
0.0
 11
3980.4810214553658625
 21
176.1716358361229027
 31
0.0
  0
LINE
  5
8B30
  8
0
 10
3980.4077119185672018
 20
176.2126124009402872
 30
0.0
 11
3980.4485471413668165
 21
176.2339400246403045
 31
0.0
  0
LINE
  5
8B31
  8
0
 10
3980.2569993158581383
 20
176.5083557290888905
 30
0.0
 11
3980.2979997843672209
 21
176.5302982333402895
 31
0.0
  0
LINE
  5
8B32
  8
0
 10
3980.2536988962660871
 20
176.4978386612403085
 30
0.0
 11
3980.3042601192919392
 21
176.3986066735990903
 31
0.0
  0
LINE
  5
8B33
  8
0
 10
3980.3147085436671659
 20
176.3950949922403026
 30
0.0
 11
3980.3549810129670732
 21
176.4146027949402935
 31
0.0
  0
LINE
  5
8B34
  8
0
 10
3980.2701372246669962
 20
176.4826179403403046
 30
0.0
 11
3980.3115548047130687
 21
176.5042330649332882
 31
0.0
  0
LINE
  5
8B35
  8
0
 10
3980.3016085042659142
 20
176.4208520764402124
 30
0.0
 11
3980.3427941479899346
 21
176.4413147957289141
 31
0.0
  0
LINE
  5
8B36
  8
0
 10
3980.1882119688821149
 20
176.6433584987366885
 30
0.0
 11
3980.2303675802668295
 21
176.6659192088403074
 31
0.0
  0
LINE
  5
8B37
  8
0
 10
3980.2303675802668295
 20
176.6659192088403074
 30
0.0
 11
3980.231105967320218
 21
176.6650840994882117
 31
0.0
  0
LINE
  5
8B38
  8
0
 10
3980.1882119688821149
 20
176.6433584987366885
 30
0.0
 11
3980.2466008213759778
 21
176.5287639235446022
 31
0.0
  0
LINE
  5
8B39
  8
0
 10
3980.2466008213759778
 20
176.5287639235446022
 30
0.0
 11
3980.2818590727210903
 21
176.545842861572396
 31
0.0
  0
LINE
  5
8B3A
  8
0
 10
3980.2724955036669598
 20
176.5419642526402981
 30
0.0
 11
3980.2939313412762203
 21
176.5508452093941116
 31
0.0
  0
LINE
  5
8B3B
  8
0
 10
3980.1849115492668716
 20
176.6328414309402888
 30
0.0
 11
3980.2354727721672134
 21
176.5336094438403052
 31
0.0
  0
ARC
  5
8B3C
  8
0
 10
3980.191927348686022
 20
176.6364161593419055
 30
0.0
 40
0.0078740157176858
 50
118.1546616717340044
 51
206.9999952967147863
  0
ARC
  5
8B3D
  8
0
 10
3980.2431553791739134
 20
176.536052144202614
 30
0.0
 40
0.0080615899420335
 50
197.6381741654753057
 51
295.3020309184371968
  0
LINE
  5
8B3E
  8
0
 10
3980.2179619491671474
 20
176.6573370558402871
 30
0.0
 11
3980.238325753036861
 21
176.6693386047128058
 31
0.0
  0
LINE
  5
8B3F
  8
0
 10
3980.4209848819668878
 20
176.4224439626403012
 30
0.0
 11
3980.475758537666934
 21
176.456673100040291
 31
0.0
  0
LINE
  5
8B40
  8
0
 10
3980.5209010369640055
 20
176.4733662540934915
 30
0.0
 11
3980.5864318056651427
 21
176.5144153542395884
 31
0.0
  0
LINE
  5
8B41
  8
0
 10
3980.5781026335671413
 20
176.3586710335403041
 30
0.0
 11
3980.6508220816399444
 21
176.3880445591294972
 31
0.0
  0
LINE
  5
8B42
  8
0
 10
3980.4791613912570938
 20
176.3082526516577104
 30
0.0
 11
3980.5390768758670674
 21
176.3324566848403094
 31
0.0
  0
LINE
  5
8B43
  8
0
 10
3980.3940094115669126
 20
176.2651240253404126
 30
0.0
 11
3980.4437751326668149
 21
176.286204415140304
 31
0.0
  0
LINE
  5
8B44
  8
0
 10
3980.3841755151670441
 20
176.2587583840403056
 30
0.0
 11
3980.4221233322778062
 21
176.2770328733242877
 31
0.0
  0
LINE
  5
8B45
  8
0
 10
3980.3218066185067983
 20
176.3641697300178066
 30
0.0
 11
3980.3723678413671223
 21
176.2649377428402886
 31
0.0
  0
LINE
  5
8B46
  8
0
 10
3980.336037015067177
 20
176.3789014780402908
 30
0.0
 11
3980.3823090960418085
 21
176.4067055177251007
 31
0.0
  0
LINE
  5
8B47
  8
0
 10
3980.3251070380670171
 20
176.3746867978402975
 30
0.0
 11
3980.3622064122750999
 21
176.3946263153137011
 31
0.0
  0
LINE
  5
8B48
  8
0
 10
3980.2408406039671718
 20
176.7210402648402976
 30
0.0
 11
3980.2974619726401215
 21
176.755061452424286
 31
0.0
  0
LINE
  5
8B49
  8
0
 10
3980.3337048724679335
 20
176.5192061340044916
 30
0.0
 11
3980.3922186840668473
 21
176.5440690627403058
 31
0.0
  0
ARC
  5
8B4A
  8
0
 10
3979.9230176089058659
 20
176.4601246158615879
 30
0.0
 40
0.4766511503121473
 50
10.1434322354740907
 51
38.2262777349056577
  0
ARC
  5
8B4B
  8
0
 10
3980.4956617923189697
 20
178.0926286919064978
 30
0.0
 40
0.6879583720703172
 50
137.5194821283579927
 51
177.9069659126377019
  0
ARC
  5
8B4C
  8
0
 10
3981.2666340012378896
 20
178.0532423843241077
 30
0.0
 40
1.4598976764923981
 50
177.4673065387218003
 51
189.5261571042038895
  0
ARC
  5
8B4D
  8
0
 10
3982.5294635271161496
 20
178.2746367597646042
 30
0.0
 40
2.7427088041595171
 50
192.6663284796252071
 51
195.1477319318341017
  0
ARC
  5
8B4E
  8
0
 10
3984.1504517694788774
 20
178.768113230383392
 30
0.0
 40
4.4377552814394248
 50
198.8447345960427128
 51
199.8106892170438016
  0
ARC
  5
8B4F
  8
0
 10
3985.9354835134859059
 20
179.4595918569108903
 30
0.0
 40
6.3522724797867118
 50
202.2549462867924888
 51
203.3587638874529091
  0
ARC
  5
8B50
  8
0
 10
3983.1417011654780254
 20
178.1398230474192985
 30
0.0
 40
3.2631665249811199
 50
203.8879242746714056
 51
206.8514588774987999
  0
LINE
  5
8B51
  8
0
 10
3980.286041861429112
 20
176.5475761001202102
 30
0.0
 11
3980.2952250252669728
 21
176.5288133218402891
 31
0.0
  0
LINE
  5
8B52
  8
0
 10
3980.3526884311668255
 20
176.4134921628402992
 30
0.0
 11
3980.3622498593667842
 21
176.3945647783403103
 31
0.0
  0
LINE
  5
8B53
  8
0
 10
3980.4221334980970823
 20
176.2770371794898097
 30
0.0
 11
3980.4317816510670127
 21
176.2582629785403014
 31
0.0
  0
ARC
  5
8B54
  8
0
 10
3988.250338180505878
 20
180.189660159466996
 30
0.0
 40
8.7500763395736332
 50
208.5980207279530987
 51
209.636467328929001
  0
LINE
  5
8B55
  8
0
 10
3980.6073523973768715
 20
175.8394205412020028
 30
0.0
 11
3980.6510470439170604
 21
175.8666500679902924
 31
0.0
  0
LINE
  5
8B56
  8
0
 10
3980.6510470439170604
 20
175.8666500679902924
 30
0.0
 11
3980.6519102872871372
 21
175.8652676783565028
 31
0.0
  0
LINE
  5
8B57
  8
0
 10
3980.6240897698539811
 20
175.8478920674793073
 30
0.0
 11
3980.6696500949688016
 21
175.8763454292752044
 31
0.0
  0
LINE
  5
8B58
  8
0
 10
3980.6710533987670715
 20
175.7286456559403121
 30
0.0
 11
3980.7195752314919446
 21
175.7501130560812044
 31
0.0
  0
LINE
  5
8B59
  8
0
 10
3980.7195752314919446
 20
175.7501130560812044
 30
0.0
 11
3980.719044324198876
 21
175.751140386717708
 31
0.0
  0
LINE
  5
8B5A
  8
0
 10
3980.6887014072672173
 20
175.7377409591402966
 30
0.0
 11
3980.7396761225390946
 21
175.7604178592393112
 31
0.0
  0
ARC
  5
8B5B
  8
0
 10
3985.8165628446517985
 20
178.7681589156007931
 30
0.0
 40
5.931431640905088
 50
210.6216845003552862
 51
211.8038225978368985
  0
ARC
  5
8B5C
  8
0
 10
3983.958808261806098
 20
177.5212195175375882
 30
0.0
 40
3.6938884725922581
 50
214.0496444802967915
 51
215.2088906025589097
  0
ARC
  5
8B5D
  8
0
 10
3983.2359189990052073
 20
176.9417141645560037
 30
0.0
 40
2.7677505380418062
 50
218.8696953160194028
 51
221.3286562661945993
  0
ARC
  5
8B5E
  8
0
 10
3980.9313889335708154
 20
174.9048924902417923
 30
0.0
 40
0.3277208536031689
 50
12.6996918217761294
 51
17.9911527809997303
  0
LINE
  5
8B5F
  8
0
 10
3981.2510923345557785
 20
174.9769389563981861
 30
0.0
 11
3981.3142085929671339
 21
174.7297952830402892
 31
0.0
  0
ARC
  5
8B60
  8
0
 10
3981.5629507150420068
 20
174.7933197971979951
 30
0.0
 40
0.2567255483841866
 50
194.3261554709245047
 51
296.9999986505853826
  0
LINE
  5
8B61
  8
0
 10
3981.6795016696610219
 20
174.5645756559169968
 30
0.0
 11
3981.9603283558249132
 21
174.7072693696783006
 31
0.0
  0
ARC
  5
8B62
  8
0
 10
3981.9557884508221832
 20
174.7161794349852926
 30
0.0
 40
0.0100000000605088
 50
297.0000002335036129
 51
26.9999905479044813
  0
LINE
  5
8B63
  8
0
 10
3981.9646985161461998
 20
174.7207193399565028
 30
0.0
 11
3980.0098161807668475
 21
178.5573919482403085
 31
0.0
  0
ARC
  5
8B64
  8
0
 10
3980.0009053590260919
 20
178.5528535279925961
 30
0.0
 40
0.0100000001222527
 50
26.9904524314844991
 51
116.9999998713336993
  0
LINE
  5
8B65
  8
0
 10
3979.988287668067187
 20
178.557234137140199
 30
0.0
 11
3979.9903916092671352
 21
178.5587197674402944
 31
0.0
  0
LINE
  5
8B66
  8
0
 10
3979.9903916092671352
 20
178.5587197674402944
 30
0.0
 11
3979.9963654539928939
 21
178.5617635933535894
 31
0.0
  0
LINE
  5
8B67
  8
0
 10
3980.0774886064850762
 20
178.4245773345984958
 30
0.0
 11
3980.0991309202668162
 21
178.4356045412309015
 31
0.0
  0
LINE
  5
8B68
  8
0
 10
3981.8970253338670773
 20
174.8535354384403036
 30
0.0
 11
3981.9186707467670203
 21
174.8645643272402879
 31
0.0
  0
LINE
  5
8B69
  8
0
 10
3980.0393980966669005
 20
178.5528390122402982
 30
0.0
 11
3981.9548932861671346
 21
174.7933697878403052
 31
0.0
  0
ARC
  5
8B6A
  8
0
 10
3981.1689640246931958
 20
174.4097578164223137
 30
0.0
 40
0.8745529993408974
 50
20.5537355606207797
 51
26.0169973307872695
  0
ARC
  5
8B6B
  8
0
 10
3981.1984155141158226
 20
174.4216051322372891
 30
0.0
 40
0.8428172070276264
 50
0.0071578835307861
 51
20.5025394314536911
  0
ARC
  5
8B6C
  8
0
 10
3980.0815237068591159
 20
178.5742667105211012
 30
0.0
 40
0.047262176078316
 50
114.3049310912966945
 51
206.9607120599901009
  0
LINE
  5
8B6D
  8
0
 10
3980.0620709356539919
 20
178.6173399386348137
 30
0.0
 11
3980.6510447046798618
 21
178.8786280429403064
 31
0.0
  0
ARC
  5
8B6E
  8
0
 10
3980.6494169692118703
 20
178.8280233309720018
 30
0.0
 40
0.0506308838176722
 50
30.3244323400297411
 51
88.1576769286808286
  0
LINE
  5
8B6F
  8
0
 10
3980.6932767900561885
 20
178.853280011111508
 30
0.0
 11
3982.5795414283561513
 21
175.1489565786021956
 31
0.0
  0
ARC
  5
8B70
  8
0
 10
3981.2043358490550418
 20
174.4665339670418973
 30
0.0
 40
1.5352169247734031
 50
22.1863191947304088
 51
26.3921319736226891
  0
ARC
  5
8B71
  8
0
 10
3981.0625408641408285
 20
174.4475292730124067
 30
0.0
 40
1.674076050446798
 50
2.6282324704795852
 51
20.9559279803160408
  0
LINE
  5
8B72
  8
0
 10
3982.0412327145668314
 20
174.4217104242403025
 30
0.0
 11
3982.0412327145668314
 21
169.3343697063403113
 31
0.0
  0
LINE
  5
8B73
  8
0
 10
3982.7348547616661563
 20
174.5242919939402952
 30
0.0
 11
3982.7348547616661563
 21
169.3343697063403113
 31
0.0
  0
ARC
  5
8B74
  8
0
 10
3982.1204296126461486
 20
169.3345229767001001
 30
0.0
 40
0.0791970463915767
 50
180.1108848198529131
 51
264.9813591209158972
  0
ARC
  5
8B75
  8
0
 10
3982.1204296126461486
 20
169.3345229767001001
 30
0.0
 40
0.0791970463915767
 50
275.0186408790841028
 51
275.0336611807849181
  0
ARC
  5
8B76
  8
0
 10
3982.6560102307921625
 20
169.3344047314270995
 30
0.0
 40
0.0788445386546734
 50
267.365592567386102
 51
267.5966008979289086
  0
ARC
  5
8B77
  8
0
 10
3982.6560102307921625
 20
169.3344047314270995
 30
0.0
 40
0.0788445386546745
 50
272.4033991020712051
 51
359.9745475114771125
  0
LINE
  5
8B78
  8
0
 10
3981.950430076567045
 20
169.2556295488402895
 30
0.0
 11
3982.8256593019668799
 21
169.2556295488402895
 31
0.0
  0
ARC
  5
8B79
  8
0
 10
3981.9504300765820517
 20
169.2343697063051025
 30
0.0
 40
0.0212598425352075
 50
90.0000000402812077
 51
181.9999999022572013
  0
ARC
  5
8B7A
  8
0
 10
3982.8256597992572097
 20
169.2343697063365937
 30
0.0
 40
0.021259842509535
 50
358.0000000196217229
 51
90.0013402092532573
  0
LINE
  5
8B7B
  8
0
 10
3981.9291831849682239
 20
169.2336277485011919
 30
0.0
 11
3981.9345725320881684
 21
169.0792970398402986
 31
0.0
  0
ARC
  5
8B7C
  8
0
 10
3981.9558514288978586
 20
169.0800532472958082
 30
0.0
 40
0.0212923295906493
 50
182.0353411305243014
 51
267.6036112449149869
  0
ARC
  5
8B7D
  8
0
 10
3982.8202704521668238
 20
169.0800389976402869
 30
0.0
 40
0.0212598424999965
 50
270.3440997167186879
 51
357.9999999999081979
  0
LINE
  5
8B7E
  8
0
 10
3982.8415173437460908
 20
169.0792970398370016
 30
0.0
 11
3982.8469066908669447
 21
169.2336277485327969
 31
0.0
  0
LINE
  5
8B7F
  8
0
 10
3981.8466952939670591
 20
169.0587795385403069
 30
0.0
 11
3983.0671639929669254
 21
169.0587795385403069
 31
0.0
  0
ARC
  5
8B80
  8
0
 10
3981.8466915519670692
 20
169.0292519794402892
 30
0.0
 40
0.0295275591000106
 50
90.0000000000260485
 51
179.999999999985306
  0
ARC
  5
8B81
  8
0
 10
3982.0631468336100625
 20
169.0291721627276047
 30
0.0
 40
0.0296078180414241
 50
0.154458065904917
 51
89.572114234176837
  0
ARC
  5
8B82
  8
0
 10
3982.791666073039778
 20
169.029158963562594
 30
0.0
 40
0.0296203364202634
 50
90.1791805985520369
 51
179.8200754407106103
  0
ARC
  5
8B83
  8
0
 10
3983.0671639929669254
 20
169.0292519794402892
 30
0.0
 40
0.0295275590999999
 50
0.0000000000032569
 51
90.0
  0
LINE
  5
8B84
  8
0
 10
3981.8171639929678349
 20
169.0292519794402892
 30
0.0
 11
3981.817163992866881
 21
167.5764960739423088
 31
0.0
  0
ARC
  5
8B85
  8
0
 10
3981.8466915522008094
 20
167.5764960740372089
 30
0.0
 40
0.0295275593340029
 50
179.9999723479672866
 51
270.0072605865469768
  0
ARC
  5
8B86
  8
0
 10
3982.7915734417670137
 20
167.5764960739402909
 30
0.0
 40
0.0295275591000035
 50
180.0
 51
269.9952844985585898
  0
ARC
  5
8B87
  8
0
 10
3983.0671639931370009
 20
167.5764960738696061
 30
0.0
 40
0.0295275589292885
 50
269.9999996687354269
 51
0.0000001372029205
  0
ARC
  5
8B88
  8
0
 10
3982.0632266037191584
 20
167.5764960860857116
 30
0.0
 40
0.0295275711477974
 50
270.0007401640652915
 51
359.9999764329940035
  0
LINE
  5
8B89
  8
0
 10
3981.8466915519670692
 20
167.5469685149402892
 30
0.0
 11
3982.1026118670679352
 21
167.5469685149402892
 31
0.0
  0
LINE
  5
8B8A
  8
0
 10
3982.6734780087667787
 20
167.5469685149402892
 30
0.0
 11
3982.7915734417670137
 21
167.5469685149402892
 31
0.0
  0
LINE
  5
8B8B
  8
0
 10
3982.7915734417670137
 20
167.5469685148403016
 30
0.0
 11
3983.0671639929669254
 21
167.5469685148403016
 31
0.0
  0
LINE
  5
8B8C
  8
0
 10
3983.0966915520671137
 20
169.0292519794402892
 30
0.0
 11
3983.0966915520671137
 21
167.5764960739402909
 31
0.0
  0
LINE
  5
8B8D
  8
0
 10
3982.0927545440667927
 20
167.5764960739402909
 30
0.0
 11
3982.0927545440667927
 21
169.0292519794392945
 31
0.0
  0
LINE
  5
8B8E
  8
0
 10
3982.762045911586938
 20
169.0292607729560075
 30
0.0
 11
3982.762045911586938
 21
167.5764960739402909
 31
0.0
  0
LINE
  5
8B8F
  8
0
 10
3982.0927545440667927
 20
167.6414563205402999
 30
0.0
 11
3982.762045911586938
 21
167.6414563205402999
 31
0.0
  0
LINE
  5
8B90
  8
0
 10
3983.0966915520671137
 20
168.4918504046403029
 30
0.0
 11
3983.4313372212668583
 21
168.4918504046403029
 31
0.0
  0
LINE
  5
8B91
  8
0
 10
3983.0966915520671137
 20
168.1138976487403056
 30
0.0
 11
3983.4313372212668583
 21
168.1138976487403056
 31
0.0
  0
LINE
  5
8B92
  8
0
 10
3983.4313372212668583
 20
168.4997243535403015
 30
0.0
 11
3983.4313372212909599
 21
168.1060236330507109
 31
0.0
  0
LINE
  5
8B93
  8
0
 10
3983.4313372212909599
 20
168.1060236330507109
 30
0.0
 11
3983.4590414919989598
 21
168.0657202327130904
 31
0.0
  0
LINE
  5
8B94
  8
0
 10
3983.4313372212668583
 20
168.4997243535403015
 30
0.0
 11
3983.4590670480788503
 21
168.5400256509757924
 31
0.0
  0
ARC
  5
8B95
  8
0
 10
3983.4921670095432091
 20
167.5761737218531096
 30
0.0
 40
0.0297953559071552
 50
180.9142065258764944
 51
274.7777340300655169
  0
LINE
  5
8B96
  8
0
 10
3983.4946486821809231
 20
167.5464818957968021
 30
0.0
 11
3984.8187529779929719
 21
167.523369569394788
 31
0.0
  0
ARC
  5
8B97
  8
0
 10
3984.8151914959330497
 20
167.4643280686898947
 30
0.0
 40
0.0591488204443699
 50
0.4769813662651622
 51
86.5480056339752934
  0
ARC
  5
8B98
  8
0
 10
3926.7396875119429751
 20
166.6626900677231902
 30
0.0
 40
58.1401843097248587
 50
0.5239615024693113
 51
0.7905056609132721
  0
ARC
  5
8B99
  8
0
 10
3984.9074577863170816
 20
167.1951585707626862
 30
0.0
 40
0.0300274899557383
 50
181.5122639829072
 51
276.8358062594970193
  0
LINE
  5
8B9A
  8
0
 10
3984.9110317928798395
 20
167.1653445366490018
 30
0.0
 11
3985.1518096622671692
 21
167.1611417432403073
 31
0.0
  0
LINE
  5
8B9B
  8
0
 10
3985.1518096622671692
 20
167.1611417432403073
 30
0.0
 11
3985.1518096622671692
 21
169.4446063102402888
 31
0.0
  0
LINE
  5
8B9C
  8
0
 10
3983.4623754463350451
 20
167.5756983298907983
 30
0.0
 11
3983.4574265329770242
 21
168.3030855993654882
 31
0.0
  0
ARC
  5
8B9D
  8
0
 10
3983.4921591955348958
 20
169.0295825604252968
 30
0.0
 40
0.0297878077104868
 50
85.2059704847613517
 51
178.8747562546147094
  0
LINE
  5
8B9E
  8
0
 10
3983.4946486818880658
 20
169.0592661576785929
 30
0.0
 11
3984.8133649465307826
 21
169.0822844356470114
 31
0.0
  0
ARC
  5
8B9F
  8
0
 10
3984.814626112824044
 20
169.1426717815685095
 30
0.0
 40
0.0604005139700907
 50
268.8035738004098789
 51
7.9979680208141151
  0
ARC
  5
8BA0
  8
0
 10
4069.7200511333221584
 20
168.3028740267205023
 30
0.0
 40
84.8498516535565841
 50
179.2515789865782949
 51
179.4272330529273063
  0
ARC
  5
8BA1
  8
0
 10
3984.9063924258098268
 20
169.4118160263604125
 30
0.0
 40
0.0289610798460708
 50
80.7825367566834558
 51
181.2462610782393995
  0
LINE
  5
8BA2
  8
0
 10
3984.9110314709669183
 20
169.4404031459403086
 30
0.0
 11
3985.1518096622671692
 21
169.4446063102402888
 31
0.0
  0
LINE
  5
8BA3
  8
0
 10
3983.4598871040620907
 20
169.0301675317786874
 30
0.0
 11
3983.4586706238719671
 21
168.3030855993654882
 31
0.0
  0
ARC
  5
8BA4
  8
0
 10
4252.0417604515487255
 20
168.1978474926374929
 30
0.0
 40
267.1684268122274943
 50
179.7977775347588931
 51
180.1572208734845901
  0
LINE
  5
8BA5
  8
0
 10
3982.1026118670661162
 20
167.6414563205402999
 30
0.0
 11
3982.1026118670661162
 21
157.7557791551402886
 31
0.0
  0
LINE
  5
8BA6
  8
0
 10
3982.6734780087667787
 20
167.6414563205402999
 30
0.0
 11
3982.6734431977861277
 21
157.4145665264333047
 31
0.0
  0
LINE
  5
8BA7
  8
0
 10
3979.4289891503672152
 20
157.7557791551402886
 30
0.0
 11
3982.1266770219658611
 21
157.7557791551402886
 31
0.0
  0
ARC
  5
8BA8
  8
0
 10
3982.1266770220040598
 20
157.6757791555623101
 30
0.0
 40
0.079999999578027
 50
70.2375489418624568
 51
90.0000000261332644
  0
ARC
  5
8BA9
  8
0
 10
3981.7876505777671809
 20
156.73215710794031
 30
0.0
 40
1.0826771654000591
 50
50.5089393781196421
 51
70.2375490072015936
  0
ARC
  5
8BAA
  8
0
 10
3981.773744164711843
 20
156.7165014554936135
 30
0.0
 40
1.103603169935772
 50
42.8378196961213575
 51
50.4686738114247717
  0
ARC
  5
8BAB
  8
0
 10
3982.723401795647078
 20
157.6053172899005972
 30
0.0
 40
0.1971844701379828
 50
224.5976522435734921
 51
255.3235887120544874
  0
ARC
  5
8BAC
  8
0
 10
3982.7232283532671318
 20
157.6050173489402937
 30
0.0
 40
0.1968503937000009
 50
255.3503054547728084
 51
270.0
  0
ARC
  5
8BAD
  8
0
 10
3981.7876507600071818
 20
156.7290331522476947
 30
0.0
 40
1.0137795550466051
 50
110.0499846766223015
 51
249.9500138796589965
  0
ARC
  5
8BAE
  8
0
 10
3981.7876506799498202
 20
156.7290332082492057
 30
0.0
 40
1.0137794749925331
 50
290.0469413037516802
 51
69.9500293385579255
  0
ARC
  5
8BAF
  8
0
 10
3981.7858763046160675
 20
156.7311202235281087
 30
0.0
 40
1.0847701572207009
 50
286.8428739131169891
 51
286.854045171427174
  0
ARC
  5
8BB0
  8
0
 10
3981.7858763046160675
 20
156.7311202235281087
 30
0.0
 40
1.0847701572207009
 50
310.3934176388199262
 51
42.70713359186594
  0
ARC
  5
8BB1
  8
0
 10
3981.4535839243239934
 20
157.6443907667492965
 30
0.0
 40
0.0393668020936555
 50
89.9993336396221366
 51
110.0509700030687981
  0
ARC
  5
8BB2
  8
0
 10
3982.1217173995678422
 20
157.6443898504091123
 30
0.0
 40
0.0393676751362142
 50
69.9497174585369805
 51
90.0009110827593588
  0
LINE
  5
8BB3
  8
0
 10
3981.4535843821668095
 20
157.6837575688402922
 30
0.0
 11
3982.1217167735671865
 21
157.683757525540301
 31
0.0
  0
ARC
  5
8BB4
  8
0
 10
3981.7876307517981331
 20
156.7291993866205075
 30
0.0
 40
1.0826618033834059
 50
108.5223410264119934
 51
229.1351392823164019
  0
LINE
  5
8BB5
  8
0
 10
3981.4751184947881484
 20
155.6924592122512934
 30
0.0
 11
3981.4758470970800772
 21
155.609002350833407
 31
0.0
  0
LINE
  5
8BB6
  8
0
 10
3981.4751184947881484
 20
155.6924592122512934
 30
0.0
 11
3981.4746570882698506
 21
155.7160751018390101
 31
0.0
  0
LINE
  5
8BB7
  8
0
 10
3981.4746570882698506
 20
155.7160751018390101
 30
0.0
 11
3982.1003887879669492
 21
155.7160790525402945
 31
0.0
  0
LINE
  5
8BB8
  8
0
 10
3982.1003887879669492
 20
155.7160790525402945
 30
0.0
 11
3982.1003887879669492
 21
155.6928835063546899
 31
0.0
  0
LINE
  5
8BB9
  8
0
 10
3982.1003887879669492
 20
155.6928835063546899
 30
0.0
 11
3982.0994540819879148
 21
155.6090045847435874
 31
0.0
  0
LINE
  5
8BBA
  8
0
 10
3981.5152153719668604
 20
155.5699780714402891
 30
0.0
 11
3982.0600857835670467
 21
155.5699780714402891
 31
0.0
  0
ARC
  5
8BBB
  8
0
 10
3981.5152159453377863
 20
155.6093484408970937
 30
0.0
 40
0.0393703694610038
 50
180.5036720674359003
 51
269.9991655711741032
  0
ARC
  5
8BBC
  8
0
 10
3982.0600851306598997
 20
155.6093485251242043
 30
0.0
 40
0.0393704536893337
 50
270.0009501760458193
 51
359.4994575618471799
  0
LINE
  5
8BBD
  8
0
 10
3981.453584679782125
 20
155.7743087801403021
 30
0.0
 11
3982.1217167733670976
 21
155.7743088094402992
 31
0.0
  0
ARC
  5
8BBE
  8
0
 10
3982.1217170237950995
 20
155.813677924878391
 30
0.0
 40
0.0393691154388512
 50
269.9996355401116261
 51
289.9721104495226882
  0
ARC
  5
8BBF
  8
0
 10
3981.4535842607801897
 20
155.813678174945295
 30
0.0
 40
0.0393693948072024
 50
249.9498487292422908
 51
270.000609789405928
  0
ARC
  5
8BC0
  8
0
 10
3986.0455982877238057
 20
161.7799019574609929
 30
0.0
 40
7.6886908498015814
 50
229.7747800083816117
 51
231.5342730793107933
  0
ARC
  5
8BC1
  8
0
 10
3981.3280239034947954
 20
155.839997202744911
 30
0.0
 40
0.1033179606977877
 50
230.9086920748644047
 51
262.8754001261492022
  0
ARC
  5
8BC2
  8
0
 10
3981.2973485064139822
 20
155.6367976782728988
 30
0.0
 40
0.1022513678357342
 50
65.7876194169013075
 51
79.9400444558349648
  0
ARC
  5
8BC3
  8
0
 10
3981.6000714600081665
 20
156.4083423868860905
 30
0.0
 40
0.7266946485426767
 50
248.9692945653661127
 51
253.2977944146400091
  0
ARC
  5
8BC4
  8
0
 10
3981.4193468416888209
 20
155.8080218678057918
 30
0.0
 40
0.0997626344264663
 50
253.6249034484092988
 51
274.2615970450264058
  0
ARC
  5
8BC5
  8
0
 10
3981.4484359420871442
 20
155.7843614142713875
 30
0.0
 40
0.0788636297842768
 50
254.0468970026936972
 51
269.9879189500289272
  0
LINE
  5
8BC6
  8
0
 10
3981.4484193133657755
 20
155.7054977862403007
 30
0.0
 11
3981.4748637475340729
 21
155.7054977862403007
 31
0.0
  0
ARC
  5
8BC7
  8
0
 10
3978.6688405821100787
 20
160.3684354241989922
 30
0.0
 40
5.874960234635302
 50
308.3299242762956283
 51
310.6325445925672284
  0
ARC
  5
8BC8
  8
0
 10
3982.2472772519799946
 20
155.8399972029602054
 30
0.0
 40
0.1033179606977877
 50
277.124599900712326
 51
309.0913079519884263
  0
ARC
  5
8BC9
  8
0
 10
3982.2779526491572142
 20
155.636797678502603
 30
0.0
 40
0.1022513678357342
 50
100.0599555710235933
 51
114.2123806099516941
  0
ARC
  5
8BCA
  8
0
 10
3981.9752296952019606
 20
156.4083423869739988
 30
0.0
 40
0.7266946485426767
 50
286.7022056122091271
 51
291.0307054614867752
  0
ARC
  5
8BCB
  8
0
 10
3982.1559543138018853
 20
155.8080218679783968
 30
0.0
 40
0.0997626344264663
 50
265.7384029818064732
 51
286.375096578447824
  0
ARC
  5
8BCC
  8
0
 10
3982.1268652134158401
 20
155.784361414430407
 30
0.0
 40
0.0788636297842768
 50
270.0120810768078741
 51
285.9531030241607255
  0
LINE
  5
8BCD
  8
0
 10
3982.1268818421722244
 20
155.7054977863992917
 30
0.0
 11
3982.1004374080048365
 21
155.7054977863868999
 31
0.0
  0
ARC
  5
8BCE
  8
0
 10
3980.3900072720839489
 20
156.8896362344592887
 30
0.0
 40
0.3149619052835691
 50
0.0000961013718327
 51
89.9997679907635728
  0
LINE
  5
8BCF
  8
0
 10
3980.7049691773668201
 20
156.8896367627403095
 30
0.0
 11
3980.7049689611721988
 21
156.7290331895403028
 31
0.0
  0
ARC
  5
8BD0
  8
0
 10
3979.4289891503672152
 20
157.2479052263402934
 30
0.0
 40
0.0433070866000023
 50
180.0000000000015916
 51
270.0
  0
LINE
  5
8BD1
  8
0
 10
3979.4289891503672152
 20
157.2045981397403125
 30
0.0
 11
3980.3900085474679145
 21
157.2045981397403125
 31
0.0
  0
LINE
  5
8BD2
  8
0
 10
3979.3856820637661258
 20
157.2479052263402934
 30
0.0
 11
3979.3856820637661258
 21
157.7124720685403076
 31
0.0
  0
ARC
  5
8BD3
  8
0
 10
3979.4289891503672152
 20
157.7124720685403076
 30
0.0
 40
0.0433070866000023
 50
90.0
 51
179.9999999999917861
  0
LINE
  5
8BD4
  8
0
 10
3982.7232283532671318
 20
157.40816695524029
 30
0.0
 11
3983.4405496431668325
 21
157.40816695524029
 31
0.0
  0
ARC
  5
8BD5
  8
0
 10
3983.4405448122079179
 20
157.3681480538986079
 30
0.0
 40
0.0400189016332966
 50
29.7653231610392197
 51
89.9930834298841091
  0
ARC
  5
8BD6
  8
0
 10
3983.4406117519338295
 20
157.3681938215790979
 30
0.0
 40
0.0399380727526935
 50
359.9712742059685979
 51
29.756002130030879
  0
ARC
  5
8BD7
  8
0
 10
3982.7173600818700834
 20
155.853049030135395
 30
0.0
 40
0.1968503937055661
 50
89.9998554594671702
 51
130.1464568621051967
  0
ARC
  5
8BD8
  8
0
 10
3983.4405469866292151
 20
156.0899071042657908
 30
0.0
 40
0.0400081307100476
 50
270.0037760534779068
 51
359.0675815681512972
  0
LINE
  5
8BD9
  8
0
 10
3982.717360578466014
 20
156.0498994238402872
 30
0.0
 11
3983.4405496233480335
 21
156.0498989736425983
 31
0.0
  0
LINE
  5
8BDA
  8
0
 10
3983.4608647803670465
 20
157.4026242976320873
 30
0.0
 11
3983.4608647803670465
 21
156.055442081698601
 31
0.0
  0
LINE
  5
8BDB
  8
0
 10
3983.4608647803670465
 20
156.3687969691403055
 30
0.0
 11
3983.4785813157668599
 21
156.3687969691403055
 31
0.0
  0
LINE
  5
8BDC
  8
0
 10
3983.4608647803670465
 20
157.0892694100402878
 30
0.0
 11
3983.4785813157668599
 21
157.0892694100402878
 31
0.0
  0
LINE
  5
8BDD
  8
0
 10
3983.480549819666976
 20
157.3681737982402922
 30
0.0
 11
3983.480549819666976
 21
157.1424190163403125
 31
0.0
  0
LINE
  5
8BDE
  8
0
 10
3983.4943293472670121
 20
157.1424187876403096
 30
0.0
 11
3983.4785813157668599
 21
157.1424187876403096
 31
0.0
  0
LINE
  5
8BDF
  8
0
 10
3983.4785813157668599
 20
157.1424187876403096
 30
0.0
 11
3983.4785813157668599
 21
156.3156473628403091
 31
0.0
  0
LINE
  5
8BE0
  8
0
 10
3983.4785813157668599
 20
156.3156473628403091
 30
0.0
 11
3983.4943293472670121
 21
156.3156473628403091
 31
0.0
  0
LINE
  5
8BE1
  8
0
 10
3983.480549819666976
 20
156.3156473628403091
 30
0.0
 11
3983.480549819666976
 21
156.0892560497912029
 31
0.0
  0
LINE
  5
8BE2
  8
0
 10
3983.4943293472670121
 20
157.1424187876403096
 30
0.0
 11
3983.5041718669672264
 21
157.1522615360402995
 31
0.0
  0
LINE
  5
8BE3
  8
0
 10
3983.5041718669672264
 20
157.1522615360402995
 30
0.0
 11
3983.5041718669672264
 21
156.3058048431402938
 31
0.0
  0
LINE
  5
8BE4
  8
0
 10
3983.5041718669672264
 20
156.3058048431402938
 30
0.0
 11
3983.4943293472670121
 21
156.3156473628403091
 31
0.0
  0
LINE
  5
8BE5
  8
0
 10
3983.5041718669672264
 20
156.3058048431402938
 30
0.0
 11
3983.5573214732671659
 21
156.3058048431402938
 31
0.0
  0
LINE
  5
8BE6
  8
0
 10
3983.5041718669672264
 20
157.1522615360402995
 30
0.0
 11
3983.5573214732671659
 21
157.1522615360402995
 31
0.0
  0
LINE
  5
8BE7
  8
0
 10
3983.5573214732671659
 20
157.3491118188402993
 30
0.0
 11
3983.5573214732671659
 21
156.1089545603402939
 31
0.0
  0
LINE
  5
8BE8
  8
0
 10
3983.5573214732671659
 20
156.1089545603402939
 30
0.0
 11
3983.5770066270670213
 21
156.0892694100402878
 31
0.0
  0
LINE
  5
8BE9
  8
0
 10
3983.5770066270670213
 20
156.0892694100402878
 30
0.0
 11
3983.8919671425669549
 21
156.0892694100402878
 31
0.0
  0
LINE
  5
8BEA
  8
0
 10
3983.5573214732671659
 20
156.5399533076659111
 30
0.0
 11
3983.5770057231670762
 21
156.4829701974402951
 31
0.0
  0
LINE
  5
8BEB
  8
0
 10
3983.5770057231670762
 20
156.4829701974402951
 30
0.0
 11
3983.5770066270670213
 21
156.0892694100402878
 31
0.0
  0
LINE
  5
8BEC
  8
0
 10
3983.5770066270670213
 20
156.4829701974402951
 30
0.0
 11
3983.8919671425669549
 21
156.4829701974402951
 31
0.0
  0
LINE
  5
8BED
  8
0
 10
3983.5573214732671659
 20
157.3491118188402993
 30
0.0
 11
3983.5770066270670213
 21
157.3687969691403055
 31
0.0
  0
LINE
  5
8BEE
  8
0
 10
3983.5770066270670213
 20
157.3687969691403055
 30
0.0
 11
3983.5770104351668124
 21
156.9750961817402981
 31
0.0
  0
LINE
  5
8BEF
  8
0
 10
3983.5770104351668124
 20
156.9750961817402981
 30
0.0
 11
3983.5573214732671659
 21
156.9180983844991886
 31
0.0
  0
LINE
  5
8BF0
  8
0
 10
3981.3152096328672087
 20
155.7374769829293939
 30
0.0
 11
3981.3152098937671326
 21
155.4605035646403053
 31
0.0
  0
LINE
  5
8BF1
  8
0
 10
3981.3152098937671326
 20
155.4605035646403053
 30
0.0
 11
3982.2600915226671532
 21
155.4605035646403053
 31
0.0
  0
LINE
  5
8BF2
  8
0
 10
3982.2600915226671532
 20
155.4605035646403053
 30
0.0
 11
3982.2600952046200291
 21
155.7374774434360916
 31
0.0
  0
ARC
  5
8BF3
  8
0
 10
3981.3431036040669824
 20
155.4526295488402923
 30
0.0
 40
0.0078740156999865
 50
89.9999999998957776
 51
182.3859443023526126
  0
ARC
  5
8BF4
  8
0
 10
3982.2321975514678343
 20
155.4526295488441008
 30
0.0
 40
0.0078740156961638
 50
357.6140556685895717
 51
90.0000000119332384
  0
LINE
  5
8BF5
  8
0
 10
3982.2400647409690464
 20
155.4523017492402914
 30
0.0
 11
3982.1821374293758709
 21
154.0620462704272882
 31
0.0
  0
LINE
  5
8BF6
  8
0
 10
3981.3352364145671345
 20
155.4523017492402914
 30
0.0
 11
3981.3931637261580363
 21
154.0620462704272882
 31
0.0
  0
ARC
  5
8BF7
  8
0
 10
3981.4128317004310702
 20
154.0628657695046968
 30
0.0
 40
0.019685039770823
 50
182.3859715712206935
 51
270.0082974241448142
  0
LINE
  5
8BF8
  8
0
 10
3981.4128345512021951
 20
154.0431807299403033
 30
0.0
 11
3982.1624694554670896
 21
154.0431807299403033
 31
0.0
  0
ARC
  5
8BF9
  8
0
 10
3982.1624694554739108
 20
154.0628657693220021
 30
0.0
 40
0.0196850393816749
 50
269.9999999785305818
 51
357.6140560226941716
  0
LINE
  5
8BFA
  8
0
 10
3981.5022175068670549
 20
154.0431807299403033
 30
0.0
 11
3981.5022175068670549
 21
143.031472068540296
 31
0.0
  0
LINE
  5
8BFB
  8
0
 10
3982.6734780087667787
 20
156.0447414974402989
 30
0.0
 11
3982.6734782690668908
 21
143.0314720688402872
 31
0.0
  0
LINE
  5
8BFC
  8
0
 10
3982.0730836486668522
 20
154.0431807299403033
 30
0.0
 11
3982.0730868639720939
 21
143.0314055932888095
 31
0.0
  0
LINE
  5
8BFD
  8
0
 10
3982.1026118670661162
 20
154.0431807299403033
 30
0.0
 11
3982.1026086518618285
 21
143.0314051750023054
 31
0.0
  0
ARC
  5
8BFE
  8
0
 10
4080.0314987889760232
 20
142.5506658107827889
 30
0.0
 40
98.5304546620056669
 50
179.7204084891696994
 51
182.9749060124433981
  0
ARC
  5
8BFF
  8
0
 10
3991.251749102399117
 20
137.8903132174189068
 30
0.0
 40
9.6285948043147691
 50
182.6980284157320966
 51
188.7190440792012112
  0
ARC
  5
8C00
  8
0
 10
3982.3417667802459619
 20
136.4683739416796868
 30
0.0
 40
0.6085062438217825
 50
183.5476324372693
 51
214.280165524855903
  0
ARC
  5
8C01
  8
0
 10
3982.0905176674978065
 20
136.3050029928116089
 30
0.0
 40
0.3089525508701878
 50
215.4896296467744889
 51
269.6073036522117263
  0
ARC
  5
8C02
  8
0
 10
3982.0875099702561783
 20
136.2971532958077034
 30
0.0
 40
0.3010969132985303
 50
270.1693967674734154
 51
307.3306782192930768
  0
ARC
  5
8C03
  8
0
 10
3981.7306609869970089
 20
136.5376004242976933
 30
0.0
 40
0.7219856610977706
 50
318.3449196377491717
 51
356.0987837457892056
  0
ARC
  5
8C04
  8
0
 10
3930.4431841204850571
 20
141.1914596940501951
 30
0.0
 40
52.2199981086011817
 50
354.8328887103842249
 51
0.0882336062683729
  0
ARC
  5
8C05
  8
0
 10
3834.0614113802280372
 20
143.0264574473551136
 30
0.0
 40
148.6120669734440014
 50
359.3235246137043077
 51
0.0019333331113948
  0
ARC
  5
8C06
  8
0
 10
4127.3377338918089663
 20
143.0153730302008057
 30
0.0
 40
145.2646511352351126
 50
179.993650162335598
 51
180.8171815702914103
  0
ARC
  5
8C07
  8
0
 10
3836.8337150752849993
 20
143.0140737030941125
 30
0.0
 40
145.2688978355542986
 50
359.1833548424471019
 51
0.0068621220905792
  0
ARC
  5
8C08
  8
0
 10
4007.3630470619918924
 20
140.3985991687083867
 30
0.0
 40
25.281065010664431
 50
178.7647298003601009
 51
189.3118999462325007
  0
LINE
  5
8C09
  8
0
 10
3983.5770066270670213
 20
157.3687969691403055
 30
0.0
 11
3983.8919671425669549
 21
157.3687969691403055
 31
0.0
  0
LINE
  5
8C0A
  8
0
 10
3983.5770066270670213
 20
156.9750961817402981
 30
0.0
 11
3983.8919671425669549
 21
156.9750961817402981
 31
0.0
  0
LINE
  5
8C0B
  8
0
 10
3983.8919671424669104
 20
157.4475371265403112
 30
0.0
 11
3983.8919671425669549
 21
156.0105292525402945
 31
0.0
  0
LINE
  5
8C0C
  8
0
 10
3983.9214947015670987
 20
157.4770646856403005
 30
0.0
 11
3984.679368717367197
 21
157.4770646856403005
 31
0.0
  0
LINE
  5
8C0D
  8
0
 10
3983.9214947015670987
 20
155.9810016934403052
 30
0.0
 11
3984.679368717367197
 21
155.9810016934403052
 31
0.0
  0
LINE
  5
8C0E
  8
0
 10
3985.1518096622671692
 20
157.9987182289403052
 30
0.0
 11
3985.1518096622671692
 21
155.4593481502402881
 31
0.0
  0
LINE
  5
8C0F
  8
0
 10
3984.7581088748670481
 20
155.4691906698402875
 30
0.0
 11
3984.7581088748670481
 21
157.9888757092402898
 31
0.0
  0
LINE
  5
8C10
  8
0
 10
3984.797478953566042
 20
158.0282457879403069
 30
0.0
 11
3985.122282103166981
 21
158.0282457879403069
 31
0.0
  0
ARC
  5
8C11
  8
0
 10
3983.9214947015670987
 20
157.4475371265403112
 30
0.0
 40
0.0295275591000106
 50
90.0000000000260485
 51
180.0000000039765951
  0
ARC
  5
8C12
  8
0
 10
3984.679368717367197
 20
157.5558048431402938
 30
0.0
 40
0.0787401574999978
 50
270.0
 51
0.0000000000016284
  0
ARC
  5
8C13
  8
0
 10
3984.797478953566042
 20
157.9888757092402898
 30
0.0
 40
0.0393700787000029
 50
90.0
 51
179.999999999985306
  0
ARC
  5
8C14
  8
0
 10
3985.122282103337966
 20
157.9987182290109899
 30
0.0
 40
0.029527558929277
 50
359.9999998627661171
 51
90.0000003312645873
  0
ARC
  5
8C15
  8
0
 10
3984.797478953566042
 20
155.4691906698402875
 30
0.0
 40
0.0393700786999958
 50
180.0000000000098055
 51
270.0
  0
ARC
  5
8C16
  8
0
 10
3985.122282103166981
 20
155.4593481502402881
 30
0.0
 40
0.0295275590999874
 50
270.0000030782803151
 51
0.0000000000244267
  0
LINE
  5
8C17
  8
0
 10
3984.797478953566042
 20
155.4298205911402988
 30
0.0
 11
3985.122282103166981
 21
155.4298205911402988
 31
0.0
  0
ARC
  5
8C18
  8
0
 10
3983.9214947015670987
 20
156.0105292525402945
 30
0.0
 40
0.0295275591000035
 50
180.0000000000065086
 51
270.0
  0
ARC
  5
8C19
  8
0
 10
3984.679368717538182
 20
155.9022615361110127
 30
0.0
 40
0.0787401573292899
 50
359.999999948547611
 51
90.000000124204675
  0
LINE
  5
8C1B
  8
0
 10
3980.4522832374668724
 20
176.1250894528403137
 30
0.0
 11
3980.4912458704779965
 21
176.1392115909306142
 31
0.0
  0
LINE
  5
8C1C
  8
0
 10
3980.7168020075669119
 20
175.8973024529402949
 30
0.0
 11
3980.7705468675271732
 21
175.9322032892139873
 31
0.0
  0
LINE
  5
8C1D
  8
0
 10
3980.7857276807671951
 20
175.788779477240297
 30
0.0
 11
3980.8495501027668979
 21
175.8158887264403063
 31
0.0
  0
ENDSEC
  0
EOF
