  0
SECTION
  2
HEADER
  9
$ACADVER
  1
AC1009
  9
$INSBASE
 10
3610.9464572277947809
 20
215.8614731896400087
 30
0.0
  9
$EXTMIN
 10
3599.6278417463458936
 20
208.8318956473399908
 30
0.0
  9
$EXTMAX
 10
3622.265072709245942
 20
216.7118956473399862
 30
0.0
  9
$LIMMIN
 10
0.0
 20
0.0
  9
$LIMMAX
 10
11.6929133858000007
 20
8.2677165353999982
  9
$ORTHOMODE
 70
     0
  9
$REGENMODE
 70
     1
  9
$FILLMODE
 70
     1
  9
$QTEXTMODE
 70
     0
  9
$MIRRTEXT
 70
     0
  9
$DRAGMODE
 70
     2
  9
$LTSCALE
 40
0.6431102362
  9
$OSMODE
 70
  3839
  9
$ATTMODE
 70
     1
  9
$TEXTSIZE
 40
0.2
  9
$TRACEWID
 40
0.05
  9
$TEXTSTYLE
  7
STANDARD
  9
$CLAYER
  8
0
  9
$CELTYPE
  6
BYLAYER
  9
$CECOLOR
 62
   256
  9
$DIMSCALE
 40
1.0
  9
$DIMASZ
 40
0.1875
  9
$DIMEXO
 40
0.0625
  9
$DIMDLI
 40
0.4443307087
  9
$DIMRND
 40
0.0
  9
$DIMDLE
 40
0.0
  9
$DIMEXE
 40
0.125
  9
$DIMTP
 40
0.01
  9
$DIMTM
 40
0.01
  9
$DIMTXT
 40
2.0
  9
$DIMCEN
 40
0.1052362205
  9
$DIMTSZ
 40
0.0
  9
$DIMTOL
 70
     1
  9
$DIMLIM
 70
     0
  9
$DIMTIH
 70
     1
  9
$DIMTOH
 70
     1
  9
$DIMSE1
 70
     0
  9
$DIMSE2
 70
     0
  9
$DIMTAD
 70
     0
  9
$DIMZIN
 70
     0
  9
$DIMBLK
  1

  9
$DIMASO
 70
     1
  9
$DIMSHO
 70
     1
  9
$DIMPOST
  1
\X
  9
$DIMAPOST
  1

  9
$DIMALT
 70
     1
  9
$DIMALTD
 70
     2
  9
$DIMALTF
 40
25.3999999999999986
  9
$DIMLFAC
 40
1.0
  9
$DIMTOFL
 70
     0
  9
$DIMTVP
 40
0.0
  9
$DIMTIX
 70
     0
  9
$DIMSOXD
 70
     0
  9
$DIMSAH
 70
     0
  9
$DIMBLK1
  1

  9
$DIMBLK2
  1

  9
$DIMSTYLE
  2
STANDARD
  9
$DIMCLRD
 70
     0
  9
$DIMCLRE
 70
     0
  9
$DIMCLRT
 70
     0
  9
$DIMTFAC
 40
1.0
  9
$DIMGAP
 40
0.09
  9
$LUNITS
 70
     2
  9
$LUPREC
 70
     4
  9
$SKETCHINC
 40
0.1
  9
$FILLETRAD
 40
0.0
  9
$AUNITS
 70
     0
  9
$AUPREC
 70
     0
  9
$MENU
  1
.
  9
$ELEVATION
 40
0.0
  9
$PELEVATION
 40
0.0
  9
$THICKNESS
 40
0.0
  9
$LIMCHECK
 70
     0
  9
$BLIPMODE
 70
     0
  9
$CHAMFERA
 40
0.0
  9
$CHAMFERB
 40
0.0
  9
$SKPOLY
 70
     0
  9
$TDCREATE
 40
2458060.468368056230247
  9
$TDUPDATE
 40
2459040.4332407410256565
  9
$TDINDWG
 40
0.5658519676
  9
$TDUSRTIMER
 40
0.5658519676
  9
$USRTIMER
 70
     1
  9
$ANGBASE
 50
0.0
  9
$ANGDIR
 70
     0
  9
$PDMODE
 70
     0
  9
$PDSIZE
 40
0.3125
  9
$PLINEWID
 40
0.0
  9
$COORDS
 70
     1
  9
$SPLFRAME
 70
     0
  9
$SPLINETYPE
 70
     6
  9
$SPLINESEGS
 70
     8
  9
$ATTDIA
 70
     1
  9
$ATTREQ
 70
     1
  9
$HANDLING
 70
     1
  9
$HANDSEED
  5
95F0
  9
$SURFTAB1
 70
     6
  9
$SURFTAB2
 70
     6
  9
$SURFTYPE
 70
     6
  9
$SURFU
 70
     6
  9
$SURFV
 70
     6
  9
$UCSNAME
  2

  9
$UCSORG
 10
0.0
 20
0.0
 30
0.0
  9
$UCSXDIR
 10
1.0
 20
0.0
 30
0.0
  9
$UCSYDIR
 10
0.0
 20
1.0
 30
0.0
  9
$PUCSNAME
  2

  9
$PUCSORG
 10
0.0
 20
0.0
 30
0.0
  9
$PUCSXDIR
 10
1.0
 20
0.0
 30
0.0
  9
$PUCSYDIR
 10
0.0
 20
1.0
 30
0.0
  9
$USERI1
 70
     0
  9
$USERI2
 70
     0
  9
$USERI3
 70
     0
  9
$USERI4
 70
     0
  9
$USERI5
 70
     0
  9
$USERR1
 40
0.0
  9
$USERR2
 40
0.0
  9
$USERR3
 40
0.0
  9
$USERR4
 40
0.0
  9
$USERR5
 40
0.0
  9
$WORLDVIEW
 70
     1
  9
$SHADEDGE
 70
     3
  9
$SHADEDIF
 70
    70
  9
$TILEMODE
 70
     1
  9
$MAXACTVP
 70
    64
  9
$PLIMCHECK
 70
     0
  9
$PEXTMIN
 10
1.0000000000000000E+20
 20
1.0000000000000000E+20
 30
1.0000000000000000E+20
  9
$PEXTMAX
 10
-1.0000000000000000E+20
 20
-1.0000000000000000E+20
 30
-1.0000000000000000E+20
  9
$PLIMMIN
 10
0.0
 20
0.0
  9
$PLIMMAX
 10
12.0
 20
9.0
  9
$UNITMODE
 70
     0
  9
$VISRETAIN
 70
     1
  9
$PLINEGEN
 70
     0
  9
$PSLTSCALE
 70
     1
  0
ENDSEC
  0
SECTION
  2
TABLES
  0
TABLE
  2
VPORT
 70
     1
  0
VPORT
  2
*ACTIVE
 70
     0
 10
0.0
 20
0.0
 11
1.0
 21
1.0
 12
0.0
 22
0.0
 13
0.0
 23
0.0
 14
1.0
 24
1.0
 15
0.0
 25
0.0
 16
0.0
 26
0.0
 36
99.5105827143837018
 17
3610.946533203125
 27
212.7718963623046875
 37
0.0
 40
23.9695143698995992
 41
3.3143418467583499
 42
50.0
 43
0.0
 44
0.0
 50
0.0
 51
0.0
 71
     0
 72
   100
 73
     1
 74
     1
 75
     0
 76
     0
 77
     0
 78
     0
  0
ENDTAB
  0
TABLE
  2
LTYPE
 70
     2
  0
LTYPE
  2
CONTINUOUS
 70
     0
  3
Solid line
 72
    65
 73
     0
 40
0.0
  0
LTYPE
  2
PHANTOM2
 70
     0
  3
___ _ _ ___ _ _ ___ _ _ ___ _ _
 72
    65
 73
     6
 40
1.25
 49
0.625
 49
-0.125
 49
0.125
 49
-0.125
 49
0.125
 49
-0.125
  0
ENDTAB
  0
TABLE
  2
LAYER
 70
     2
  0
LAYER
  2
0
 70
     0
 62
   255
  6
CONTINUOUS
  0
LAYER
  2
DEFPOINTS
 70
     0
 62
     7
  6
CONTINUOUS
  0
ENDTAB
  0
TABLE
  2
STYLE
 70
     1
  0
STYLE
  2
STANDARD
 70
     0
 40
0.0
 41
0.8
 50
0.0
 71
     0
 42
0.2
  3
txt
  4

  0
ENDTAB
  0
TABLE
  2
VIEW
 70
     0
  0
ENDTAB
  0
TABLE
  2
UCS
 70
     0
  0
ENDTAB
  0
TABLE
  2
APPID
 70
     9
  0
APPID
  2
ACAD
 70
     0
  0
APPID
  2
ACAD_MLEADERVER
 70
     0
  0
APPID
  2
ACAD_EXEMPT_FROM_CAD_STANDARDS
 70
     0
  0
APPID
  2
ACAD_NAV_VCDISPLAY
 70
     0
  0
APPID
  2
ACAECLAYERSTANDARD
 70
     0
  0
APPID
  2
ACCMTRANSPARENCY
 70
     0
  0
APPID
  2
ACAD_DSTYLE_DIMJAG
 70
     0
  0
APPID
  2
ACAD_DSTYLE_DIMTALN
 70
     0
  0
APPID
  2
ACDBATTR
 70
     0
  0
ENDTAB
  0
TABLE
  2
DIMSTYLE
 70
     1
  0
DIMSTYLE
  2
STANDARD
 70
     0
  3

  4

  5

  6

  7

 40
1.0
 41
0.1875
 42
0.0625
 43
0.38
 44
0.125
 45
0.0
 46
0.0
 47
0.01
 48
0.01
140
0.15625
141
0.09
142
0.0
143
25.3999999999999986
144
1.0
145
0.0
146
1.0
147
0.09
 71
     1
 72
     0
 73
     1
 74
     1
 75
     0
 76
     0
 77
     0
 78
     4
170
     0
171
     2
172
     0
173
     0
174
     0
175
     0
176
     0
177
     0
178
     0
  0
ENDTAB
  0
ENDSEC
  0
SECTION
  2
BLOCKS
  0
BLOCK
  8
0
  2
$MODEL_SPACE
 70
     0
 10
0.0
 20
0.0
 30
0.0
  3
$MODEL_SPACE
  1

  0
ENDBLK
  5
21
  8
0
  0
BLOCK
 67
     1
  8
0
  2
$PAPER_SPACE
 70
     0
 10
0.0
 20
0.0
 30
0.0
  3
$PAPER_SPACE
  1

  0
ENDBLK
  5
1D
 67
     1
  8
0
  0
BLOCK
  8
0
  2
_FILLED
 70
     0
 10
0.0
 20
0.0
 30
0.0
  3
_FILLED
  1

  0
SOLID
  5
6F59
  8
0
  6
BYBLOCK
 62
     0
 10
0.0
 20
0.0
 30
0.0
 11
-1.0
 21
0.1666666667
 31
0.0
 12
-1.0
 22
-0.1666666667
 32
0.0
 13
-1.0
 23
-0.1666666667
 33
0.0
  0
ENDBLK
  5
6F5A
  8
0
  6
BYBLOCK
 62
     0
  0
ENDSEC
  0
SECTION
  2
ENTITIES
  0
ATTDEF
  5
3930
  8
DEFPOINTS
 10
3610.9466236072757965
 20
215.8601249724312936
 30
0.0
 40
0.001
  1
K-2356X-8
  3

  2
MODELNUMBER
 70
     0
1001
ACDBATTR
1070
     0
1070
     1
  0
ATTDEF
  5
3931
  8
DEFPOINTS
 10
3610.9466236072757965
 20
215.8584583057646
 30
0.0
 40
0.001
  1
ARCHER
  3

  2
TRADENAME
 70
     0
1001
ACDBATTR
1070
     0
1070
     1
  0
ATTDEF
  5
3932
  8
DEFPOINTS
 10
3610.9466236072757965
 20
215.8567916390979065
 30
0.0
 40
0.001
  1
BATHROOM SINK
  3

  2
PRODUCT
 70
     0
1001
ACDBATTR
1070
     0
1070
     1
  0
LINE
  5
9366
  8
0
 10
3621.9914572278457854
 20
216.7118956473399862
 30
0.0
 11
3599.9014570767708392
 21
216.7118956473399862
 31
0.0
  0
LINE
  5
9367
  8
0
 10
3622.0210386156741151
 20
215.8614731896400087
 30
0.0
 11
3599.8718758399168109
 21
215.8614731896400087
 31
0.0
  0
LINE
  5
9368
  8
0
 10
3609.8456389465031862
 20
208.8318956473399908
 30
0.0
 11
3612.0472755090449937
 21
208.8318956473399908
 31
0.0
  0
ARC
  5
9369
  8
0
 10
3612.0472755090881947
 20
209.0818956472309935
 30
0.0
 40
0.2499999998910161
 50
269.9999999902292984
 51
356.999999463898007
  0
LINE
  5
936A
  8
0
 10
3612.2969328925460104
 20
209.068811655839994
 30
0.0
 11
3612.3560613762451794
 21
210.197175854639994
 31
0.0
  0
ARC
  5
936B
  8
0
 10
3612.6057317794989103
 20
210.1840818273520881
 30
0.0
 40
0.2500135272572623
 50
96.5066697521812955
 51
176.9978588399557111
  0
LINE
  5
936C
  8
0
 10
3612.5774005281459722
 20
210.4324849352400122
 30
0.0
 11
3614.4931344350138716
 21
210.6106883073572078
 31
0.0
  0
ARC
  5
936D
  8
0
 10
3614.4113441441090799
 20
211.3565351843228939
 30
0.0
 40
0.7503180762622051
 50
276.2581049442118797
 51
287.5269441083839865
  0
LINE
  5
936E
  8
0
 10
3614.6373056324459867
 20
210.641050298840014
 30
0.0
 11
3618.373934702745828
 21
211.8763337789401078
 31
0.0
  0
ARC
  5
936F
  8
0
 10
3618.2748807654947996
 20
212.1700836127025127
 30
0.0
 40
0.3100010440632748
 50
288.6343678411030851
 51
345.8680935089143986
  0
LINE
  5
9370
  8
0
 10
3618.5755000006452065
 20
212.0943952861400135
 30
0.0
 11
3619.3635440284451761
 21
215.2242972462400132
 31
0.0
  0
ARC
  5
9371
  8
0
 10
3620.1894763221348512
 20
215.0095699900695081
 30
0.0
 40
0.8533885095912749
 50
93.3809270539904759
 51
165.426767592984703
  0
ARC
  5
9372
  8
0
 10
3610.9574618447950343
 20
201.7954400861098065
 30
0.0
 40
7.5393343665529509
 50
84.9816293209865563
 51
90.0836305040300971
  0
ARC
  5
9373
  8
0
 10
3611.632304824701805
 20
209.8430902172644039
 30
0.0
 40
0.5374352073189816
 50
268.3645353664227855
 51
354.6107231998572047
  0
LINE
  5
9374
  8
0
 10
3612.1673643319450093
 20
209.7926132346399868
 30
0.0
 11
3612.7911365999698319
 21
215.679377719016486
 31
0.0
  0
ARC
  5
9375
  8
0
 10
3612.9916516923540257
 20
215.6600935501597007
 30
0.0
 40
0.2014402676773737
 50
91.4057649327328789
 51
174.5065793217194141
  0
ARC
  5
9376
  8
0
 10
3622.1011260809332271
 20
215.8045724876031954
 30
0.0
 40
0.0982430251154671
 50
99.4822418863213471
 51
144.6068916922280891
  0
LINE
  5
9377
  8
0
 10
3618.3739347027449185
 20
211.8763337789399941
 30
0.0
 11
3612.6115119444461925
 21
211.8968732437400035
 31
0.0
  0
ARC
  5
9378
  8
0
 10
3612.6025037566141691
 20
211.6577998213907108
 30
0.0
 40
0.2392430745535084
 50
87.8421395095778337
 51
164.7711276702169982
  0
ARC
  5
9379
  8
0
 10
3612.5639813641378169
 20
210.0217409726051869
 30
0.0
 40
0.4109631088109663
 50
88.1287902974828654
 51
148.2372555758230988
  0
LINE
  5
937B
  8
0
 10
3622.1350727092458328
 20
215.9014731896400008
 30
0.0
 11
3599.7578417463460028
 21
215.9014731896400008
 31
0.0
  0
ARC
  5
937C
  8
0
 10
3622.1350727092458328
 20
216.0314731896399962
 30
0.0
 40
0.1299999999999919
 50
270.0
 51
0.0000000000016284
  0
LINE
  5
937D
  8
0
 10
3622.265072709245942
 20
216.0314731896399962
 30
0.0
 11
3622.2413782529451964
 21
216.468171931540013
 31
0.0
  0
ARC
  5
937E
  8
0
 10
3621.9914573788200869
 20
216.4618959857008065
 30
0.0
 40
0.2499996616391809
 50
1.4384939000461181
 51
90.0000346008132937
  0
ARC
  5
937F
  8
0
 10
3609.8662028962958175
 20
209.1035655290268096
 30
0.0
 40
0.27244706026138
 50
187.3287282672557978
 51
265.6712722786144809
  0
LINE
  5
9380
  8
0
 10
3609.5959815630458252
 20
209.068811655839994
 30
0.0
 11
3609.5368530793448372
 21
210.197175854639994
 31
0.0
  0
ARC
  5
9381
  8
0
 10
3609.2871826760920158
 20
210.1840818273520881
 30
0.0
 40
0.2500135272572623
 50
3.0021411600443368
 51
83.4933302478187329
  0
LINE
  5
9382
  8
0
 10
3609.3155139274458634
 20
210.4324849352400122
 30
0.0
 11
3607.3997800205770545
 21
210.6106883073572078
 31
0.0
  0
ARC
  5
9383
  8
0
 10
3607.4815703114818461
 20
211.3565351843228939
 30
0.0
 40
0.7503180762622051
 50
252.4730558916158998
 51
263.7418950557881203
  0
LINE
  5
9384
  8
0
 10
3607.2556088231458489
 20
210.641050298840014
 30
0.0
 11
3603.5189797528450981
 21
211.8763337789401078
 31
0.0
  0
ARC
  5
9385
  8
0
 10
3603.6180336900961265
 20
212.1700836127025127
 30
0.0
 40
0.3100010440632748
 50
194.1319064910856014
 51
251.3656321588968012
  0
LINE
  5
9386
  8
0
 10
3603.3174144549461744
 20
212.0943952861400135
 30
0.0
 11
3602.5293704271448405
 21
215.2242972462400132
 31
0.0
  0
ARC
  5
9387
  8
0
 10
3601.7034381334551654
 20
215.0095699900695081
 30
0.0
 40
0.8533885095912749
 50
14.5732324070152703
 51
86.6190729460094957
  0
ARC
  5
9388
  8
0
 10
3610.9354526107958918
 20
201.7954400861098065
 30
0.0
 40
7.5393343665529509
 50
89.9163694959698887
 51
95.0183706790134437
  0
ARC
  5
9389
  8
0
 10
3610.2606096308882115
 20
209.8430902172644039
 30
0.0
 40
0.5374352073189816
 50
185.3892768001427953
 51
271.6354646335771008
  0
LINE
  5
938A
  8
0
 10
3609.7255501236450073
 20
209.7926132346399868
 30
0.0
 11
3609.1017778556210942
 21
215.679377719016486
 31
0.0
  0
ARC
  5
938B
  8
0
 10
3608.9012627632369004
 20
215.6600935501597007
 30
0.0
 40
0.2014402676773737
 50
5.4934206782805859
 51
88.5942350672671068
  0
ARC
  5
938C
  8
0
 10
3599.7917883746590633
 20
215.8045724876031954
 30
0.0
 40
0.0982430251154671
 50
35.3931083077718895
 51
80.5177581136783971
  0
LINE
  5
938D
  8
0
 10
3603.5189797528450981
 20
211.8763337789399941
 30
0.0
 11
3609.2814025111451883
 21
211.8968732437400035
 31
0.0
  0
ARC
  5
938E
  8
0
 10
3609.2904106989772117
 20
211.6577998213907108
 30
0.0
 40
0.2392430745535084
 50
15.2288723297830106
 51
92.1578604904221663
  0
ARC
  5
938F
  8
0
 10
3609.3289330914531092
 20
210.0217409726051869
 30
0.0
 40
0.4109631088109663
 50
31.7627444241769403
 51
91.8712097025171346
  0
ARC
  5
9390
  8
0
 10
3599.7578417463460028
 20
216.0314731896399962
 30
0.0
 40
0.1299999999999919
 50
179.9999999999984084
 51
270.0
  0
LINE
  5
9391
  8
0
 10
3599.6278417463458936
 20
216.0314731896399962
 30
0.0
 11
3599.6515362026448202
 21
216.468171931540013
 31
0.0
  0
ARC
  5
9392
  8
0
 10
3599.9014570767699297
 20
216.4618959857012044
 30
0.0
 40
0.2499996616388103
 50
89.9999999997915552
 51
178.5615061000223136
  0
ENDSEC
  0
EOF
