  0
SECTION
  2
HEADER
  9
$ACADVER
  1
AC1009
  9
$INSBASE
 10
3612.5185161940448779
 20
227.2376826830187042
 30
0.0
  9
$EXTMIN
 10
3602.8251414919059243
 20
220.2081048693140133
 30
0.0
  9
$EXTMAX
 10
3622.2121414919070048
 20
228.0881051407187101
 30
0.0
  9
$LIMMIN
 10
0.0
 20
0.0
  9
$LIMMAX
 10
11.6929133858000007
 20
8.2677165353999982
  9
$ORTHOMODE
 70
     0
  9
$REGENMODE
 70
     1
  9
$FILLMODE
 70
     1
  9
$QTEXTMODE
 70
     0
  9
$MIRRTEXT
 70
     0
  9
$DRAGMODE
 70
     2
  9
$LTSCALE
 40
0.6431102362
  9
$OSMODE
 70
  3839
  9
$ATTMODE
 70
     1
  9
$TEXTSIZE
 40
0.2
  9
$TRACEWID
 40
0.05
  9
$TEXTSTYLE
  7
STANDARD
  9
$CLAYER
  8
0
  9
$CELTYPE
  6
BYLAYER
  9
$CECOLOR
 62
   256
  9
$DIMSCALE
 40
1.0
  9
$DIMASZ
 40
0.1875
  9
$DIMEXO
 40
0.0625
  9
$DIMDLI
 40
0.4443307087
  9
$DIMRND
 40
0.0
  9
$DIMDLE
 40
0.0
  9
$DIMEXE
 40
0.125
  9
$DIMTP
 40
0.01
  9
$DIMTM
 40
0.01
  9
$DIMTXT
 40
2.0
  9
$DIMCEN
 40
0.1052362205
  9
$DIMTSZ
 40
0.0
  9
$DIMTOL
 70
     1
  9
$DIMLIM
 70
     0
  9
$DIMTIH
 70
     1
  9
$DIMTOH
 70
     1
  9
$DIMSE1
 70
     0
  9
$DIMSE2
 70
     0
  9
$DIMTAD
 70
     0
  9
$DIMZIN
 70
     0
  9
$DIMBLK
  1

  9
$DIMASO
 70
     1
  9
$DIMSHO
 70
     1
  9
$DIMPOST
  1
\X
  9
$DIMAPOST
  1

  9
$DIMALT
 70
     1
  9
$DIMALTD
 70
     2
  9
$DIMALTF
 40
25.3999999999999986
  9
$DIMLFAC
 40
1.0
  9
$DIMTOFL
 70
     0
  9
$DIMTVP
 40
0.0
  9
$DIMTIX
 70
     0
  9
$DIMSOXD
 70
     0
  9
$DIMSAH
 70
     0
  9
$DIMBLK1
  1

  9
$DIMBLK2
  1

  9
$DIMSTYLE
  2
STANDARD
  9
$DIMCLRD
 70
     0
  9
$DIMCLRE
 70
     0
  9
$DIMCLRT
 70
     0
  9
$DIMTFAC
 40
1.0
  9
$DIMGAP
 40
0.09
  9
$LUNITS
 70
     2
  9
$LUPREC
 70
     4
  9
$SKETCHINC
 40
0.1
  9
$FILLETRAD
 40
0.0
  9
$AUNITS
 70
     0
  9
$AUPREC
 70
     0
  9
$MENU
  1
.
  9
$ELEVATION
 40
0.0
  9
$PELEVATION
 40
0.0
  9
$THICKNESS
 40
0.0
  9
$LIMCHECK
 70
     0
  9
$BLIPMODE
 70
     0
  9
$CHAMFERA
 40
0.0
  9
$CHAMFERB
 40
0.0
  9
$SKPOLY
 70
     0
  9
$TDCREATE
 40
2458060.468368056230247
  9
$TDUPDATE
 40
2459040.4350694450549781
  9
$TDINDWG
 40
0.5675533565000001
  9
$TDUSRTIMER
 40
0.5675533565000001
  9
$USRTIMER
 70
     1
  9
$ANGBASE
 50
0.0
  9
$ANGDIR
 70
     0
  9
$PDMODE
 70
     0
  9
$PDSIZE
 40
0.3125
  9
$PLINEWID
 40
0.0
  9
$COORDS
 70
     1
  9
$SPLFRAME
 70
     0
  9
$SPLINETYPE
 70
     6
  9
$SPLINESEGS
 70
     8
  9
$ATTDIA
 70
     1
  9
$ATTREQ
 70
     1
  9
$HANDLING
 70
     1
  9
$HANDSEED
  5
96D3
  9
$SURFTAB1
 70
     6
  9
$SURFTAB2
 70
     6
  9
$SURFTYPE
 70
     6
  9
$SURFU
 70
     6
  9
$SURFV
 70
     6
  9
$UCSNAME
  2

  9
$UCSORG
 10
0.0
 20
0.0
 30
0.0
  9
$UCSXDIR
 10
1.0
 20
0.0
 30
0.0
  9
$UCSYDIR
 10
0.0
 20
1.0
 30
0.0
  9
$PUCSNAME
  2

  9
$PUCSORG
 10
0.0
 20
0.0
 30
0.0
  9
$PUCSXDIR
 10
1.0
 20
0.0
 30
0.0
  9
$PUCSYDIR
 10
0.0
 20
1.0
 30
0.0
  9
$USERI1
 70
     0
  9
$USERI2
 70
     0
  9
$USERI3
 70
     0
  9
$USERI4
 70
     0
  9
$USERI5
 70
     0
  9
$USERR1
 40
0.0
  9
$USERR2
 40
0.0
  9
$USERR3
 40
0.0
  9
$USERR4
 40
0.0
  9
$USERR5
 40
0.0
  9
$WORLDVIEW
 70
     1
  9
$SHADEDGE
 70
     3
  9
$SHADEDIF
 70
    70
  9
$TILEMODE
 70
     1
  9
$MAXACTVP
 70
    64
  9
$PLIMCHECK
 70
     0
  9
$PEXTMIN
 10
1.0000000000000000E+20
 20
1.0000000000000000E+20
 30
1.0000000000000000E+20
  9
$PEXTMAX
 10
-1.0000000000000000E+20
 20
-1.0000000000000000E+20
 30
-1.0000000000000000E+20
  9
$PLIMMIN
 10
0.0
 20
0.0
  9
$PLIMMAX
 10
12.0
 20
9.0
  9
$UNITMODE
 70
     0
  9
$VISRETAIN
 70
     1
  9
$PLINEGEN
 70
     0
  9
$PSLTSCALE
 70
     1
  0
ENDSEC
  0
SECTION
  2
TABLES
  0
TABLE
  2
VPORT
 70
     1
  0
VPORT
  2
*ACTIVE
 70
     0
 10
0.0
 20
0.0
 11
1.0
 21
1.0
 12
0.0
 22
0.0
 13
0.0
 23
0.0
 14
1.0
 24
1.0
 15
0.0
 25
0.0
 16
0.0
 26
0.0
 36
86.8803792576129865
 17
3612.5186767578129547
 27
224.1481018066405966
 37
0.0
 40
20.9272264544449307
 41
3.314341846758349
 42
50.0
 43
0.0
 44
0.0
 50
0.0
 51
0.0
 71
     0
 72
   100
 73
     1
 74
     1
 75
     0
 76
     0
 77
     0
 78
     0
  0
ENDTAB
  0
TABLE
  2
LTYPE
 70
     2
  0
LTYPE
  2
CONTINUOUS
 70
     0
  3
Solid line
 72
    65
 73
     0
 40
0.0
  0
LTYPE
  2
PHANTOM2
 70
     0
  3
___ _ _ ___ _ _ ___ _ _ ___ _ _
 72
    65
 73
     6
 40
1.25
 49
0.625
 49
-0.125
 49
0.125
 49
-0.125
 49
0.125
 49
-0.125
  0
ENDTAB
  0
TABLE
  2
LAYER
 70
     2
  0
LAYER
  2
0
 70
     0
 62
   255
  6
CONTINUOUS
  0
LAYER
  2
DEFPOINTS
 70
     0
 62
     7
  6
CONTINUOUS
  0
ENDTAB
  0
TABLE
  2
STYLE
 70
     1
  0
STYLE
  2
STANDARD
 70
     0
 40
0.0
 41
0.8
 50
0.0
 71
     0
 42
0.2
  3
txt
  4

  0
ENDTAB
  0
TABLE
  2
VIEW
 70
     0
  0
ENDTAB
  0
TABLE
  2
UCS
 70
     0
  0
ENDTAB
  0
TABLE
  2
APPID
 70
     9
  0
APPID
  2
ACAD
 70
     0
  0
APPID
  2
ACAD_MLEADERVER
 70
     0
  0
APPID
  2
ACAD_EXEMPT_FROM_CAD_STANDARDS
 70
     0
  0
APPID
  2
ACAD_NAV_VCDISPLAY
 70
     0
  0
APPID
  2
ACAECLAYERSTANDARD
 70
     0
  0
APPID
  2
ACCMTRANSPARENCY
 70
     0
  0
APPID
  2
ACAD_DSTYLE_DIMJAG
 70
     0
  0
APPID
  2
ACAD_DSTYLE_DIMTALN
 70
     0
  0
APPID
  2
ACDBATTR
 70
     0
  0
ENDTAB
  0
TABLE
  2
DIMSTYLE
 70
     1
  0
DIMSTYLE
  2
STANDARD
 70
     0
  3

  4

  5

  6

  7

 40
1.0
 41
0.1875
 42
0.0625
 43
0.38
 44
0.125
 45
0.0
 46
0.0
 47
0.01
 48
0.01
140
0.15625
141
0.09
142
0.0
143
25.3999999999999986
144
1.0
145
0.0
146
1.0
147
0.09
 71
     1
 72
     0
 73
     1
 74
     1
 75
     0
 76
     0
 77
     0
 78
     4
170
     0
171
     2
172
     0
173
     0
174
     0
175
     0
176
     0
177
     0
178
     0
  0
ENDTAB
  0
ENDSEC
  0
SECTION
  2
BLOCKS
  0
BLOCK
  8
0
  2
$MODEL_SPACE
 70
     0
 10
0.0
 20
0.0
 30
0.0
  3
$MODEL_SPACE
  1

  0
ENDBLK
  5
21
  8
0
  0
BLOCK
 67
     1
  8
0
  2
$PAPER_SPACE
 70
     0
 10
0.0
 20
0.0
 30
0.0
  3
$PAPER_SPACE
  1

  0
ENDBLK
  5
1D
 67
     1
  8
0
  0
BLOCK
  8
0
  2
_FILLED
 70
     0
 10
0.0
 20
0.0
 30
0.0
  3
_FILLED
  1

  0
SOLID
  5
6F59
  8
0
  6
BYBLOCK
 62
     0
 10
0.0
 20
0.0
 30
0.0
 11
-1.0
 21
0.1666666667
 31
0.0
 12
-1.0
 22
-0.1666666667
 32
0.0
 13
-1.0
 23
-0.1666666667
 33
0.0
  0
ENDBLK
  5
6F5A
  8
0
  6
BYBLOCK
 62
     0
  0
ENDSEC
  0
SECTION
  2
ENTITIES
  0
ATTDEF
  5
3930
  8
DEFPOINTS
 10
3612.5078906566468504
 20
227.2362782364604072
 30
0.0
 40
0.001
  1
K-2356X-8
  3

  2
MODELNUMBER
 70
     0
1001
ACDBATTR
1070
     0
1070
     1
  0
ATTDEF
  5
3931
  8
DEFPOINTS
 10
3612.5078906566468504
 20
227.2346115697937989
 30
0.0
 40
0.001
  1
ARCHER
  3

  2
TRADENAME
 70
     0
1001
ACDBATTR
1070
     0
1070
     1
  0
ATTDEF
  5
3932
  8
DEFPOINTS
 10
3612.5078906566468504
 20
227.2329449031271054
 30
0.0
 40
0.001
  1
BATHROOM SINK
  3

  2
PRODUCT
 70
     0
1001
ACDBATTR
1070
     0
1070
     1
  0
LINE
  5
9487
  8
0
 10
3603.0827312244450695
 20
228.0881051407187101
 30
0.0
 11
3621.9393536165289333
 21
228.0881051407187101
 31
0.0
  0
LINE
  5
9488
  8
0
 10
3603.0684472519219526
 20
227.2376826830187042
 30
0.0
 11
3621.9685851361678033
 21
227.2376826830187042
 31
0.0
  0
LINE
  5
948A
  8
0
 10
3610.503563967205082
 20
220.2081051407186862
 30
0.0
 11
3612.7273407142811266
 21
220.2081051407186862
 31
0.0
  0
ARC
  5
948B
  8
0
 10
3612.7273407142811266
 20
220.4581051406875929
 30
0.0
 40
0.2499999999689102
 50
269.9999999999218971
 51
356.4236656337807858
  0
LINE
  5
948C
  8
0
 10
3612.9768538588741649
 20
220.4425105691888973
 30
0.0
 11
3613.0495095646801929
 21
221.5745794072527985
 31
0.0
  0
ARC
  5
948D
  8
0
 10
3613.2990084943221518
 20
221.5589857241884886
 30
0.0
 40
0.2499857572812435
 50
101.0482987365816996
 51
176.4236656337432976
  0
LINE
  5
948E
  8
0
 10
3613.2511021208219972
 20
221.8043382424588117
 30
0.0
 11
3614.1958828045208065
 21
221.9888116549491031
 31
0.0
  0
ARC
  5
948F
  8
0
 10
3614.0526592317619361
 20
222.7223312617392992
 30
0.0
 40
0.7473713971912223
 50
281.048298736581728
 51
294.4698069525085202
  0
LINE
  5
9490
  8
0
 10
3614.3622306769689203
 20
222.0420890066187098
 30
0.0
 11
3617.033495277602924
 21
223.2734823698199875
 31
0.0
  0
ARC
  5
9491
  8
0
 10
3616.9060666215777928
 20
223.5560975493170872
 30
0.0
 40
0.3100151642399254
 50
294.2701873793581058
 51
347.061219817533015
  0
LINE
  5
9492
  8
0
 10
3617.2082104592241194
 20
223.4866821084513049
 30
0.0
 11
3617.9272099850068116
 21
226.6167799507491907
 31
0.0
  0
ARC
  5
9493
  8
0
 10
3618.7123485950601207
 20
226.4343944604052012
 30
0.0
 40
0.8060441080266196
 50
94.7392827590715285
 51
166.9222921072530994
  0
ARC
  5
9494
  8
0
 10
3603.0998129520357907
 20
227.8376949802550087
 30
0.0
 40
0.2509920992400779
 50
93.902385776221081
 51
178.4734541634337859
  0
LINE
  5
9495
  8
0
 10
3602.8489099325061034
 20
227.8443814346186969
 30
0.0
 11
3602.8251414919059243
 21
227.4114733728887074
 31
0.0
  0
ARC
  5
9496
  8
0
 10
3602.991364502227043
 20
227.1853150302482902
 30
0.0
 40
0.093188633197612
 50
34.1909840389914024
 51
82.3889965774380357
  0
ARC
  5
9497
  8
0
 10
3603.877457803571815
 20
226.9268503097407859
 30
0.0
 40
0.3115306059881667
 50
13.1029226190148709
 51
86.1632057184823879
  0
ARC
  5
9498
  8
0
 10
3529.0310990780458269
 20
207.8843676523285069
 30
0.0
 40
77.5422469240026828
 50
11.7519707291087503
 51
14.2696905905827691
  0
ARC
  5
9499
  8
0
 10
3606.6686042831897794
 20
224.0754057832087938
 30
0.0
 40
1.766000000198876
 50
193.0108016791101875
 51
245.6919505210067882
  0
LINE
  5
949A
  8
0
 10
3605.9416438091061536
 20
222.4659697112186905
 30
0.0
 11
3609.7069127615350226
 21
220.7653288095361859
 31
0.0
  0
ARC
  5
949B
  8
0
 10
3610.5259488580518337
 20
222.5760133521571902
 30
0.0
 40
1.9873093972210021
 50
245.6610929690079956
 51
254.3805563951362956
  0
ARC
  5
949C
  8
0
 10
3609.7940952182339061
 20
220.1877034860808067
 30
0.0
 40
0.5135820281541309
 50
20.8489318532685388
 51
67.4712710282214232
  0
ARC
  5
949D
  8
0
 10
3610.503200874686172
 20
220.4509828112271066
 30
0.0
 40
0.242877941913057
 50
199.3545378342938079
 51
270.0856548622385844
  0
LINE
  5
949E
  8
0
 10
3613.2511021208219972
 20
221.8043382424588117
 30
0.0
 11
3612.5655514976151608
 21
221.7718012495099913
 31
0.0
  0
LINE
  5
949F
  8
0
 10
3612.5655514976151608
 20
221.7718012495099913
 30
0.0
 11
3610.6973175298599017
 21
221.7776925535333135
 31
0.0
  0
ARC
  5
94A0
  8
0
 10
3611.5476937382518372
 20
234.4966504909185119
 30
0.0
 40
12.7473538708539298
 50
258.8996688381093918
 51
266.1749568705511138
  0
ARC
  5
94A1
  8
0
 10
3609.6475881812939406
 20
224.0932373935388
 30
0.0
 40
2.177152279886104
 50
250.3994234547110977
 51
255.2553020818556035
  0
LINE
  5
94A2
  8
0
 10
3608.9172383930108481
 20
222.0422422115431118
 30
0.0
 11
3606.4880407931050286
 21
223.1390814495966026
 31
0.0
  0
ARC
  5
94A3
  8
0
 10
3606.7189984425731382
 20
223.7573924341226075
 30
0.0
 40
0.6600378090939218
 50
204.2206615501729061
 51
249.5178356359548957
  0
LINE
  5
94A4
  8
0
 10
3606.1170622875060872
 20
223.4866106499187026
 30
0.0
 11
3605.4217080480070763
 21
226.578127336318687
 31
0.0
  0
ARC
  5
94A5
  8
0
 10
3604.5534079224999005
 20
226.3660772630167912
 30
0.0
 40
0.8938178458397151
 50
13.7237479898407493
 51
77.1998624972386551
  0
ARC
  5
94A6
  8
0
 10
3621.9388301809281074
 20
227.8381047230762135
 30
0.0
 40
0.2500009656105841
 50
1.438661936400381
 51
89.8800377723595574
  0
LINE
  5
94A7
  8
0
 10
3622.1887523402060651
 20
227.8443814346186969
 30
0.0
 11
3622.2121414919070048
 21
227.4151431145535867
 31
0.0
  0
ARC
  5
94A8
  8
0
 10
3622.0505827857309669
 20
227.1739914722535048
 30
0.0
 40
0.1038276690607875
 50
92.9323423825380672
 51
142.161927975860408
  0
LINE
  5
94AA
  8
0
 10
3602.9552156549070787
 20
227.2776826830186963
 30
0.0
 11
3622.0824466177068643
 21
227.2776826830186963
 31
0.0
  0
ARC
  5
94AB
  8
0
 10
3602.9593949004929527
 20
227.4118716178170132
 30
0.0
 40
0.1342539992550223
 50
180.1699598312993089
 51
268.2161289414307248
  0
ARC
  5
94AC
  8
0
 10
3622.0730755981821858
 20
227.41643852934601
 30
0.0
 40
0.1390719270626558
 50
273.8636626238388203
 51
359.4662986612473219
  0
LINE
  5
9585
  8
0
 10
3606.2778628657260924
 20
223.2664247037436951
 30
0.0
 11
3617.0181850655158087
 21
223.2664247037436951
 31
0.0
  0
ENDSEC
  0
EOF
