  0
SECTION
  2
HEADER
  9
$ACADVER
  1
AC1009
  9
$INSBASE
 10
3419.6760502857109714
 20
285.941824879100011
 30
0.0
  9
$EXTMIN
 10
3407.7138897024087782
 20
285.9367812494759278
 30
0.0
  9
$EXTMAX
 10
3431.6382108690131645
 20
321.177824879100001
 30
0.0
  9
$LIMMIN
 10
0.0
 20
0.0
  9
$LIMMAX
 10
11.6929133858000007
 20
8.2677165353999982
  9
$ORTHOMODE
 70
     0
  9
$REGENMODE
 70
     1
  9
$FILLMODE
 70
     1
  9
$QTEXTMODE
 70
     0
  9
$MIRRTEXT
 70
     0
  9
$DRAGMODE
 70
     2
  9
$LTSCALE
 40
0.6431102362
  9
$OSMODE
 70
  3839
  9
$ATTMODE
 70
     1
  9
$TEXTSIZE
 40
0.2
  9
$TRACEWID
 40
0.05
  9
$TEXTSTYLE
  7
STANDARD
  9
$CLAYER
  8
0
  9
$CELTYPE
  6
BYLAYER
  9
$CECOLOR
 62
   256
  9
$DIMSCALE
 40
1.0
  9
$DIMASZ
 40
0.1875
  9
$DIMEXO
 40
0.0625
  9
$DIMDLI
 40
0.4443307087
  9
$DIMRND
 40
0.0
  9
$DIMDLE
 40
0.0
  9
$DIMEXE
 40
0.125
  9
$DIMTP
 40
0.01
  9
$DIMTM
 40
0.01
  9
$DIMTXT
 40
2.0
  9
$DIMCEN
 40
0.1052362205
  9
$DIMTSZ
 40
0.0
  9
$DIMTOL
 70
     1
  9
$DIMLIM
 70
     0
  9
$DIMTIH
 70
     1
  9
$DIMTOH
 70
     1
  9
$DIMSE1
 70
     0
  9
$DIMSE2
 70
     0
  9
$DIMTAD
 70
     0
  9
$DIMZIN
 70
     0
  9
$DIMBLK
  1

  9
$DIMASO
 70
     1
  9
$DIMSHO
 70
     1
  9
$DIMPOST
  1
\X
  9
$DIMAPOST
  1

  9
$DIMALT
 70
     1
  9
$DIMALTD
 70
     2
  9
$DIMALTF
 40
25.3999999999999986
  9
$DIMLFAC
 40
1.0
  9
$DIMTOFL
 70
     0
  9
$DIMTVP
 40
0.0
  9
$DIMTIX
 70
     0
  9
$DIMSOXD
 70
     0
  9
$DIMSAH
 70
     0
  9
$DIMBLK1
  1

  9
$DIMBLK2
  1

  9
$DIMSTYLE
  2
STANDARD
  9
$DIMCLRD
 70
     0
  9
$DIMCLRE
 70
     0
  9
$DIMCLRT
 70
     0
  9
$DIMTFAC
 40
1.0
  9
$DIMGAP
 40
0.09
  9
$LUNITS
 70
     2
  9
$LUPREC
 70
     4
  9
$SKETCHINC
 40
0.1
  9
$FILLETRAD
 40
0.0
  9
$AUNITS
 70
     0
  9
$AUPREC
 70
     0
  9
$MENU
  1
.
  9
$ELEVATION
 40
0.0
  9
$PELEVATION
 40
0.0
  9
$THICKNESS
 40
0.0
  9
$LIMCHECK
 70
     0
  9
$BLIPMODE
 70
     0
  9
$CHAMFERA
 40
0.0
  9
$CHAMFERB
 40
0.0
  9
$SKPOLY
 70
     0
  9
$TDCREATE
 40
2458060.468368056230247
  9
$TDUPDATE
 40
2459016.727534722071141
  9
$TDINDWG
 40
0.4572017824
  9
$TDUSRTIMER
 40
0.4572017824
  9
$USRTIMER
 70
     1
  9
$ANGBASE
 50
0.0
  9
$ANGDIR
 70
     0
  9
$PDMODE
 70
     0
  9
$PDSIZE
 40
0.3125
  9
$PLINEWID
 40
0.0
  9
$COORDS
 70
     1
  9
$SPLFRAME
 70
     0
  9
$SPLINETYPE
 70
     6
  9
$SPLINESEGS
 70
     8
  9
$ATTDIA
 70
     1
  9
$ATTREQ
 70
     1
  9
$HANDLING
 70
     1
  9
$HANDSEED
  5
786C
  9
$SURFTAB1
 70
     6
  9
$SURFTAB2
 70
     6
  9
$SURFTYPE
 70
     6
  9
$SURFU
 70
     6
  9
$SURFV
 70
     6
  9
$UCSNAME
  2

  9
$UCSORG
 10
0.0
 20
0.0
 30
0.0
  9
$UCSXDIR
 10
1.0
 20
0.0
 30
0.0
  9
$UCSYDIR
 10
0.0
 20
1.0
 30
0.0
  9
$PUCSNAME
  2

  9
$PUCSORG
 10
0.0
 20
0.0
 30
0.0
  9
$PUCSXDIR
 10
1.0
 20
0.0
 30
0.0
  9
$PUCSYDIR
 10
0.0
 20
1.0
 30
0.0
  9
$USERI1
 70
     0
  9
$USERI2
 70
     0
  9
$USERI3
 70
     0
  9
$USERI4
 70
     0
  9
$USERI5
 70
     0
  9
$USERR1
 40
0.0
  9
$USERR2
 40
0.0
  9
$USERR3
 40
0.0
  9
$USERR4
 40
0.0
  9
$USERR5
 40
0.0
  9
$WORLDVIEW
 70
     1
  9
$SHADEDGE
 70
     3
  9
$SHADEDIF
 70
    70
  9
$TILEMODE
 70
     1
  9
$MAXACTVP
 70
    64
  9
$PLIMCHECK
 70
     0
  9
$PEXTMIN
 10
1.0000000000000000E+20
 20
1.0000000000000000E+20
 30
1.0000000000000000E+20
  9
$PEXTMAX
 10
-1.0000000000000000E+20
 20
-1.0000000000000000E+20
 30
-1.0000000000000000E+20
  9
$PLIMMIN
 10
0.0
 20
0.0
  9
$PLIMMAX
 10
12.0
 20
9.0
  9
$UNITMODE
 70
     0
  9
$VISRETAIN
 70
     1
  9
$PLINEGEN
 70
     0
  9
$PSLTSCALE
 70
     1
  0
ENDSEC
  0
SECTION
  2
TABLES
  0
TABLE
  2
VPORT
 70
     1
  0
VPORT
  2
*ACTIVE
 70
     0
 10
0.0
 20
0.0
 11
1.0
 21
1.0
 12
0.0
 22
2.9776315542170262
 13
0.0
 23
0.0
 14
1.0
 24
1.0
 15
0.0
 25
0.0
 16
0.0
 26
0.0
 36
146.6901105444923985
 17
3419.676025390625
 27
303.557303588605123
 37
0.0
 40
48.5499123677174396
 41
2.3528591352859132
 42
50.0
 43
0.0
 44
0.0
 50
0.0
 51
0.0
 71
     0
 72
   100
 73
     1
 74
     1
 75
     0
 76
     0
 77
     0
 78
     0
  0
ENDTAB
  0
TABLE
  2
LTYPE
 70
     2
  0
LTYPE
  2
CONTINUOUS
 70
     0
  3
Solid line
 72
    65
 73
     0
 40
0.0
  0
LTYPE
  2
PHANTOM2
 70
     0
  3
___ _ _ ___ _ _ ___ _ _ ___ _ _
 72
    65
 73
     6
 40
1.25
 49
0.625
 49
-0.125
 49
0.125
 49
-0.125
 49
0.125
 49
-0.125
  0
ENDTAB
  0
TABLE
  2
LAYER
 70
     2
  0
LAYER
  2
0
 70
     0
 62
   255
  6
CONTINUOUS
  0
LAYER
  2
DEFPOINTS
 70
     0
 62
     7
  6
CONTINUOUS
  0
ENDTAB
  0
TABLE
  2
STYLE
 70
     1
  0
STYLE
  2
STANDARD
 70
     0
 40
0.0
 41
0.8
 50
0.0
 71
     0
 42
0.2
  3
txt
  4

  0
ENDTAB
  0
TABLE
  2
VIEW
 70
     0
  0
ENDTAB
  0
TABLE
  2
UCS
 70
     0
  0
ENDTAB
  0
TABLE
  2
APPID
 70
     9
  0
APPID
  2
ACAD
 70
     0
  0
APPID
  2
ACAD_MLEADERVER
 70
     0
  0
APPID
  2
ACAD_EXEMPT_FROM_CAD_STANDARDS
 70
     0
  0
APPID
  2
ACAD_NAV_VCDISPLAY
 70
     0
  0
APPID
  2
ACAECLAYERSTANDARD
 70
     0
  0
APPID
  2
ACCMTRANSPARENCY
 70
     0
  0
APPID
  2
ACAD_DSTYLE_DIMJAG
 70
     0
  0
APPID
  2
ACAD_DSTYLE_DIMTALN
 70
     0
  0
APPID
  2
ACDBATTR
 70
     0
  0
ENDTAB
  0
TABLE
  2
DIMSTYLE
 70
     1
  0
DIMSTYLE
  2
STANDARD
 70
     0
  3

  4

  5

  6

  7

 40
1.0
 41
0.1875
 42
0.0625
 43
0.38
 44
0.125
 45
0.0
 46
0.0
 47
0.01
 48
0.01
140
0.15625
141
0.09
142
0.0
143
25.3999999999999986
144
1.0
145
0.0
146
1.0
147
0.09
 71
     1
 72
     0
 73
     1
 74
     1
 75
     0
 76
     0
 77
     0
 78
     4
170
     0
171
     2
172
     0
173
     0
174
     0
175
     0
176
     0
177
     0
178
     0
  0
ENDTAB
  0
ENDSEC
  0
SECTION
  2
BLOCKS
  0
BLOCK
  8
0
  2
$MODEL_SPACE
 70
     0
 10
0.0
 20
0.0
 30
0.0
  3
$MODEL_SPACE
  1

  0
ENDBLK
  5
21
  8
0
  0
BLOCK
 67
     1
  8
0
  2
$PAPER_SPACE
 70
     0
 10
0.0
 20
0.0
 30
0.0
  3
$PAPER_SPACE
  1

  0
ENDBLK
  5
1D
 67
     1
  8
0
  0
BLOCK
  8
0
  2
_FILLED
 70
     0
 10
0.0
 20
0.0
 30
0.0
  3
_FILLED
  1

  0
SOLID
  5
7565
  8
0
  6
BYBLOCK
 62
     0
 10
0.0
 20
0.0
 30
0.0
 11
-1.0
 21
0.1666666667
 31
0.0
 12
-1.0
 22
-0.1666666667
 32
0.0
 13
-1.0
 23
-0.1666666667
 33
0.0
  0
ENDBLK
  5
7566
  8
0
  6
BYBLOCK
 62
     0
  0
ENDSEC
  0
SECTION
  2
ENTITIES
  0
ATTDEF
  5
3930
  8
DEFPOINTS
 10
3419.6763429254338007
 20
285.9401145828093149
 30
0.0
 40
0.001
  1
K-2359T-1
  3

  2
MODELNUMBER
 70
     0
1001
ACDBATTR
1070
     0
1070
     1
  0
ATTDEF
  5
3931
  8
DEFPOINTS
 10
3419.6763429254338007
 20
285.9384479161425929
 30
0.0
 40
0.001
  1
ARCHER
  3

  2
TRADENAME
 70
     0
1001
ACDBATTR
1070
     0
1070
     1
  0
ATTDEF
  5
3932
  8
DEFPOINTS
 10
3419.6763429254338007
 20
285.9367812494759278
 30
0.0
 40
0.001
  1
BATHROOM SINK
  3

  2
PRODUCT
 70
     0
1001
ACDBATTR
1070
     0
1070
     1
  0
LINE
  5
7749
  8
0
 10
3411.5766106533988022
 20
317.9948277495374214
 30
0.0
 11
3411.8755326254031388
 21
315.371223272899897
 31
0.0
  0
LINE
  5
774A
  8
0
 10
3414.832175296801779
 20
314.927824879100001
 30
0.0
 11
3412.3723185533021933
 21
314.927824879100001
 31
0.0
  0
ARC
  5
774B
  8
0
 10
3395.0145654188181652
 20
307.522138240776826
 30
0.0
 40
21.2783434132852989
 50
17.4758163369941393
 51
22.0475420464317615
  0
ARC
  5
774C
  8
0
 10
3415.547929117761214
 20
313.9863134507879749
 30
0.0
 40
0.2484910308082548
 50
197.3785290286633085
 51
270.2549015657485825
  0
ARC
  5
774D
  8
0
 10
3403.4942825041021024
 20
318.1737177452000083
 30
0.0
 40
5.0
 50
7.2380042102979214
 51
31.6407700314088096
  0
ARC
  5
774E
  8
0
 10
3411.0798458112640219
 20
317.9382117673035282
 30
0.0
 40
0.4999806774413048
 50
6.4980197443095857
 51
86.9907982985175892
  0
ARC
  5
774F
  8
0
 10
3412.3723185533021933
 20
315.4278248790998873
 30
0.0
 40
0.5
 50
186.4999999999998863
 51
270.0
  0
ARC
  5
7750
  8
0
 10
3407.9638907339581237
 20
320.9278238496390827
 30
0.0
 40
0.2500010315522053
 50
90.0074111457579846
 51
179.9997203661926051
  0
ARC
  5
7751
  8
0
 10
3407.9638976643018395
 20
320.9278281132829989
 30
0.0
 40
0.2500079619120626
 50
180.0006974980182974
 51
211.6405125461234036
  0
ARC
  5
7752
  8
0
 10
3408.7024470901019413
 20
318.8351719349998916
 30
0.0
 40
0.25
 50
187.2380042240974944
 51
266.0611158785965813
  0
ARC
  5
7753
  8
0
 10
3419.6761130502959531
 20
478.2090560664445889
 30
0.0
 40
160.0012325077927926
 50
266.0611241715668029
 51
269.9999775242679902
  0
ARC
  5
7754
  8
0
 10
3414.8306504265051444
 20
314.6931087735385972
 30
0.0
 40
0.2347210587895551
 50
49.3652507719917892
 51
89.6277741444989005
  0
LINE
  5
7755
  8
0
 10
3411.599436846286153
 20
318.411804195493005
 30
0.0
 11
3411.9766697104028026
 21
316.8484734774999083
 31
0.0
  0
ARC
  5
7756
  8
0
 10
3412.7681215253310256
 20
317.0421926301056033
 30
0.0
 40
0.8148147552915425
 50
193.7535603035624092
 51
241.3896060221505877
  0
ARC
  5
7757
  8
0
 10
3413.0108563377812061
 20
317.4872076665816962
 30
0.0
 40
1.321725567826308
 50
241.3896060221505877
 51
262.2439720182130145
  0
ARC
  5
7758
  8
0
 10
4566.8970168183359419
 20
4400.3559918785513219
 30
0.0
 40
4244.0992331846464367
 50
254.2213227147144892
 51
254.2447143716767073
  0
ARC
  5
7759
  8
0
 10
3414.2745901186558513
 20
315.1951676164820242
 30
0.0
 40
0.5590405122141121
 50
34.2147008641479005
 51
66.2220650681779972
  0
ARC
  5
775A
  8
0
 10
3419.5230724524180914
 20
267.8874810599730836
 30
0.0
 40
47.8619432694053728
 50
89.8168691337551905
 51
95.7391669859381693
  0
LINE
  5
775B
  8
0
 10
3415.2771353555090172
 20
285.941824879100011
 30
0.0
 11
3415.2541211707089133
 21
285.9829894717000229
 31
0.0
  0
ARC
  5
775C
  8
0
 10
3415.2104245115870071
 20
285.9418969577553185
 30
0.0
 40
0.0599832703398198
 50
43.2408173882506404
 51
89.8408003151100445
  0
ARC
  5
775D
  8
0
 10
3415.1619177109091652
 20
286.15175613629998
 30
0.0
 40
0.1499312572999978
 50
180.0
 51
268.4463621619260039
  0
ARC
  5
775E
  8
0
 10
3415.1619177109091652
 20
286.15175613629998
 30
0.0
 40
0.1499312573000062
 50
150.5008636244998002
 51
180.0
  0
ARC
  5
775F
  8
0
 10
3408.7409532907690846
 20
289.9044900989921985
 30
0.0
 40
7.2872739255079058
 50
329.6792784395560716
 51
345.7027816632257782
  0
ARC
  5
7760
  8
0
 10
3401.5833039752169498
 20
291.2871662162323787
 30
0.0
 40
14.5709688856345405
 50
347.3849932474639104
 51
358.6622626960627258
  0
LINE
  5
7761
  8
0
 10
3416.2197392963089442
 20
296.6918248766999113
 30
0.0
 11
3416.2197393012088469
 21
313.5418248790999769
 31
0.0
  0
ARC
  5
7762
  8
0
 10
3416.3697394348041598
 20
313.5418248473217204
 30
0.0
 40
0.1500001335945898
 50
94.1930641832613276
 51
179.9999878615589068
  0
ARC
  5
7763
  8
0
 10
3415.2887893590241219
 20
286.1517865837012096
 30
0.0
 40
0.1499122220242491
 50
179.9850418996207111
 51
269.5032218699989812
  0
ARC
  5
7764
  8
0
 10
3415.2890013968399217
 20
286.1518092750142728
 30
0.0
 40
0.1501242556320018
 50
150.8571683672591064
 51
179.9937232956550019
  0
ARC
  5
7765
  8
0
 10
3408.8869511368779968
 20
289.8009022009084106
 30
0.0
 40
7.2188802189153689
 50
330.306145836766575
 51
346.4122802092808797
  0
LINE
  5
7766
  8
0
 10
3416.3171923029090067
 20
296.6918235492998974
 30
0.0
 11
3416.3210003934850647
 21
313.5418847453940998
 31
0.0
  0
ARC
  5
7767
  8
0
 10
3416.4708889812818597
 20
313.5419285441836905
 30
0.0
 40
0.1498885941960254
 50
94.1534375691430654
 51
180.0167423401535984
  0
LINE
  5
7768
  8
0
 10
3416.2197392963089442
 20
296.6918248766999113
 30
0.0
 11
3416.185824422809219
 21
292.6103802086000201
 31
0.0
  0
LINE
  5
7769
  8
0
 10
3416.185824422809219
 20
292.6103802086000201
 30
0.0
 11
3416.1503015387088453
 21
290.9469953012999781
 31
0.0
  0
LINE
  5
776A
  8
0
 10
3416.3171923029090067
 20
296.6918235492998974
 30
0.0
 11
3416.2825751381919872
 21
292.5235238088126266
 31
0.0
  0
ARC
  5
776B
  8
0
 10
3396.0370402706012101
 20
292.0335801588116169
 30
0.0
 40
20.2514623386812005
 50
348.8141112623893036
 51
1.3862921105164769
  0
ARC
  5
776C
  8
0
 10
3409.0325396148150503
 20
289.8344401622301234
 30
0.0
 40
8.0701678800386443
 50
333.3207495716007998
 51
350.4131697271120061
  0
LINE
  5
776D
  8
0
 10
3417.2995562017508746
 20
296.6919746139442964
 30
0.0
 11
3417.2995562017508746
 21
313.6914234809000277
 31
0.0
  0
LINE
  5
776E
  8
0
 10
3417.2995562017508746
 20
296.6919746139442964
 30
0.0
 11
3417.2649390370329456
 21
292.5236748734570256
 31
0.0
  0
ARC
  5
776F
  8
0
 10
3392.8587103043528259
 20
292.1613847863349065
 30
0.0
 40
24.4089175314915217
 50
351.3502098796827227
 51
0.850445545402049
  0
LINE
  5
7770
  8
0
 10
3416.2435094038091847
 20
286.2109716147999734
 30
0.0
 11
3416.2435094038091847
 21
286.0018799965482117
 31
0.0
  0
LINE
  5
7771
  8
0
 10
3418.2925558764090965
 20
313.7378248790998896
 30
0.0
 11
3418.2966154727728281
 21
313.6914234809000277
 31
0.0
  0
LINE
  5
7772
  8
0
 10
3415.1578526587968554
 20
286.0018799965482117
 30
0.0
 11
3424.1942479126250873
 21
286.0018799965482117
 31
0.0
  0
LINE
  5
7773
  8
0
 10
3415.2771353555090172
 20
285.941824879100011
 30
0.0
 11
3424.0749652159129255
 21
285.941824879100011
 31
0.0
  0
LINE
  5
7774
  8
0
 10
3407.9638583966011538
 20
321.177824879100001
 30
0.0
 11
3431.3882421748207889
 21
321.177824879100001
 31
0.0
  0
LINE
  5
7775
  8
0
 10
3415.5490346188021249
 20
313.7378248790998896
 30
0.0
 11
3423.8030659526198178
 21
313.7378248790998896
 31
0.0
  0
LINE
  5
7776
  8
0
 10
3416.3587718047087947
 20
313.6914234809000277
 30
0.0
 11
3422.9933287667131481
 21
313.6914234809000277
 31
0.0
  0
LINE
  5
7777
  8
0
 10
3427.7754899180231405
 20
317.9948277495374214
 30
0.0
 11
3427.4765679460188039
 21
315.371223272899897
 31
0.0
  0
LINE
  5
7778
  8
0
 10
3424.5199252746201637
 20
314.927824879100001
 30
0.0
 11
3426.9797820181202042
 21
314.927824879100001
 31
0.0
  0
ARC
  5
7779
  8
0
 10
3444.3375351526051418
 20
307.522138240776826
 30
0.0
 40
21.2783434132852989
 50
157.9524579535681994
 51
162.5241836630058003
  0
ARC
  5
777A
  8
0
 10
3423.8041714536611835
 20
313.9863134507879749
 30
0.0
 40
0.2484910308082548
 50
269.7450984342514175
 51
342.6214709713366915
  0
ARC
  5
777B
  8
0
 10
3435.8578180673198403
 20
318.1737177452000083
 30
0.0
 40
5.0
 50
148.3592299685911939
 51
172.7619957897020981
  0
ARC
  5
777C
  8
0
 10
3428.2722547601579208
 20
317.9382117673035282
 30
0.0
 40
0.4999806774413048
 50
93.0092017014823966
 51
173.5019802556903983
  0
ARC
  5
777D
  8
0
 10
3426.9797820181202042
 20
315.4278248790998873
 30
0.0
 40
0.5
 50
270.0
 51
353.5000000000001137
  0
ARC
  5
777E
  8
0
 10
3430.6496534813200014
 20
318.8351719349998916
 30
0.0
 40
0.25
 50
273.938884121403305
 51
352.7619957759025056
  0
ARC
  5
777F
  8
0
 10
3419.6759875211259896
 20
478.2090560664445889
 30
0.0
 40
160.0012325077927926
 50
270.0000224757320098
 51
273.9388758284331971
  0
ARC
  5
7780
  8
0
 10
3424.5214501449181626
 20
314.6931087735385972
 30
0.0
 40
0.2347210587895551
 50
90.3722258555011138
 51
130.6347492280081894
  0
LINE
  5
7781
  8
0
 10
3427.7526637251357897
 20
318.411804195493005
 30
0.0
 11
3427.3754308610191401
 21
316.8484734774999083
 31
0.0
  0
ARC
  5
7782
  8
0
 10
3426.5839790460909171
 20
317.0421926301056033
 30
0.0
 40
0.8148147552915425
 50
298.6103939778494123
 51
346.2464396964376192
  0
ARC
  5
7783
  8
0
 10
3426.3412442336411914
 20
317.4872076665816962
 30
0.0
 40
1.321725567826308
 50
277.7560279817868718
 51
298.6103939778494123
  0
ARC
  5
7784
  8
0
 10
2272.4550837530850913
 20
4400.3559918785513219
 30
0.0
 40
4244.0992331846464367
 50
285.755285628323179
 51
285.7786772852854824
  0
ARC
  5
7785
  8
0
 10
3425.077510452767001
 20
315.1951676164820242
 30
0.0
 40
0.5590405122141121
 50
113.7779349318220028
 51
145.7852991358521137
  0
ARC
  5
7786
  8
0
 10
3419.8290281190038513
 20
267.8874810599730836
 30
0.0
 40
47.8619432694053728
 50
84.2608330140618449
 51
90.1831308662447952
  0
LINE
  5
7787
  8
0
 10
3424.0749652159129255
 20
285.941824879100011
 30
0.0
 11
3424.0979794007130295
 21
285.9829894717000229
 31
0.0
  0
ARC
  5
7788
  8
0
 10
3424.1416760598340261
 20
285.9418969577553185
 30
0.0
 40
0.0599832703398198
 50
90.1591996848899555
 51
136.7591826117493099
  0
ARC
  5
7789
  8
0
 10
3424.1901828605127776
 20
286.15175613629998
 30
0.0
 40
0.1499312572999978
 50
271.5536378380739961
 51
0.0
  0
ARC
  5
778A
  8
0
 10
3424.1901828605127776
 20
286.15175613629998
 30
0.0
 40
0.1499312573000062
 50
0.0
 51
29.4991363755002212
  0
ARC
  5
778B
  8
0
 10
3430.6111472806542224
 20
289.9044900989921985
 30
0.0
 40
7.2872739255079058
 50
194.2972183367741934
 51
210.3207215604439
  0
ARC
  5
778C
  8
0
 10
3437.7687965962040835
 20
291.2871662162323787
 30
0.0
 40
14.5709688856345405
 50
181.3377373039371889
 51
192.6150067525360896
  0
LINE
  5
778D
  8
0
 10
3423.1323612751139081
 20
296.6918248766999113
 30
0.0
 11
3423.1323612702130958
 21
313.5418248790999769
 31
0.0
  0
ARC
  5
778E
  8
0
 10
3422.9823611366191471
 20
313.5418248473217204
 30
0.0
 40
0.1500001335945898
 50
0.0000121384410943
 51
85.8069358167386582
  0
ARC
  5
778F
  8
0
 10
3424.0633112123969113
 20
286.1517865837012096
 30
0.0
 40
0.1499122220242414
 50
270.4967781300009051
 51
0.0149581003792309
  0
ARC
  5
7790
  8
0
 10
3424.0630991745820211
 20
286.1518092750142728
 30
0.0
 40
0.1501242556320018
 50
0.0062767043449955
 51
29.1428316327409114
  0
ARC
  5
7791
  8
0
 10
3430.4651494345430365
 20
289.8009022009084106
 30
0.0
 40
7.2188802189153689
 50
193.5877197907190919
 51
209.6938541632304975
  0
LINE
  5
7792
  8
0
 10
3423.034908268512936
 20
296.6918235492998974
 30
0.0
 11
3423.0311001779359685
 21
313.5418847453940998
 31
0.0
  0
ARC
  5
7793
  8
0
 10
3422.881211590140083
 20
313.5419285441836905
 30
0.0
 40
0.1498885941960254
 50
359.9832576598462879
 51
85.8465624308569346
  0
LINE
  5
7794
  8
0
 10
3423.1323612751139081
 20
296.6918248766999113
 30
0.0
 11
3423.1662761486131785
 21
292.6103802086000201
 31
0.0
  0
LINE
  5
7795
  8
0
 10
3423.1662761486131785
 20
292.6103802086000201
 30
0.0
 11
3423.2017990327130974
 21
290.9469953012999781
 31
0.0
  0
LINE
  5
7796
  8
0
 10
3423.034908268512936
 20
296.6918235492998974
 30
0.0
 11
3423.069525433230865
 21
292.5235238088126266
 31
0.0
  0
ARC
  5
7797
  8
0
 10
3443.3150603008220969
 20
292.0335801588116169
 30
0.0
 40
20.2514623386812005
 50
178.6137078894834929
 51
191.1858887376106111
  0
ARC
  5
7798
  8
0
 10
3430.3195609566078019
 20
289.8344401622301234
 30
0.0
 40
8.0701678800386443
 50
189.5868302728879087
 51
206.6792504283990866
  0
LINE
  5
7799
  8
0
 10
3422.0525443696719776
 20
296.6919746139442964
 30
0.0
 11
3422.0525443696719776
 21
313.6914234809000277
 31
0.0
  0
LINE
  5
779A
  8
0
 10
3422.0525443696719776
 20
296.6919746139442964
 30
0.0
 11
3422.0871615343889971
 21
292.5236748734570256
 31
0.0
  0
ARC
  5
779B
  8
0
 10
3446.4933902670700263
 20
292.1613847863349065
 30
0.0
 40
24.4089175314915217
 50
179.1495544545979044
 51
188.6497901203173058
  0
LINE
  5
779C
  8
0
 10
3423.1085911676132127
 20
286.2109716147999734
 30
0.0
 11
3423.1085911676132127
 21
286.0018799965482117
 31
0.0
  0
LINE
  5
779D
  8
0
 10
3421.0595446950128462
 20
313.7378248790998896
 30
0.0
 11
3421.0554850986491147
 21
313.6914234809000277
 31
0.0
  0
ARC
  5
779E
  8
0
 10
3431.3882098374629095
 20
320.9278238496390827
 30
0.0
 40
0.2500010315522053
 50
0.0002796338074106
 51
89.9925888542420154
  0
ARC
  5
779F
  8
0
 10
3431.3882029071201032
 20
320.9278281132829989
 30
0.0
 40
0.2500079619120626
 50
328.3594874538766248
 51
359.9993025019816173
  0
LINE
  5
77A1
  8
0
 10
3412.8324826299458437
 20
316.1775736349222825
 30
0.0
 11
3426.5196179411627782
 21
316.1775736348344026
 31
0.0
  0
ENDSEC
  0
EOF
