  0
SECTION
  2
HEADER
  9
$ACADVER
  1
AC1009
  9
$INSBASE
 10
3464.7621996904208572
 20
288.1900206998964222
 30
0.0
  9
$EXTMIN
 10
3444.3501244267731636
 20
288.1854836119496781
 30
0.0
  9
$EXTMAX
 10
3464.7621996905218111
 20
323.4260206998964122
 30
0.0
  9
$LIMMIN
 10
0.0
 20
0.0
  9
$LIMMAX
 10
11.6929133858000007
 20
8.2677165353999982
  9
$ORTHOMODE
 70
     0
  9
$REGENMODE
 70
     1
  9
$FILLMODE
 70
     1
  9
$QTEXTMODE
 70
     0
  9
$MIRRTEXT
 70
     0
  9
$DRAGMODE
 70
     2
  9
$LTSCALE
 40
0.6431102362
  9
$OSMODE
 70
  3839
  9
$ATTMODE
 70
     1
  9
$TEXTSIZE
 40
0.2
  9
$TRACEWID
 40
0.05
  9
$TEXTSTYLE
  7
STANDARD
  9
$CLAYER
  8
0
  9
$CELTYPE
  6
BYLAYER
  9
$CECOLOR
 62
   256
  9
$DIMSCALE
 40
1.0
  9
$DIMASZ
 40
0.1875
  9
$DIMEXO
 40
0.0625
  9
$DIMDLI
 40
0.4443307087
  9
$DIMRND
 40
0.0
  9
$DIMDLE
 40
0.0
  9
$DIMEXE
 40
0.125
  9
$DIMTP
 40
0.01
  9
$DIMTM
 40
0.01
  9
$DIMTXT
 40
2.0
  9
$DIMCEN
 40
0.1052362205
  9
$DIMTSZ
 40
0.0
  9
$DIMTOL
 70
     1
  9
$DIMLIM
 70
     0
  9
$DIMTIH
 70
     1
  9
$DIMTOH
 70
     1
  9
$DIMSE1
 70
     0
  9
$DIMSE2
 70
     0
  9
$DIMTAD
 70
     0
  9
$DIMZIN
 70
     0
  9
$DIMBLK
  1

  9
$DIMASO
 70
     1
  9
$DIMSHO
 70
     1
  9
$DIMPOST
  1
\X
  9
$DIMAPOST
  1

  9
$DIMALT
 70
     1
  9
$DIMALTD
 70
     2
  9
$DIMALTF
 40
25.3999999999999986
  9
$DIMLFAC
 40
1.0
  9
$DIMTOFL
 70
     0
  9
$DIMTVP
 40
0.0
  9
$DIMTIX
 70
     0
  9
$DIMSOXD
 70
     0
  9
$DIMSAH
 70
     0
  9
$DIMBLK1
  1

  9
$DIMBLK2
  1

  9
$DIMSTYLE
  2
STANDARD
  9
$DIMCLRD
 70
     0
  9
$DIMCLRE
 70
     0
  9
$DIMCLRT
 70
     0
  9
$DIMTFAC
 40
1.0
  9
$DIMGAP
 40
0.09
  9
$LUNITS
 70
     2
  9
$LUPREC
 70
     4
  9
$SKETCHINC
 40
0.1
  9
$FILLETRAD
 40
0.0
  9
$AUNITS
 70
     0
  9
$AUPREC
 70
     0
  9
$MENU
  1
.
  9
$ELEVATION
 40
0.0
  9
$PELEVATION
 40
0.0
  9
$THICKNESS
 40
0.0
  9
$LIMCHECK
 70
     0
  9
$BLIPMODE
 70
     0
  9
$CHAMFERA
 40
0.0
  9
$CHAMFERB
 40
0.0
  9
$SKPOLY
 70
     0
  9
$TDCREATE
 40
2458060.468368056230247
  9
$TDUPDATE
 40
2459016.7293171300552785
  9
$TDINDWG
 40
0.4556740046
  9
$TDUSRTIMER
 40
0.4556740046
  9
$USRTIMER
 70
     1
  9
$ANGBASE
 50
0.0
  9
$ANGDIR
 70
     0
  9
$PDMODE
 70
     0
  9
$PDSIZE
 40
0.3125
  9
$PLINEWID
 40
0.0
  9
$COORDS
 70
     1
  9
$SPLFRAME
 70
     0
  9
$SPLINETYPE
 70
     6
  9
$SPLINESEGS
 70
     8
  9
$ATTDIA
 70
     1
  9
$ATTREQ
 70
     1
  9
$HANDLING
 70
     1
  9
$HANDSEED
  5
7954
  9
$SURFTAB1
 70
     6
  9
$SURFTAB2
 70
     6
  9
$SURFTYPE
 70
     6
  9
$SURFU
 70
     6
  9
$SURFV
 70
     6
  9
$UCSNAME
  2

  9
$UCSORG
 10
0.0
 20
0.0
 30
0.0
  9
$UCSXDIR
 10
1.0
 20
0.0
 30
0.0
  9
$UCSYDIR
 10
0.0
 20
1.0
 30
0.0
  9
$PUCSNAME
  2

  9
$PUCSORG
 10
0.0
 20
0.0
 30
0.0
  9
$PUCSXDIR
 10
1.0
 20
0.0
 30
0.0
  9
$PUCSYDIR
 10
0.0
 20
1.0
 30
0.0
  9
$USERI1
 70
     0
  9
$USERI2
 70
     0
  9
$USERI3
 70
     0
  9
$USERI4
 70
     0
  9
$USERI5
 70
     0
  9
$USERR1
 40
0.0
  9
$USERR2
 40
0.0
  9
$USERR3
 40
0.0
  9
$USERR4
 40
0.0
  9
$USERR5
 40
0.0
  9
$WORLDVIEW
 70
     1
  9
$SHADEDGE
 70
     3
  9
$SHADEDIF
 70
    70
  9
$TILEMODE
 70
     1
  9
$MAXACTVP
 70
    64
  9
$PLIMCHECK
 70
     0
  9
$PEXTMIN
 10
1.0000000000000000E+20
 20
1.0000000000000000E+20
 30
1.0000000000000000E+20
  9
$PEXTMAX
 10
-1.0000000000000000E+20
 20
-1.0000000000000000E+20
 30
-1.0000000000000000E+20
  9
$PLIMMIN
 10
0.0
 20
0.0
  9
$PLIMMAX
 10
12.0
 20
9.0
  9
$UNITMODE
 70
     0
  9
$VISRETAIN
 70
     1
  9
$PLINEGEN
 70
     0
  9
$PSLTSCALE
 70
     1
  0
ENDSEC
  0
SECTION
  2
TABLES
  0
TABLE
  2
VPORT
 70
     1
  0
VPORT
  2
*ACTIVE
 70
     0
 10
0.0
 20
0.0
 11
1.0
 21
1.0
 12
-0.9896122042360389
 22
0.7308402357146875
 13
0.0
 23
0.0
 14
1.0
 24
1.0
 15
0.0
 25
0.0
 16
0.0
 26
0.0
 36
140.2523261443267018
 17
3454.55615234375
 27
305.8057545012874243
 37
0.0
 40
57.0251944954571712
 41
2.3528591352859132
 42
50.0
 43
0.0
 44
0.0
 50
0.0
 51
0.0
 71
     0
 72
   100
 73
     1
 74
     1
 75
     0
 76
     0
 77
     0
 78
     0
  0
ENDTAB
  0
TABLE
  2
LTYPE
 70
     2
  0
LTYPE
  2
CONTINUOUS
 70
     0
  3
Solid line
 72
    65
 73
     0
 40
0.0
  0
LTYPE
  2
PHANTOM2
 70
     0
  3
___ _ _ ___ _ _ ___ _ _ ___ _ _
 72
    65
 73
     6
 40
1.25
 49
0.625
 49
-0.125
 49
0.125
 49
-0.125
 49
0.125
 49
-0.125
  0
ENDTAB
  0
TABLE
  2
LAYER
 70
     2
  0
LAYER
  2
0
 70
     0
 62
   255
  6
CONTINUOUS
  0
LAYER
  2
DEFPOINTS
 70
     0
 62
     7
  6
CONTINUOUS
  0
ENDTAB
  0
TABLE
  2
STYLE
 70
     1
  0
STYLE
  2
STANDARD
 70
     0
 40
0.0
 41
0.8
 50
0.0
 71
     0
 42
0.2
  3
txt
  4

  0
ENDTAB
  0
TABLE
  2
VIEW
 70
     0
  0
ENDTAB
  0
TABLE
  2
UCS
 70
     0
  0
ENDTAB
  0
TABLE
  2
APPID
 70
     9
  0
APPID
  2
ACAD
 70
     0
  0
APPID
  2
ACAD_MLEADERVER
 70
     0
  0
APPID
  2
ACAD_EXEMPT_FROM_CAD_STANDARDS
 70
     0
  0
APPID
  2
ACAD_NAV_VCDISPLAY
 70
     0
  0
APPID
  2
ACAECLAYERSTANDARD
 70
     0
  0
APPID
  2
ACCMTRANSPARENCY
 70
     0
  0
APPID
  2
ACAD_DSTYLE_DIMJAG
 70
     0
  0
APPID
  2
ACAD_DSTYLE_DIMTALN
 70
     0
  0
APPID
  2
ACDBATTR
 70
     0
  0
ENDTAB
  0
TABLE
  2
DIMSTYLE
 70
     1
  0
DIMSTYLE
  2
STANDARD
 70
     0
  3

  4

  5

  6

  7

 40
1.0
 41
0.1875
 42
0.0625
 43
0.38
 44
0.125
 45
0.0
 46
0.0
 47
0.01
 48
0.01
140
0.15625
141
0.09
142
0.0
143
25.3999999999999986
144
1.0
145
0.0
146
1.0
147
0.09
 71
     1
 72
     0
 73
     1
 74
     1
 75
     0
 76
     0
 77
     0
 78
     4
170
     0
171
     2
172
     0
173
     0
174
     0
175
     0
176
     0
177
     0
178
     0
  0
ENDTAB
  0
ENDSEC
  0
SECTION
  2
BLOCKS
  0
BLOCK
  8
0
  2
$MODEL_SPACE
 70
     0
 10
0.0
 20
0.0
 30
0.0
  3
$MODEL_SPACE
  1

  0
ENDBLK
  5
21
  8
0
  0
BLOCK
 67
     1
  8
0
  2
$PAPER_SPACE
 70
     0
 10
0.0
 20
0.0
 30
0.0
  3
$PAPER_SPACE
  1

  0
ENDBLK
  5
1D
 67
     1
  8
0
  0
BLOCK
  8
0
  2
_FILLED
 70
     0
 10
0.0
 20
0.0
 30
0.0
  3
_FILLED
  1

  0
SOLID
  5
7565
  8
0
  6
BYBLOCK
 62
     0
 10
0.0
 20
0.0
 30
0.0
 11
-1.0
 21
0.1666666667
 31
0.0
 12
-1.0
 22
-0.1666666667
 32
0.0
 13
-1.0
 23
-0.1666666667
 33
0.0
  0
ENDBLK
  5
7566
  8
0
  6
BYBLOCK
 62
     0
  0
ENDSEC
  0
SECTION
  2
ENTITIES
  0
ATTDEF
  5
3930
  8
DEFPOINTS
 10
3464.7511010501270903
 20
288.1888169452831221
 30
0.0
 40
0.001
  1
K-2359T-8
  3

  2
MODELNUMBER
 70
     0
1001
ACDBATTR
1070
     0
1070
     1
  0
ATTDEF
  5
3931
  8
DEFPOINTS
 10
3464.7511010501270903
 20
288.1871502786164001
 30
0.0
 40
0.001
  1
ARCHER
  3

  2
TRADENAME
 70
     0
1001
ACDBATTR
1070
     0
1070
     1
  0
ATTDEF
  5
3932
  8
DEFPOINTS
 10
3464.7511010501270903
 20
288.1854836119496781
 30
0.0
 40
0.001
  1
BATHROOM SINK
  3

  2
PRODUCT
 70
     0
1001
ACDBATTR
1070
     0
1070
     1
  0
LINE
  5
77EC
  8
0
 10
3457.7566620208222048
 20
318.5204826664964912
 30
0.0
 11
3456.6113055552218611
 21
317.9959265300964262
 31
0.0
  0
LINE
  5
77ED
  8
0
 10
3446.9523866600211477
 20
320.8324057709963881
 30
0.0
 11
3446.9523866600211477
 21
320.831817669296413
 31
0.0
  0
LINE
  5
77EE
  8
0
 10
3447.5757216533670544
 20
320.8324041461074216
 30
0.0
 11
3448.0244237423271443
 21
319.0425669927759031
 31
0.0
  0
LINE
  5
77EF
  8
0
 10
3464.7446260972210439
 20
317.4684471067964182
 30
0.0
 11
3464.7197732834220005
 21
317.4435942930965098
 31
0.0
  0
LINE
  5
77F0
  8
0
 10
3457.2632129056692065
 20
316.2079266860775988
 30
0.0
 11
3457.2957392781218005
 21
316.8159082510964026
 31
0.0
  0
LINE
  5
77F1
  8
0
 10
3448.5172475548879447
 20
318.4844545263163127
 30
0.0
 11
3449.1921710645210624
 21
318.2227574035964039
 31
0.0
  0
LINE
  5
77F2
  8
0
 10
3464.7021996898211
 20
317.2360206998964145
 30
0.0
 11
3464.7021996896219207
 21
323.3660206998965236
 31
0.0
  0
LINE
  5
77F3
  8
0
 10
3464.7621996903208128
 20
317.5108735136964242
 30
0.0
 11
3464.7621996905218111
 21
323.0911678861965015
 31
0.0
  0
LINE
  5
77F4
  8
0
 10
3457.6692320415641007
 20
317.1760206998964122
 30
0.0
 11
3464.6421996903218314
 21
317.1760206998964122
 31
0.0
  0
LINE
  5
77F5
  8
0
 10
3446.8757631375210622
 20
320.8315823273964043
 30
0.0
 11
3446.9523866594217907
 21
320.8318176672963773
 31
0.0
  0
LINE
  5
77F6
  8
0
 10
3464.6421996904391563
 20
320.8324058329724267
 30
0.0
 11
3446.9523865844221291
 21
320.8324040844963747
 31
0.0
  0
LINE
  5
77F7
  8
0
 10
3464.7197732831218673
 20
323.1584471064963964
 30
0.0
 11
3464.7446260968217757
 21
323.1335942926965004
 31
0.0
  0
ARC
  5
77F8
  8
0
 10
3427.9851779741029532
 20
320.4688240556562278
 30
0.0
 40
16.5873553502345388
 50
0.8083300336224489
 51
9.3931573158208916
  0
ARC
  5
77F9
  8
0
 10
3448.8100764592209089
 20
319.2396705447965246
 30
0.0
 40
0.8100000011
 50
194.083619301389291
 51
248.806600389492786
  0
ARC
  5
77FA
  8
0
 10
3450.1756464164400313
 20
316.2360232988643247
 30
0.0
 40
0.2500026194934227
 50
192.1143121968476919
 51
270.0232173194269194
  0
ARC
  5
77FB
  8
0
 10
3444.6001297085708757
 20
323.1760154260957165
 30
0.0
 40
0.2500052817973417
 50
90.0144915761488136
 51
180.0
  0
ARC
  5
77FC
  8
0
 10
3459.502153838520826
 20
318.0687677069964252
 30
0.0
 40
1.0
 50
295.5649171639976203
 51
296.7202947094925776
  0
ARC
  5
77FD
  8
0
 10
3457.6752888406881539
 20
316.7959983160228035
 30
0.0
 40
0.380070647459896
 50
90.9131031808868926
 51
176.9970909463611974
  0
ARC
  5
77FE
  8
0
 10
3457.0151741521240183
 20
316.2355981526200139
 30
0.0
 40
0.2495775096453506
 50
270.0386967122731221
 51
353.634343670399403
  0
ARC
  5
77FF
  8
0
 10
3453.8922039956210028
 20
329.7960206998964168
 30
0.0
 40
14.0
 50
283.9329560537080965
 51
295.5649842471100897
  0
ARC
  5
7800
  8
0
 10
3464.6421996903218314
 20
317.2360206998964145
 30
0.0
 40
0.06
 50
270.000000000208388
 51
0.0
  0
ARC
  5
7801
  8
0
 10
3464.7021996903217769
 20
317.5108735136964242
 30
0.0
 40
0.06
 50
314.999999999898705
 51
359.9999999995994244
  0
ARC
  5
7802
  8
0
 10
3464.7641687699569957
 20
317.3997240972730083
 30
0.0
 40
0.062414367746916
 50
135.3409772034484888
 51
173.1518354680578113
  0
ARC
  5
7803
  8
0
 10
3464.6421996905219203
 20
323.3660206998965236
 30
0.0
 40
0.06
 50
0.000012615702204
 51
90.0000000057060845
  0
ARC
  5
7804
  8
0
 10
3464.7021996905218657
 20
323.0911678861965015
 30
0.0
 40
0.06
 50
0.0000000004005972
 51
45.0000003560848469
  0
ARC
  5
7805
  8
0
 10
3464.7621996905218111
 20
323.2008735136964219
 30
0.0
 40
0.06
 50
180.000000000400604
 51
224.9999996437861967
  0
ARC
  5
7806
  8
0
 10
3444.8201235379319769
 20
320.7052722632531072
 30
0.0
 40
0.2492528837926095
 50
180.5611725412182977
 51
270.1864989541526825
  0
ARC
  5
7807
  8
0
 10
3437.3311398537061905
 20
353.0346173798272957
 30
0.0
 40
33.4284607911766969
 50
282.9472819742895808
 51
285.3347225905924915
  0
ARC
  5
7808
  8
0
 10
3446.8354608107051718
 20
314.5906531405742044
 30
0.0
 40
6.2410593165324784
 50
89.6300036318785942
 51
96.1065726231369837
  0
ARC
  5
7809
  8
0
 10
9461.9518634982687217
 20
372.6050304801992752
 30
0.0
 40
6016.201648136773656
 50
180.4711387405934033
 51
180.4907623450719996
  0
ARC
  5
780A
  8
0
 10
3446.2589120846278092
 20
321.0707573328186868
 30
0.0
 40
0.2880272569031674
 50
179.2805182242165927
 51
252.343068892298902
  0
ARC
  5
780B
  8
0
 10
3446.2461475392810826
 20
323.1416571260483011
 30
0.0
 40
0.292601897028731
 50
103.6283335034011941
 51
181.3365879682922071
  0
ARC
  5
780C
  8
0
 10
3449.0545298803658625
 20
317.8682038506374283
 30
0.0
 40
0.3803331664365148
 50
19.8517562418088112
 51
68.7832969636997831
  0
ARC
  5
780D
  8
0
 10
3436.0403941594117896
 20
313.1903775413300082
 30
0.0
 40
14.2096417993559001
 50
12.1601102947606794
 51
19.7727388924896914
  0
ARC
  5
780E
  8
0
 10
3462.5987383468691405
 20
319.3368404565728156
 30
0.0
 40
4.4867531401274263
 50
160.5290451611708988
 51
173.126432270555199
  0
ARC
  5
780F
  8
0
 10
3468.6333134918359065
 20
318.6094011661737113
 30
0.0
 40
10.5650148243152895
 50
173.126432270555199
 51
177.6701536648403987
  0
ARC
  5
7810
  8
0
 10
3457.5166696532519381
 20
319.0269917794200865
 30
0.0
 40
0.5604889097619798
 50
295.3523655306574938
 51
1.2167049921079189
  0
LINE
  5
7811
  8
0
 10
3457.7566620208222048
 20
318.5204826664964912
 30
0.0
 11
3449.2819972498959942
 21
318.5204826664964912
 31
0.0
  0
ARC
  5
7812
  8
0
 10
3448.6549995419068182
 20
323.6949447279083074
 30
0.0
 40
5.2123107880107202
 50
268.4855994105860191
 51
276.9089375125180936
  0
ARC
  5
7813
  8
0
 10
3453.6576097124980151
 20
424.4183792431298912
 30
0.0
 40
106.4634339131947058
 50
268.3398054188966171
 51
271.5898042872684073
  0
ARC
  5
7814
  8
0
 10
3450.5192762172268885
 20
316.140145209484615
 30
0.0
 40
1.86027126056871
 50
88.3398054188966455
 51
94.0363202668774676
  0
ARC
  5
7815
  8
0
 10
3450.3280181881400495
 20
318.8505703642151161
 30
0.0
 40
0.8568934663270947
 50
260.762006929839572
 51
274.0363202668775102
  0
LINE
  5
7816
  8
0
 10
3450.1904561728488261
 20
318.0047907802908185
 30
0.0
 11
3449.1921710645210624
 21
318.2227574035964039
 31
0.0
  0
ARC
  5
7817
  8
0
 10
3464.7572024820678962
 20
321.0120120278577929
 30
0.0
 40
0.7393499527652124
 50
194.0592141798547061
 51
233.8082325298258013
  0
ARC
  5
7818
  8
0
 10
3466.0899882934318157
 20
322.8335820230653894
 30
0.0
 40
2.9964355219037659
 50
233.8082325298258013
 51
239.8322991983249892
  0
ARC
  5
7819
  8
0
 10
3464.6648676705408434
 20
-2081.5544710561821375
 30
0.0
 40
2401.7974614412628398
 50
90.0005404669357461
 51
90.0019247963389688
  0
ARC
  5
781A
  8
0
 10
3464.6510582260589217
 20
320.4478594271823226
 30
0.0
 40
0.2050600629455575
 50
267.5274239220902928
 51
284.4418612378290732
  0
ARC
  5
781B
  8
0
 10
3464.6389131381129118
 20
320.8958694216241838
 30
0.0
 40
0.0635486310689951
 50
272.9644953430125724
 51
354.7946443496753091
  0
LINE
  5
781C
  8
0
 10
3450.1568549009211893
 20
288.1900206998964222
 30
0.0
 11
3450.139532989322106
 21
288.2200255990964024
 31
0.0
  0
ARC
  5
781D
  8
0
 10
3450.0872140839078384
 20
288.1896653692124914
 30
0.0
 40
0.0604897629544605
 50
30.1262404071773915
 51
87.0655863625602535
  0
ARC
  5
781E
  8
0
 10
3450.0489963802219791
 20
288.4000207244964145
 30
0.0
 40
0.1500000376000052
 50
180.0
 51
268.4465366538868238
  0
ARC
  5
781F
  8
0
 10
3450.0489963881991571
 20
288.4000207234769277
 30
0.0
 40
0.1500000455772523
 50
150.8680543642009866
 51
179.9999996105478033
  0
ARC
  5
7820
  8
0
 10
3444.1145739607991345
 20
291.7149276754802258
 30
0.0
 40
6.6474979220214951
 50
330.8114778992904803
 51
348.0255840941072734
  0
ARC
  5
7821
  8
0
 10
3432.7933236392927938
 20
293.433727515103385
 30
0.0
 40
18.0913269176522888
 50
350.1399804928436765
 51
359.2445262450287942
  0
LINE
  5
7822
  8
0
 10
3450.9525156806489576
 20
298.9400207311965119
 30
0.0
 11
3450.9525156855488603
 21
315.7900207335965206
 31
0.0
  0
ARC
  5
7823
  8
0
 10
3451.1025158191441733
 20
315.7900207018180936
 30
0.0
 40
0.1500001335945936
 50
94.1932402310929291
 51
179.9999878615556099
  0
ARC
  5
7824
  8
0
 10
3450.6000107563959318
 20
288.4002917814033822
 30
0.0
 40
0.1502246148448537
 50
180.0340976788116905
 51
269.3851106750096278
  0
ARC
  5
7825
  8
0
 10
3450.5999104228849319
 20
288.4001859342366174
 30
0.0
 40
0.1501242556320018
 50
150.8571683672591064
 51
179.9937232956550019
  0
ARC
  5
7826
  8
0
 10
3442.4575613711490405
 20
291.6555649561225891
 30
0.0
 40
8.6201298263443942
 50
338.3357269410067261
 51
351.5442080822595017
  0
LINE
  5
7827
  8
0
 10
3451.1995540943207743
 20
298.940020714496427
 30
0.0
 11
3451.1998619648588829
 21
315.7900206915713852
 31
0.0
  0
LINE
  5
7828
  8
0
 10
3450.9525156806489576
 20
298.9400207311965119
 30
0.0
 11
3450.9186008071487777
 21
294.8585760630963932
 31
0.0
  0
LINE
  5
7829
  8
0
 10
3450.9186008071487777
 20
294.8585760630963932
 30
0.0
 11
3450.8830779230488588
 21
293.1951911557964081
 31
0.0
  0
LINE
  5
782A
  8
0
 10
3451.1995540943207743
 20
298.940020714496427
 30
0.0
 11
3451.1903679787901638
 21
294.8083150218457149
 31
0.0
  0
ARC
  5
782B
  8
0
 10
3410.8607066307090463
 20
294.4763052085971253
 30
0.0
 40
40.3310279433469603
 50
354.1820164127390171
 51
0.4716709909909188
  0
LINE
  5
782C
  8
0
 10
3450.6760257175219522
 20
288.1900208525963762
 30
0.0
 11
3450.6587038059219594
 21
288.2200257517964133
 31
0.0
  0
ARC
  5
782D
  8
0
 10
3450.6063853654818558
 20
288.1896659765674258
 30
0.0
 40
0.0604891325941868
 50
30.1260889797196896
 51
87.0659967613027703
  0
ARC
  5
782E
  8
0
 10
3451.3472994628850756
 20
315.7921688348350244
 30
0.0
 40
0.1474531124093174
 50
90.3432172630412822
 51
180.8338305074888979
  0
LINE
  5
782F
  8
0
 10
3450.0449299199358393
 20
288.2500758173446798
 30
0.0
 11
3457.0362699759120915
 21
288.2500758173446798
 31
0.0
  0
LINE
  5
7830
  8
0
 10
3450.1568549009211893
 20
288.1900206998964222
 30
0.0
 11
3457.2422039771217896
 21
288.1900206998964222
 31
0.0
  0
LINE
  5
7831
  8
0
 10
3444.600066475803942
 20
323.4260206998964122
 30
0.0
 11
3464.6421996905219203
 21
323.4260206998964122
 31
0.0
  0
LINE
  5
7832
  8
0
 10
3450.175545110711937
 20
315.9860206998964145
 30
0.0
 11
3457.0153427130271666
 21
315.9860206998964145
 31
0.0
  0
LINE
  5
7833
  8
0
 10
3451.0915477293901859
 20
315.9396193016963821
 30
0.0
 11
3457.1031702318628049
 21
315.9396193016963821
 31
0.0
  0
ARC
  5
7834
  8
0
 10
3457.0922039955221408
 20
315.7900206998963881
 30
0.0
 40
0.150000000000004
 50
359.999999961803212
 51
85.8074658788783893
  0
LINE
  5
7835
  8
0
 10
3457.242203995521777
 20
315.7900206997965142
 30
0.0
 11
3457.2422039771217896
 21
288.1900206998964222
 31
0.0
  0
ARC
  5
7836
  8
0
 10
3457.0322039955221953
 20
288.4000206998964018
 30
0.0
 40
0.1500000000000025
 50
271.5532803621110816
 51
345.2550898000411053
  0
ARC
  5
7837
  8
0
 10
3456.9735110867850381
 20
288.4074425392869898
 30
0.0
 40
0.2087933290956013
 50
347.3852677149083092
 51
1.7770825929422871
  0
LINE
  5
7838
  8
0
 10
3457.1822039955218315
 20
288.413917422896418
 30
0.0
 11
3457.1821009093341672
 21
315.7955808464359961
 31
0.0
  0
ARC
  5
7839
  8
0
 10
3457.0327724701660372
 20
315.7901937308005813
 30
0.0
 40
0.1494255793329766
 50
2.066084628003285
 51
90.0192540772919756
  0
LINE
  5
783A
  8
0
 10
3452.2627334621220143
 20
315.9400206998964222
 30
0.0
 11
3452.2587089836220002
 21
315.9860206998964145
 31
0.0
  0
LINE
  5
783B
  8
0
 10
3455.8947939873560244
 20
315.9399883195717962
 30
0.0
 11
3456.1896839901551175
 21
315.9858220889329914
 31
0.0
  0
ARC
  5
783D
  8
0
 10
3457.0742130893518151
 20
316.7890684730568864
 30
0.0
 40
0.2231461987039669
 50
6.9081986269420623
 51
90.4645075183197349
  0
ARC
  5
783E
  8
0
 10
3457.055988620898006
 20
317.5320535488314135
 30
0.0
 40
0.5201053237346995
 50
172.6680959596735931
 51
271.8086517331597065
  0
ARC
  5
783F
  8
0
 10
3458.9576468214750093
 20
317.3707083654073244
 30
0.0
 40
2.428212324169257
 50
165.079363165386809
 51
174.6188550949372882
  0
ENDSEC
  0
EOF
