  0
SECTION
  2
HEADER
  9
$ACADVER
  1
AC1009
  9
$INSBASE
 10
427.6036948523474734
 20
7.6891240540503718
 30
0.0
  9
$EXTMIN
 10
399.8083149717257925
 20
7.6880963035151231
 30
-0.0000000349181948
  9
$EXTMAX
 10
427.6196011320022876
 20
37.1596317443177071
 30
0.0000000814935746
  9
$LIMMIN
 10
0.0
 20
0.0
  9
$LIMMAX
 10
22.0
 20
17.0
  9
$ORTHOMODE
 70
     0
  9
$REGENMODE
 70
     1
  9
$FILLMODE
 70
     1
  9
$QTEXTMODE
 70
     0
  9
$MIRRTEXT
 70
     0
  9
$DRAGMODE
 70
     2
  9
$LTSCALE
 40
1.2099999999999991
  9
$OSMODE
 70
  4095
  9
$ATTMODE
 70
     1
  9
$TEXTSIZE
 40
0.2
  9
$TRACEWID
 40
0.05
  9
$TEXTSTYLE
  7
STANDARD
  9
$CLAYER
  8
0
  9
$CELTYPE
  6
BYLAYER
  9
$CECOLOR
 62
   256
  9
$DIMSCALE
 40
1.0
  9
$DIMASZ
 40
0.1875
  9
$DIMEXO
 40
0.0625
  9
$DIMDLI
 40
0.38
  9
$DIMRND
 40
0.0
  9
$DIMDLE
 40
0.0
  9
$DIMEXE
 40
0.125
  9
$DIMTP
 40
1.5
  9
$DIMTM
 40
1.5
  9
$DIMTXT
 40
1.5
  9
$DIMCEN
 40
0.09
  9
$DIMTSZ
 40
0.0
  9
$DIMTOL
 70
     0
  9
$DIMLIM
 70
     0
  9
$DIMTIH
 70
     1
  9
$DIMTOH
 70
     1
  9
$DIMSE1
 70
     0
  9
$DIMSE2
 70
     0
  9
$DIMTAD
 70
     0
  9
$DIMZIN
 70
     4
  9
$DIMBLK
  1

  9
$DIMASO
 70
     1
  9
$DIMSHO
 70
     1
  9
$DIMPOST
  1

  9
$DIMAPOST
  1

  9
$DIMALT
 70
     0
  9
$DIMALTD
 70
     2
  9
$DIMALTF
 40
25.3999999999999986
  9
$DIMLFAC
 40
1.0
  9
$DIMTOFL
 70
     0
  9
$DIMTVP
 40
0.0
  9
$DIMTIX
 70
     0
  9
$DIMSOXD
 70
     0
  9
$DIMSAH
 70
     0
  9
$DIMBLK1
  1

  9
$DIMBLK2
  1

  9
$DIMSTYLE
  2
STANDARD
  9
$DIMCLRD
 70
     0
  9
$DIMCLRE
 70
     0
  9
$DIMCLRT
 70
     0
  9
$DIMTFAC
 40
1.0
  9
$DIMGAP
 40
0.09
  9
$LUNITS
 70
     2
  9
$LUPREC
 70
     4
  9
$SKETCHINC
 40
0.1
  9
$FILLETRAD
 40
0.0
  9
$AUNITS
 70
     0
  9
$AUPREC
 70
     0
  9
$MENU
  1
.
  9
$ELEVATION
 40
0.0
  9
$PELEVATION
 40
0.0
  9
$THICKNESS
 40
0.0
  9
$LIMCHECK
 70
     0
  9
$BLIPMODE
 70
     0
  9
$CHAMFERA
 40
0.0
  9
$CHAMFERB
 40
0.0
  9
$SKPOLY
 70
     0
  9
$TDCREATE
 40
2457827.4934837957844138
  9
$TDUPDATE
 40
2459970.4182291668839753
  9
$TDINDWG
 40
0.3910320602
  9
$TDUSRTIMER
 40
0.3910320602
  9
$USRTIMER
 70
     1
  9
$ANGBASE
 50
0.0
  9
$ANGDIR
 70
     0
  9
$PDMODE
 70
     0
  9
$PDSIZE
 40
0.3125
  9
$PLINEWID
 40
0.0
  9
$COORDS
 70
     1
  9
$SPLFRAME
 70
     0
  9
$SPLINETYPE
 70
     6
  9
$SPLINESEGS
 70
     8
  9
$ATTDIA
 70
     1
  9
$ATTREQ
 70
     1
  9
$HANDLING
 70
     1
  9
$HANDSEED
  5
6224
  9
$SURFTAB1
 70
     6
  9
$SURFTAB2
 70
     6
  9
$SURFTYPE
 70
     6
  9
$SURFU
 70
     6
  9
$SURFV
 70
     6
  9
$UCSNAME
  2

  9
$UCSORG
 10
0.0
 20
0.0
 30
0.0
  9
$UCSXDIR
 10
1.0
 20
0.0
 30
0.0
  9
$UCSYDIR
 10
0.0
 20
1.0
 30
0.0
  9
$PUCSNAME
  2

  9
$PUCSORG
 10
0.0
 20
0.0
 30
0.0
  9
$PUCSXDIR
 10
1.0
 20
0.0
 30
0.0
  9
$PUCSYDIR
 10
0.0
 20
1.0
 30
0.0
  9
$USERI1
 70
     0
  9
$USERI2
 70
     0
  9
$USERI3
 70
     0
  9
$USERI4
 70
     0
  9
$USERI5
 70
     0
  9
$USERR1
 40
0.0
  9
$USERR2
 40
0.0
  9
$USERR3
 40
0.0
  9
$USERR4
 40
0.0
  9
$USERR5
 40
0.0
  9
$WORLDVIEW
 70
     1
  9
$SHADEDGE
 70
     3
  9
$SHADEDIF
 70
    70
  9
$TILEMODE
 70
     1
  9
$MAXACTVP
 70
    48
  9
$PLIMCHECK
 70
     0
  9
$PEXTMIN
 10
1.0000000000000000E+20
 20
1.0000000000000000E+20
 30
1.0000000000000000E+20
  9
$PEXTMAX
 10
-1.0000000000000000E+20
 20
-1.0000000000000000E+20
 30
-1.0000000000000000E+20
  9
$PLIMMIN
 10
0.0
 20
0.0
  9
$PLIMMAX
 10
12.0
 20
9.0
  9
$UNITMODE
 70
     0
  9
$VISRETAIN
 70
     1
  9
$PLINEGEN
 70
     0
  9
$PSLTSCALE
 70
     1
  0
ENDSEC
  0
SECTION
  2
TABLES
  0
TABLE
  2
VPORT
 70
     1
  0
VPORT
  2
*ACTIVE
 70
     0
 10
0.0
 20
0.0
 11
1.0
 21
1.0
 12
202.7350304395594094
 22
15.2214148383558499
 13
0.0
 23
0.0
 14
1.0
 24
1.0
 15
0.0
 25
0.0
 16
-0.0000000000000284
 26
0.0
 36
157.2215818301446859
 17
210.9789276123046875
 27
7.2024491855605604
 37
0.0
 40
29.6925027581183301
 41
1.8858823529411759
 42
50.0
 43
0.0
 44
0.0
 50
0.0
 51
0.0
 71
     0
 72
   100
 73
     1
 74
     1
 75
     0
 76
     0
 77
     0
 78
     0
  0
ENDTAB
  0
TABLE
  2
LTYPE
 70
     2
  0
LTYPE
  2
CONTINUOUS
 70
     0
  3
Solid line
 72
    65
 73
     0
 40
0.0
  0
LTYPE
  2
PHANTOM2
 70
     0
  3
___ _ _ ___ _ _ ___ _ _ ___ _ _
 72
    65
 73
     6
 40
1.25
 49
0.625
 49
-0.125
 49
0.125
 49
-0.125
 49
0.125
 49
-0.125
  0
ENDTAB
  0
TABLE
  2
LAYER
 70
     2
  0
LAYER
  2
0
 70
     0
 62
     7
  6
CONTINUOUS
  0
LAYER
  2
DEFPOINTS
 70
     0
 62
     7
  6
CONTINUOUS
  0
ENDTAB
  0
TABLE
  2
STYLE
 70
     1
  0
STYLE
  2
STANDARD
 70
     0
 40
0.0
 41
0.8
 50
0.0
 71
     0
 42
0.2
  3
txt
  4

  0
ENDTAB
  0
TABLE
  2
VIEW
 70
     0
  0
ENDTAB
  0
TABLE
  2
UCS
 70
     0
  0
ENDTAB
  0
TABLE
  2
APPID
 70
     9
  0
APPID
  2
ACAD
 70
     0
  0
APPID
  2
ACAD_MLEADERVER
 70
     0
  0
APPID
  2
ACAD_EXEMPT_FROM_CAD_STANDARDS
 70
     0
  0
APPID
  2
ACAD_NAV_VCDISPLAY
 70
     0
  0
APPID
  2
ACADANNOMONITORALERTICONDI
 70
     0
  0
APPID
  2
ACAD_DSTYLE_DIMJAG
 70
     0
  0
APPID
  2
ACAD_DSTYLE_DIMTALN
 70
     0
  0
APPID
  2
ACDBATTR
 70
     0
  0
APPID
  2
DCO15
 70
     0
  0
ENDTAB
  0
TABLE
  2
DIMSTYLE
 70
     1
  0
DIMSTYLE
  2
STANDARD
 70
     0
  3

  4

  5

  6

  7

 40
1.0
 41
0.1875
 42
0.0625
 43
0.38
 44
0.125
 45
0.0
 46
0.0
 47
1.5
 48
1.5
140
1.5
141
0.09
142
0.0
143
25.3999999999999986
144
1.0
145
0.0
146
1.0
147
0.09
 71
     0
 72
     0
 73
     1
 74
     1
 75
     0
 76
     0
 77
     0
 78
     4
170
     0
171
     2
172
     0
173
     0
174
     0
175
     0
176
     0
177
     0
178
     0
  0
ENDTAB
  0
ENDSEC
  0
SECTION
  2
BLOCKS
  0
BLOCK
  8
0
  2
$MODEL_SPACE
 70
     0
 10
0.0
 20
0.0
 30
0.0
  3
$MODEL_SPACE
  1

  0
ENDBLK
  5
21
  8
0
  0
BLOCK
 67
     1
  8
0
  2
$PAPER_SPACE
 70
     0
 10
0.0
 20
0.0
 30
0.0
  3
$PAPER_SPACE
  1

  0
ENDBLK
  5
1D
 67
     1
  8
0
  0
ENDSEC
  0
SECTION
  2
ENTITIES
  0
ATTDEF
  5
4EF9
  8
DEFPOINTS
 10
427.6004722215595848
 20
7.6936098554054624
 30
0.0
 40
0.001
  1
K-23627H
  3

  2
MODELNUMBER
 70
     0
1001
ACDBATTR
1070
     0
1070
     1
  0
ATTDEF
  5
4EFA
  8
DEFPOINTS
 10
427.6004722215595848
 20
7.691943188738783
 30
0.0
 40
0.001
  1
VEIL
  3

  2
TRADENAME
 70
     0
1001
ACDBATTR
1070
     0
1070
     1
  0
ATTDEF
  5
4EFB
  8
DEFPOINTS
 10
427.6004722215595848
 20
7.6902765220721028
 30
0.0
 40
0.001
  1
TOILET
  3

  2
PRODUCT
 70
     0
1001
ACDBATTR
1070
     0
1070
     1
  0
LINE
  5
607B
  8
0
 10
420.9735460473153239
 20
7.6891240540503718
 30
0.0
 11
404.2563486492367133
 21
7.6891240540503718
 31
0.0
  0
LINE
  5
607C
  8
0
 10
426.367319474459407
 20
23.4371555501503792
 30
0.0
 11
400.0677257376493117
 21
23.4371555501503792
 31
0.0
  0
ARC
  5
607D
  8
0
 10
418.9872582829758016
 20
16.9942766098767102
 30
0.0
 40
5.0232004316809853
 50
93.4492589188651124
 51
119.029393803094905
  0
ARC
  5
607E
  8
0
 10
418.7284681213586737
 20
18.4771976410023306
 30
0.0
 40
3.6346317611608239
 50
126.8301091345043972
 51
162.7861375236246033
  0
ARC
  5
607F
  8
0
 10
429.7753002521060921
 20
15.1325410115746894
 30
0.0
 40
15.1766378326822995
 50
163.0668353199066871
 51
176.470485697505012
  0
ARC
  5
6080
  8
0
 10
481.2694521490611237
 20
11.6804988493409603
 30
0.0
 40
66.7862013109971144
 50
176.2342405856626044
 51
178.2541550386617928
  0
ARC
  5
6081
  8
0
 10
495.0262209682206844
 20
10.6063941527288907
 30
0.0
 40
80.5719662677898754
 50
177.7887320959723922
 51
179.4631020856471935
  0
ARC
  5
6082
  8
0
 10
426.3672001755257952
 20
23.2006338900122984
 30
0.0
 40
0.2365216902246006
 50
0.0727260294579086
 51
89.9711006391079451
  0
ARC
  5
6083
  8
0
 10
420.4913199341150971
 20
23.6340059438503296
 30
0.0
 40
0.1968503936999557
 50
269.9999999999902229
 51
357.0000000000134719
  0
ARC
  5
6084
  8
0
 10
420.8917509104322221
 20
23.7521161800075014
 30
0.0
 40
0.1968503937428778
 50
90.0000000049765276
 51
176.9999999855596116
  0
ARC
  5
6085
  8
0
 10
421.9567586533726171
 20
23.7536252070764284
 30
0.0
 40
0.1955658847013863
 50
92.7457326532322242
 51
177.4229289573349888
  0
ARC
  5
6086
  8
0
 10
421.5651313621407894
 20
23.6282780430125214
 30
0.0
 40
0.1911920417906528
 50
271.5454718975695982
 51
358.6290127605324756
  0
ARC
  5
6087
  8
0
 10
400.0677389608504768
 20
23.2009264212851214
 30
0.0
 40
0.2362291292353392
 50
90.0032071979126584
 51
208.509113534918697
  0
ARC
  5
6088
  8
0
 10
369.9103786240157206
 20
6.2109221174931486
 30
0.0
 40
34.3777651678910487
 50
2.4644083799893668
 51
29.4020632614355506
  0
LINE
  5
6089
  8
0
 10
420.3859242725338277
 20
37.1576279910503828
 30
0.0
 11
426.4856114389504
 21
37.1576279910503828
 31
0.0
  0
ARC
  5
608A
  8
0
 10
420.3859242725338277
 20
37.0395133760043507
 30
0.0
 40
0.1181146150817247
 50
90.0
 51
181.2800686619829946
  0
LINE
  5
608B
  8
0
 10
420.2678391340151052
 20
37.0368747481503817
 30
0.0
 11
420.5578331742150908
 21
24.0644410897503889
 31
0.0
  0
LINE
  5
608C
  8
0
 10
421.7041203731150745
 20
37.0368661005503625
 30
0.0
 11
421.8884910943152136
 21
24.0644492885503993
 31
0.0
  0
ARC
  5
608D
  8
0
 10
421.821569193228072
 20
37.0403924338318475
 30
0.0
 40
0.1175017462522431
 50
93.8573813061806277
 51
181.7197561871265066
  0
ARC
  5
608E
  8
0
 10
422.0686156525554793
 20
37.0395176445440413
 30
0.0
 40
0.1181102467063409
 50
0.8244825375578781
 51
89.9999624405938476
  0
LINE
  5
608F
  8
0
 10
422.1867136709151964
 20
37.0412171846503924
 30
0.0
 11
422.1906909929152221
 21
36.7602967115503674
 31
0.0
  0
ARC
  5
6090
  8
0
 10
422.3260685534909271
 20
36.7831008656012699
 30
0.0
 40
0.137284789213619
 50
189.5616286110906969
 51
269.79356620682222
  0
LINE
  5
6091
  8
0
 10
422.3003832773151771
 20
37.0368049173503806
 30
0.0
 11
422.3043307309151828
 21
36.7612147994503715
 31
0.0
  0
ARC
  5
6092
  8
0
 10
422.4143333971550192
 20
37.0435829671126697
 30
0.0
 40
0.1141515298630914
 50
92.4752406013285935
 51
183.4040911359319921
  0
LINE
  5
6093
  8
0
 10
422.325573924415778
 20
36.6458169674503722
 30
0.0
 11
426.4856095738148838
 21
36.6458169674503722
 31
0.0
  0
ARC
  5
6094
  8
0
 10
422.4182624375853834
 20
36.7595342091762092
 30
0.0
 40
0.1139441010690825
 50
179.1548994601168943
 51
266.3838859103187815
  0
ARC
  5
6095
  8
0
 10
426.4856114390128141
 20
37.0395177548446028
 30
0.0
 40
0.1181102362057817
 50
0.0
 51
90.0000000302695184
  0
LINE
  5
6096
  8
0
 10
426.6037216752151835
 20
37.0395177548446028
 30
0.0
 11
426.6037216752151835
 21
36.7639264428323997
 31
0.0
  0
ARC
  5
6097
  8
0
 10
426.4856114389884283
 20
36.7639272036649416
 30
0.0
 40
0.1181102362292931
 50
269.9990951965435215
 51
359.9996309168860193
  0
ARC
  5
6098
  8
0
 10
426.4856114389900767
 20
36.5277067312399666
 30
0.0
 40
0.1181102362251423
 50
0.0000000000034604
 51
90.0009048044140343
  0
LINE
  5
6099
  8
0
 10
426.6037216752151835
 20
36.5277067312399808
 30
0.0
 11
426.6037216752151835
 21
24.067076809955779
 31
0.0
  0
LINE
  5
609A
  8
0
 10
426.6037216752151835
 20
23.9489665737503792
 30
0.0
 11
426.6037216752151835
 21
20.3469473165542389
 31
0.0
  0
ARC
  5
609B
  8
0
 10
426.4856114390129846
 20
24.067076809955779
 30
0.0
 40
0.1181102362054029
 50
270.0000000010845156
 51
0.0
  0
ARC
  5
609C
  8
0
 10
420.675911701447319
 20
24.0670744618958601
 30
0.0
 40
0.1181078881454732
 50
181.2775913289897005
 51
270.0000000139688154
  0
ARC
  5
609D
  8
0
 10
422.0026716393882111
 20
24.0630807466145313
 30
0.0
 40
0.1141887462940876
 50
179.3132987546740083
 51
267.9291818316456784
  0
LINE
  5
609E
  8
0
 10
420.6759117014761955
 20
23.9489665737503792
 30
0.0
 11
426.6037216752151835
 21
23.9489665737503792
 31
0.0
  0
LINE
  5
60A0
  8
0
 10
419.080935309447284
 20
23.4371555501503792
 30
0.0
 11
419.0654071116690034
 21
23.7334512150975492
 31
0.0
  0
LINE
  5
60A1
  8
0
 10
419.0457490499690039
 20
23.7521060190975604
 30
0.0
 11
418.0201177336689966
 21
23.7521060190975604
 31
0.0
  0
ARC
  5
60A2
  8
0
 10
418.0201177336689966
 20
23.7324209797350498
 30
0.0
 40
0.019685039362507
 50
90.0
 51
176.9999999889531068
  0
LINE
  5
60A3
  8
0
 10
418.0004596719689971
 20
23.7334512150975492
 30
0.0
 11
417.9973107319689802
 21
23.6733658615975493
 31
0.0
  0
ARC
  5
60A4
  8
0
 10
417.6826605984583125
 20
23.6898645607669387
 30
0.0
 40
0.3150823917527045
 50
321.8359189112011904
 51
356.9984411155957105
  0
ARC
  5
60A5
  8
0
 10
419.0457490499948108
 20
23.7324209797622601
 30
0.0
 40
0.0196850393352905
 50
2.999999935873368
 51
90.0000000751331157
  0
ARC
  5
60A6
  8
0
 10
419.044029979243021
 20
23.7717934935864399
 30
0.0
 40
0.0197623848740768
 50
274.9902953385058026
 51
1.810115811528044
  0
LINE
  5
60A7
  8
0
 10
419.0637825026690848
 20
23.7724177324975514
 30
0.0
 11
419.0457421669689779
 21
24.3388122414975605
 31
0.0
  0
ARC
  5
60A8
  8
0
 10
421.0131470741504245
 20
24.4014770106172811
 30
0.0
 40
1.9684026371884471
 50
180.0894178628861937
 51
181.8243389233199991
  0
LINE
  5
60A9
  8
0
 10
419.0229781140973842
 20
24.5494286269723112
 30
0.0
 11
418.7585369414690035
 21
25.4500730011975591
 31
0.0
  0
ARC
  5
60AA
  8
0
 10
418.6452110573101777
 20
25.4167969236074711
 30
0.0
 40
0.1181103440015461
 50
16.3639136182949407
 51
107.4159474976816995
  0
LINE
  5
60AB
  8
0
 10
418.6098598777555253
 20
25.5294927419161404
 30
0.0
 11
418.2730809338564768
 21
25.4273573144186784
 31
0.0
  0
ARC
  5
60AC
  8
0
 10
410.7679356008823106
 20
51.4574152667167368
 30
0.0
 40
27.0904256807286892
 50
282.3158041626667796
 51
286.0836329800760041
  0
ARC
  5
60AD
  8
0
 10
411.4845543528689973
 20
48.6332122694378484
 30
0.0
 40
24.178559497664871
 50
270.7316469542242885
 51
282.084225501290689
  0
ARC
  5
60AE
  8
0
 10
399.9530387791372164
 20
24.3355925195809384
 30
0.0
 40
0.1181175887740741
 50
90.0064887004196521
 51
178.9829457190255937
  0
LINE
  5
60AF
  8
0
 10
411.612356182734402
 20
24.4537101075975514
 30
0.0
 11
399.9530254023994189
 21
24.4537101075975514
 31
0.0
  0
ARC
  5
60B0
  8
0
 10
412.4750509506002913
 20
-23.4958099311631514
 30
0.0
 40
47.9572800960398311
 50
90.8145353891605396
 51
91.0307389271096383
  0
LINE
  5
60B1
  8
0
 10
399.8321544782691035
 20
24.17811597419756
 30
0.0
 11
411.5965448649898804
 21
24.17811597419756
 31
0.0
  0
LINE
  5
60B2
  8
0
 10
399.8321544782691035
 20
24.17811597419756
 30
0.0
 11
399.8349397990691045
 21
24.3376891083975586
 31
0.0
  0
LINE
  5
60B3
  8
0
 10
399.8344534315691021
 20
23.6929384907975518
 30
0.0
 11
411.4098376506781847
 21
23.6929384907975518
 31
0.0
  0
ARC
  5
60B4
  8
0
 10
399.9525439545989229
 20
23.8154557440571111
 30
0.0
 40
0.1181108204589055
 50
91.7649860148960812
 51
178.9377676506796035
  0
LINE
  5
60B5
  8
0
 10
410.6648170148098984
 20
23.9335105290978092
 30
0.0
 11
411.4849741325816126
 21
23.9335105290975498
 31
0.0
  0
LINE
  5
60B6
  8
0
 10
405.0261171843390002
 20
24.0223874047975592
 30
0.0
 11
403.9488699630990141
 21
24.0223874047975485
 31
0.0
  0
ARC
  5
60B7
  8
0
 10
403.9491186377010195
 20
24.0420708547222617
 30
0.0
 40
0.019685020700925
 50
202.3455466112881993
 51
269.2761813987042956
  0
ARC
  5
60B8
  8
0
 10
403.7131185331091956
 20
23.9450609243876009
 30
0.0
 40
0.2354756658299088
 50
22.3455466112881993
 51
81.7775677746219145
  0
LINE
  5
60B9
  8
0
 10
403.9464054405689808
 20
23.9633322866975611
 30
0.0
 11
403.9464054405689808
 21
24.0225737113079205
 31
0.0
  0
ARC
  5
60BA
  8
0
 10
403.9871452625345114
 20
23.9637384212914988
 30
0.0
 40
0.0407418462896776
 50
180.5711617335406061
 51
208.9416493715075944
  0
ARC
  5
60BB
  8
0
 10
405.0258685097371085
 20
24.0420708547222617
 30
0.0
 40
0.019685020700925
 50
270.7238186012925212
 51
337.6544533887117723
  0
ARC
  5
60BC
  8
0
 10
405.2618686143288755
 20
23.9450609243876009
 30
0.0
 40
0.2354756658299088
 50
98.2224322253780713
 51
157.6544533887118007
  0
LINE
  5
60BD
  8
0
 10
405.0285817068689767
 20
23.9633322866975611
 30
0.0
 11
405.0285817068689767
 21
24.0225737113079205
 31
0.0
  0
ARC
  5
60BE
  8
0
 10
404.9878418849035029
 20
23.9637384212914988
 30
0.0
 40
0.0407418462896776
 50
335.2813549064076142
 51
359.4288382664590813
  0
ARC
  5
60BF
  8
0
 10
406.0325133896145076
 20
-594.2293609356363504
 30
0.0
 40
618.1768839103508526
 50
90.0933953526989768
 51
90.1924425645194532
  0
ARC
  5
60C0
  8
0
 10
400.276393446141924
 20
13.3135506680721196
 30
0.0
 40
10.6250080178975299
 50
90.6234981240355353
 51
91.7662680570407332
  0
ARC
  5
60C1
  8
0
 10
400.8375951025694235
 20
-101.208440353769106
 30
0.0
 40
125.1482001333452985
 50
89.6709580538199447
 51
90.3098663599278524
  0
ARC
  5
60C2
  8
0
 10
386.5924020206584828
 20
6142.5087167638721439
 30
0.0
 40
6118.5893189241178334
 50
270.1401252858976818
 51
270.1625986476665275
  0
ARC
  5
60C3
  8
0
 10
407.1680939495593066
 20
-1023.9037808701390304
 30
0.0
 40
1047.852674432996082
 50
89.9800963767549149
 51
90.1171909797414088
  0
ARC
  5
60C4
  8
0
 10
407.4158625444836161
 20
-310.6620741489114721
 30
0.0
 40
334.6109246763751912
 50
89.6387916082682636
 51
89.9800963767549149
  0
ARC
  5
60C5
  8
0
 10
374.8407730850943267
 20
-4598.4877379336239756
 30
0.0
 40
4622.5600656306432938
 50
89.5559631373504743
 51
89.5700873031076554
  0
ARC
  5
60C6
  8
0
 10
411.2521064631184231
 20
51.897401534347523
 30
0.0
 40
27.9648605844009417
 50
270.4771162297070077
 51
271.9264961665115834
  0
ARC
  5
60C7
  8
0
 10
411.1980539416052807
 20
52.4681431623723995
 30
0.0
 40
28.5371179808679685
 50
271.9964369003719753
 51
275.9883688888427855
  0
ARC
  5
60C8
  8
0
 10
411.5973298985430802
 20
48.1875057299725214
 30
0.0
 40
24.2382350103184088
 50
276.1053494774881187
 51
282.6344125415039912
  0
ARC
  5
60C9
  8
0
 10
411.7790179918732179
 20
46.9037497471836531
 30
0.0
 40
22.9460573859416002
 50
282.892866756673925
 51
285.9428232415622801
  0
LINE
  5
60CA
  8
0
 10
418.0817940840689744
 20
24.8402830410975604
 30
0.0
 11
418.760616379969008
 21
25.0288073046975583
 31
0.0
  0
LINE
  5
60CB
  8
0
 10
399.8344534315691021
 20
23.6929384907975518
 30
0.0
 11
399.8344534315691021
 21
23.8176453284978997
 31
0.0
  0
ARC
  5
60CC
  8
0
 10
411.2594142838302105
 20
55.9268943584277096
 30
0.0
 40
31.7505682771145494
 50
270.6083835180028814
 51
272.1173336130929101
  0
ARC
  5
60CD
  8
0
 10
411.4804020092433916
 20
49.9496125226090086
 30
0.0
 40
25.7692027374077988
 50
272.1173336130929101
 51
276.951063003238005
  0
ARC
  5
60CE
  8
0
 10
412.0864081554058771
 20
44.9789944023283326
 30
0.0
 40
20.7617794532376401
 50
276.951063003238005
 51
284.4791574801810725
  0
ARC
  5
60CF
  8
0
 10
411.4322206612259265
 20
48.9470929334814926
 30
0.0
 40
24.7700086195623292
 50
283.6493569398998034
 51
284.6710588009485718
  0
ARC
  5
60D0
  8
0
 10
417.7652639598517794
 20
24.7553313680451801
 30
0.0
 40
0.2369661737251474
 50
79.8711662131080971
 51
104.5570242240880958
  0
ARC
  5
60D1
  8
0
 10
417.765315727769007
 20
24.7560796410975499
 30
0.0
 40
0.2362204724000048
 50
14.5399004596299601
 51
79.8516087967830259
  0
ARC
  5
60D2
  8
0
 10
418.7922569887878126
 20
24.9150031500927689
 30
0.0
 40
0.1181207591058225
 50
68.3678759124033064
 51
105.5373578274950006
  0
ARC
  5
60D3
  8
0
 10
418.792263005795121
 20
24.9150183224591615
 30
0.0
 40
0.1181044371856656
 50
26.9498461865535113
 51
68.3678759124033064
  0
ARC
  5
60D4
  8
0
 10
418.7527268734041854
 20
24.8971645339147898
 30
0.0
 40
0.161451038105155
 50
18.4821391534599115
 51
26.2389124918729308
  0
ARC
  5
60D5
  8
0
 10
412.16691465229502
 20
46.2884066262057772
 30
0.0
 40
22.0119629126070109
 50
284.5737708259670171
 51
286.317868904638317
  0
ARC
  5
60D6
  8
0
 10
413.1448885190642955
 20
42.9411331344424525
 30
0.0
 40
18.5247479117286602
 50
286.3237185791628008
 51
287.7817457022341046
  0
ARC
  5
60D7
  8
0
 10
415.5783747880111036
 20
21.7373793899030012
 30
0.0
 40
1.968582456441246
 50
107.8443774620762952
 51
120.2936060595336016
  0
ARC
  5
60D8
  8
0
 10
464.7777857564607871
 20
-131.1134087077738002
 30
0.0
 40
162.5423831254701952
 50
106.7601764767000958
 51
107.8422862137985021
  0
ARC
  5
60D9
  8
0
 10
417.8832040588270047
 20
24.5998494760830901
 30
0.0
 40
0.0790194356976902
 50
286.7926776422686999
 51
304.8680302499258232
  0
ARC
  5
60DA
  8
0
 10
411.1294633965429171
 20
53.189589376510007
 30
0.0
 40
29.4979833750713105
 50
270.5445966638553159
 51
273.3759648117049892
  0
ARC
  5
60DB
  8
0
 10
411.3321696470165989
 20
50.3308408220535171
 30
0.0
 40
26.6322806672717398
 50
273.3027977043867054
 51
278.1700548904316861
  0
ARC
  5
60DC
  8
0
 10
411.2228343712594096
 20
50.5462618817074514
 30
0.0
 40
26.8611652783803692
 50
278.3356036403926055
 51
284.1852275349389743
  0
ARC
  5
60DD
  8
0
 10
404.5755247003889963
 20
77.4608043934827037
 30
0.0
 40
54.5842261883676301
 50
284.026742042679416
 51
284.7687295293964098
  0
ARC
  5
60DE
  8
0
 10
415.9579428719454199
 20
34.5621061887304322
 30
0.0
 40
10.2014481091556295
 50
284.3715281798419028
 51
287.0375444839723968
  0
ARC
  5
60DF
  8
0
 10
417.9540069945998084
 20
24.4827451793267912
 30
0.0
 40
0.0704288138810559
 50
22.4498403313993613
 51
68.1605738086801551
  0
ARC
  5
60E0
  8
0
 10
409.1787656930454773
 20
24.0199458881397696
 30
0.0
 40
8.8496028664148394
 50
2.3362749667012652
 51
3.2339934893720388
  0
ARC
  5
60E1
  8
0
 10
416.0524489793255043
 20
24.4014836544936102
 30
0.0
 40
1.968673441535862
 50
358.1757186519039919
 51
359.3949483951478214
  0
LINE
  5
60E2
  8
0
 10
418.0201246165689781
 20
24.3388122414975605
 30
0.0
 11
418.0020842809690862
 21
23.7724177324975514
 31
0.0
  0
ARC
  5
60E3
  8
0
 10
418.0218314739440757
 20
23.7717887610249008
 30
0.0
 40
0.0197572071788777
 50
178.175678353406397
 51
265.0239104965688739
  0
ARC
  5
60E4
  8
0
 10
418.5329333917691201
 20
24.4017123182975695
 30
0.0
 40
0.5118241277337505
 50
176.5084948927608082
 51
16.7746105591716486
  0
ARC
  5
60E5
  8
0
 10
409.4781716103195777
 20
24.8896282902050601
 30
0.0
 40
8.5560874973956569
 50
356.9399517707722111
 51
357.2683347618719267
  0
ARC
  5
60E6
  8
0
 10
417.9544951806906852
 20
24.4825705645128302
 30
0.0
 40
0.0700451698231748
 50
359.4171709418312162
 51
22.7343420630296293
  0
LINE
  5
60E7
  8
0
 10
411.6514783113689759
 20
23.9613883855975516
 30
0.0
 11
412.7767940037689982
 21
24.000685275497549
 31
0.0
  0
ARC
  5
60E8
  8
0
 10
411.3547743169917226
 20
23.9343712018791592
 30
0.0
 40
0.2437799725924844
 50
32.796647464375809
 51
89.0263186157913253
  0
ARC
  5
60E9
  8
0
 10
411.5763188753620057
 20
24.0769422595340714
 30
0.0
 40
0.01967552983235
 50
212.3405570982932034
 51
272.0545113105011978
  0
LINE
  5
60EA
  8
0
 10
411.5770242490689839
 20
24.0572793776975615
 30
0.0
 11
412.8448509193689802
 21
24.1015466199975599
 31
0.0
  0
ARC
  5
60EB
  8
0
 10
412.8441636852667216
 20
24.1212292041914012
 30
0.0
 40
0.0196945782198846
 50
271.9997183170797257
 51
329.7336234416118259
  0
ARC
  5
60EC
  8
0
 10
413.0662123271649762
 20
23.9912276613684305
 30
0.0
 40
0.2376107102836767
 50
94.4711091956032334
 51
149.6458324721490101
  0
LINE
  5
60ED
  8
0
 10
411.6107683936689909
 20
23.9993608404975483
 30
0.0
 11
411.6087072031273237
 21
24.0583856148803896
 31
0.0
  0
ARC
  5
60EE
  8
0
 10
411.6501280901712221
 20
24.0007494165140507
 30
0.0
 40
0.039384182765316
 50
182.0205075219018909
 51
271.964675490667787
  0
LINE
  5
60EF
  8
0
 10
412.814755954069085
 20
24.0414050125975614
 30
0.0
 11
412.8126949702299271
 21
24.1004238677907487
 31
0.0
  0
ARC
  5
60F0
  8
0
 10
412.7753952416666152
 20
24.0400446422712584
 30
0.0
 40
0.0393842136933919
 50
272.0353338421452918
 51
1.979447552753774
  0
ARC
  5
60F1
  8
0
 10
411.4350062589053891
 20
23.4787559634507907
 30
0.0
 40
0.1962302825975778
 50
41.2160983888370822
 51
90.2682093301764468
  0
ARC
  5
60F2
  8
0
 10
411.61582117227141
 20
23.6383684421275184
 30
0.0
 40
0.0449624210225467
 50
222.3963983304182932
 51
256.6573682046648059
  0
LINE
  5
60F3
  8
0
 10
411.6008528268690156
 20
23.5355808446503794
 30
0.0
 11
411.6008528268690156
 21
23.5946196723389185
 31
0.0
  0
LINE
  5
60F4
  8
0
 10
411.6008528268690156
 20
23.5946196723389185
 30
0.0
 11
412.8055742709689753
 21
23.5946196723389185
 31
0.0
  0
LINE
  5
60F5
  8
0
 10
412.8055742709689753
 20
23.5946196723389185
 30
0.0
 11
412.8055742709689753
 21
23.5355074775687392
 31
0.0
  0
ARC
  5
60F6
  8
0
 10
411.4650018965623985
 20
23.6188800757199218
 30
0.0
 40
0.0640573944339134
 50
94.7139651254211259
 51
118.8554690851303945
  0
ARC
  5
60F7
  8
0
 10
411.742569802281082
 20
19.9540381568027314
 30
0.0
 40
3.7393941008890832
 50
91.6392766702883534
 51
94.3377573307316766
  0
ARC
  5
60F8
  8
0
 10
409.0537316972020108
 20
128.7242282217196134
 30
0.0
 40
105.0640547908495961
 50
271.4081400461798808
 51
271.988012354343482
  0
ARC
  5
60F9
  8
0
 10
412.8710733192987163
 20
18.8776685911440296
 30
0.0
 40
4.8488160824633191
 50
88.8594312303364831
 51
92.0402759478935053
  0
ARC
  5
60FA
  8
0
 10
412.9600773599016179
 20
23.6433280804511909
 30
0.0
 40
0.0825385716913322
 50
66.6782837951039085
 51
84.7771836001972048
  0
ARC
  5
60FB
  8
0
 10
413.0034808312287282
 20
23.5228913827501991
 30
0.0
 40
0.1965245465993941
 50
93.1289542032316291
 51
151.899718164329613
  0
ARC
  5
60FC
  8
0
 10
412.7948262734227001
 20
23.6342996630364013
 30
0.0
 40
0.0400098683952848
 50
277.3625692313248123
 51
331.9050198147082824
  0
ARC
  5
60FD
  8
0
 10
400.3950268053825994
 20
15.3281097661425392
 30
0.0
 40
8.3708138104975713
 50
85.402078675237675
 51
87.8332197870600169
  0
ARC
  5
60FE
  8
0
 10
400.9120591448946129
 20
21.6961159895034186
 30
0.0
 40
1.981860481300143
 50
61.4604402658634825
 51
85.5434912874136018
  0
ARC
  5
60FF
  8
0
 10
403.7494028604501182
 20
23.5038677819068411
 30
0.0
 40
0.1907656106069159
 50
17.9264184342935309
 51
82.3566821411431249
  0
ARC
  5
6100
  8
0
 10
405.2254996010007062
 20
23.4841990772265987
 30
0.0
 40
0.1905166866793024
 50
112.4412903376089048
 51
156.7528145250263947
  0
ARC
  5
6101
  8
0
 10
405.4233709975753754
 20
23.0485103741962583
 30
0.0
 40
0.668951156204237
 50
105.561924886925695
 51
113.8605323588501932
  0
LINE
  5
6102
  8
0
 10
420.6879005511920013
 20
23.6237035902592787
 30
0.0
 11
420.6951702933150727
 21
23.7624185336503793
 31
0.0
  0
LINE
  5
6103
  8
0
 10
421.7562686720150964
 20
23.6237035902503685
 30
0.0
 11
421.7613905555152201
 21
23.7624184771503693
 31
0.0
  0
ARC
  5
6104
  8
0
 10
426.4459196196099242
 20
20.3472699948923008
 30
0.0
 40
0.1578023855159838
 50
270.0484736102774832
 51
359.8828400473424267
  0
LINE
  5
6105
  8
0
 10
426.4460531242152115
 20
20.1894676658503691
 30
0.0
 11
425.3527466183152228
 21
20.1894676267503712
 31
0.0
  0
ARC
  5
6106
  8
0
 10
425.3215129225559963
 20
13.7261054830219198
 30
0.0
 40
6.4634376104927966
 50
89.7231247490268373
 51
99.3241590808569583
  0
ARC
  5
6107
  8
0
 10
424.9639362798341153
 20
15.8653110841382397
 30
0.0
 40
4.2945663109304011
 50
99.2406650429294359
 51
122.3095203081616944
  0
ARC
  5
6108
  8
0
 10
427.3675420851898252
 20
15.8957601024827202
 30
0.0
 40
6.2758857502721197
 50
162.3876388019012893
 51
180.2115957854691999
  0
ARC
  5
6109
  8
0
 10
424.5617954870194808
 20
16.7327118918937501
 30
0.0
 40
3.3488081244249179
 50
124.4271236047950993
 51
161.5110907869897972
  0
LINE
  5
610A
  8
0
 10
421.0916991319152203
 20
15.8725830383503705
 30
0.0
 11
421.0916991319152203
 21
7.8072337663585758
 31
0.0
  0
ARC
  5
610B
  8
0
 10
420.9735161088818245
 20
7.8073070960413959
 30
0.0
 40
0.1181830457830647
 50
270.014514314530004
 51
359.9644493670782026
  0
ARC
  5
610C
  8
0
 10
191.1754241317478034
 20
13.0422866402068696
 30
0.0
 40
223.2886948866639045
 50
358.6564769343345915
 51
359.5686795473155826
  0
LINE
  5
610D
  8
0
 10
414.402734079415211
 20
7.8068919351503734
 30
0.0
 11
414.402734079415211
 21
7.6891240540503718
 31
0.0
  0
ARC
  5
610E
  8
0
 10
420.2455592296478244
 20
-0.8811146206512958
 30
0.0
 40
22.9426255071222904
 50
87.0606870548793381
 51
93.9001759490922012
  0
ARC
  5
610F
  8
0
 10
425.4218411795883981
 20
234.6864397116987959
 30
0.0
 40
212.6927249473237964
 50
268.9224519152974722
 51
270.2653212952956778
  0
ARC
  5
6110
  8
0
 10
426.4066979099093828
 20
22.1930194724387384
 30
0.0
 40
0.1970242665602312
 50
270.0181374952529723
 51
359.8707570135759966
  0
LINE
  5
6111
  8
0
 10
412.7662352552151219
 20
23.496181920250379
 30
0.0
 11
411.6402503974115916
 21
23.496181920250379
 31
0.0
  0
ARC
  5
6112
  8
0
 10
412.7661935190994882
 20
23.5355626535079416
 30
0.0
 40
0.039380755373742
 50
270.0607226475489142
 51
0.0241707198266456
  0
ARC
  5
6113
  8
0
 10
411.6403364415397164
 20
23.5356655319876182
 30
0.0
 40
0.0394837054923859
 50
180.1228919794178012
 51
269.8751391484123019
  0
LINE
  5
6114
  8
0
 10
405.0309683561018801
 20
23.5355658469638307
 30
0.0
 11
403.9487907945508027
 21
23.5355658469638307
 31
0.0
  0
LINE
  5
6115
  8
0
 10
403.9487907945508027
 20
23.5355658469638307
 30
0.0
 11
403.9487906154579946
 21
23.4765249567834786
 31
0.0
  0
LINE
  5
6116
  8
0
 10
405.0309683561018801
 20
23.5355658469638307
 30
0.0
 11
405.030968177009413
 21
23.4765263009173388
 31
0.0
  0
LINE
  5
6117
  8
0
 10
404.9915659417314941
 20
23.4371555831172707
 30
0.0
 11
403.9880507080166012
 21
23.4371555171834807
 31
0.0
  0
ARC
  5
6118
  8
0
 10
403.9883704812618817
 20
23.4767346466834788
 30
0.0
 40
0.0395804212573049
 50
180.3035440780103045
 51
269.5370979870572228
  0
ARC
  5
6119
  8
0
 10
404.9913855883934843
 20
23.4767383287269595
 30
0.0
 40
0.0395831564851518
 50
270.2610585350129213
 51
359.6930927746087718
  0
ARC
  5
611A
  8
0
 10
403.9683745365005052
 20
23.5750256708356503
 30
0.0
 40
0.0394788014116134
 50
198.3689150319798102
 51
268.2233863076576768
  0
ARC
  5
611B
  8
0
 10
405.0138091829994096
 20
23.5756387876331495
 30
0.0
 40
0.04008051106495
 50
271.1159691804169825
 51
336.0925950523136976
  0
LINE
  5
611C
  8
0
 10
417.9219714362151876
 20
23.4708360752503715
 30
0.0
 11
417.9219714362151876
 21
23.4371555501503792
 31
0.0
  0
ARC
  5
611D
  8
0
 10
417.9613415151342224
 20
23.4708360237134315
 30
0.0
 40
0.0393700789191111
 50
141.8232947352121016
 51
179.9999249976137037
  0
CIRCLE
  5
611E
  8
0
 10
412.8061893384377754
 20
9.2594043305019156
 30
0.0
 40
0.3015353943000001
  0
ENDSEC
  0
EOF
