  0
SECTION
  2
HEADER
  9
$ACADVER
  1
AC1009
  9
$INSBASE
 10
3010.7175738386818011
 20
78.968769925223242
 30
0.0
  9
$EXTMIN
 10
2982.2978323014422131
 20
63.2608017956711208
 30
0.0
  9
$EXTMAX
 10
3018.2067406838991701
 20
108.4372738622231935
 30
0.0
  9
$LIMMIN
 10
0.0
 20
0.0
  9
$LIMMAX
 10
11.6929133858000007
 20
8.2677165353999982
  9
$ORTHOMODE
 70
     0
  9
$REGENMODE
 70
     1
  9
$FILLMODE
 70
     1
  9
$QTEXTMODE
 70
     0
  9
$MIRRTEXT
 70
     0
  9
$DRAGMODE
 70
     2
  9
$LTSCALE
 40
0.6431102362
  9
$OSMODE
 70
  4095
  9
$ATTMODE
 70
     1
  9
$TEXTSIZE
 40
0.2
  9
$TRACEWID
 40
0.05
  9
$TEXTSTYLE
  7
STANDARD
  9
$CLAYER
  8
0
  9
$CELTYPE
  6
BYLAYER
  9
$CECOLOR
 62
   256
  9
$DIMSCALE
 40
1.0
  9
$DIMASZ
 40
0.1875
  9
$DIMEXO
 40
0.0625
  9
$DIMDLI
 40
0.4443307087
  9
$DIMRND
 40
0.0
  9
$DIMDLE
 40
0.0
  9
$DIMEXE
 40
0.125
  9
$DIMTP
 40
0.01
  9
$DIMTM
 40
0.01
  9
$DIMTXT
 40
2.0
  9
$DIMCEN
 40
0.1052362205
  9
$DIMTSZ
 40
0.0
  9
$DIMTOL
 70
     1
  9
$DIMLIM
 70
     0
  9
$DIMTIH
 70
     1
  9
$DIMTOH
 70
     1
  9
$DIMSE1
 70
     0
  9
$DIMSE2
 70
     0
  9
$DIMTAD
 70
     0
  9
$DIMZIN
 70
     0
  9
$DIMBLK
  1

  9
$DIMASO
 70
     1
  9
$DIMSHO
 70
     1
  9
$DIMPOST
  1
\X
  9
$DIMAPOST
  1

  9
$DIMALT
 70
     1
  9
$DIMALTD
 70
     2
  9
$DIMALTF
 40
25.3999999999999986
  9
$DIMLFAC
 40
1.0
  9
$DIMTOFL
 70
     0
  9
$DIMTVP
 40
0.0
  9
$DIMTIX
 70
     0
  9
$DIMSOXD
 70
     0
  9
$DIMSAH
 70
     0
  9
$DIMBLK1
  1

  9
$DIMBLK2
  1

  9
$DIMSTYLE
  2
STANDARD
  9
$DIMCLRD
 70
     0
  9
$DIMCLRE
 70
     0
  9
$DIMCLRT
 70
     0
  9
$DIMTFAC
 40
1.0
  9
$DIMGAP
 40
0.09
  9
$LUNITS
 70
     2
  9
$LUPREC
 70
     4
  9
$SKETCHINC
 40
0.1
  9
$FILLETRAD
 40
0.0
  9
$AUNITS
 70
     0
  9
$AUPREC
 70
     0
  9
$MENU
  1
.
  9
$ELEVATION
 40
0.0
  9
$PELEVATION
 40
0.0
  9
$THICKNESS
 40
0.0
  9
$LIMCHECK
 70
     0
  9
$BLIPMODE
 70
     0
  9
$CHAMFERA
 40
0.0
  9
$CHAMFERB
 40
0.0
  9
$SKPOLY
 70
     0
  9
$TDCREATE
 40
2458060.468368056230247
  9
$TDUPDATE
 40
2459941.7500925930216908
  9
$TDINDWG
 40
0.3100880787
  9
$TDUSRTIMER
 40
0.3100880787
  9
$USRTIMER
 70
     1
  9
$ANGBASE
 50
0.0
  9
$ANGDIR
 70
     0
  9
$PDMODE
 70
     0
  9
$PDSIZE
 40
0.3125
  9
$PLINEWID
 40
0.0
  9
$COORDS
 70
     1
  9
$SPLFRAME
 70
     0
  9
$SPLINETYPE
 70
     6
  9
$SPLINESEGS
 70
     8
  9
$ATTDIA
 70
     1
  9
$ATTREQ
 70
     1
  9
$HANDLING
 70
     1
  9
$HANDSEED
  5
5FB9
  9
$SURFTAB1
 70
     6
  9
$SURFTAB2
 70
     6
  9
$SURFTYPE
 70
     6
  9
$SURFU
 70
     6
  9
$SURFV
 70
     6
  9
$UCSNAME
  2

  9
$UCSORG
 10
0.0
 20
0.0
 30
0.0
  9
$UCSXDIR
 10
1.0
 20
0.0
 30
0.0
  9
$UCSYDIR
 10
0.0
 20
1.0
 30
0.0
  9
$PUCSNAME
  2

  9
$PUCSORG
 10
0.0
 20
0.0
 30
0.0
  9
$PUCSXDIR
 10
1.0
 20
0.0
 30
0.0
  9
$PUCSYDIR
 10
0.0
 20
1.0
 30
0.0
  9
$USERI1
 70
     0
  9
$USERI2
 70
     0
  9
$USERI3
 70
     0
  9
$USERI4
 70
     0
  9
$USERI5
 70
     0
  9
$USERR1
 40
0.0
  9
$USERR2
 40
0.0
  9
$USERR3
 40
0.0
  9
$USERR4
 40
0.0
  9
$USERR5
 40
0.0
  9
$WORLDVIEW
 70
     1
  9
$SHADEDGE
 70
     3
  9
$SHADEDIF
 70
    70
  9
$TILEMODE
 70
     1
  9
$MAXACTVP
 70
    64
  9
$PLIMCHECK
 70
     0
  9
$PEXTMIN
 10
1.0000000000000000E+20
 20
1.0000000000000000E+20
 30
1.0000000000000000E+20
  9
$PEXTMAX
 10
-1.0000000000000000E+20
 20
-1.0000000000000000E+20
 30
-1.0000000000000000E+20
  9
$PLIMMIN
 10
0.0
 20
0.0
  9
$PLIMMAX
 10
12.0
 20
9.0
  9
$UNITMODE
 70
     0
  9
$VISRETAIN
 70
     1
  9
$PLINEGEN
 70
     0
  9
$PSLTSCALE
 70
     1
  0
ENDSEC
  0
SECTION
  2
TABLES
  0
TABLE
  2
VPORT
 70
     1
  0
VPORT
  2
*ACTIVE
 70
     0
 10
0.0
 20
0.0
 11
1.0
 21
1.0
 12
112.1117247089369044
 22
-2.136801576961715
 13
0.0
 23
0.0
 14
1.0
 24
1.0
 15
0.0
 25
0.0
 16
0.0
 26
0.0
 36
215.6888699471975031
 17
2919.75537109375
 27
87.2746505737304688
 37
0.0
 40
58.8510525707056331
 41
2.8353293413173648
 42
50.0
 43
0.0
 44
0.0
 50
0.0
 51
0.0
 71
     0
 72
   100
 73
     1
 74
     1
 75
     0
 76
     0
 77
     0
 78
     0
  0
ENDTAB
  0
TABLE
  2
LTYPE
 70
     2
  0
LTYPE
  2
CONTINUOUS
 70
     0
  3
Solid line
 72
    65
 73
     0
 40
0.0
  0
LTYPE
  2
PHANTOM2
 70
     0
  3
___ _ _ ___ _ _ ___ _ _ ___ _ _
 72
    65
 73
     6
 40
1.25
 49
0.625
 49
-0.125
 49
0.125
 49
-0.125
 49
0.125
 49
-0.125
  0
ENDTAB
  0
TABLE
  2
LAYER
 70
     2
  0
LAYER
  2
0
 70
     0
 62
   255
  6
CONTINUOUS
  0
LAYER
  2
DEFPOINTS
 70
     0
 62
     7
  6
CONTINUOUS
  0
ENDTAB
  0
TABLE
  2
STYLE
 70
     1
  0
STYLE
  2
STANDARD
 70
     0
 40
0.0
 41
0.8
 50
0.0
 71
     0
 42
0.2
  3
txt
  4

  0
ENDTAB
  0
TABLE
  2
VIEW
 70
     0
  0
ENDTAB
  0
TABLE
  2
UCS
 70
     0
  0
ENDTAB
  0
TABLE
  2
APPID
 70
     9
  0
APPID
  2
ACAD
 70
     0
  0
APPID
  2
ACAD_MLEADERVER
 70
     0
  0
APPID
  2
ACAD_EXEMPT_FROM_CAD_STANDARDS
 70
     0
  0
APPID
  2
ACAD_NAV_VCDISPLAY
 70
     0
  0
APPID
  2
ACAECLAYERSTANDARD
 70
     0
  0
APPID
  2
ACCMTRANSPARENCY
 70
     0
  0
APPID
  2
ACAD_DSTYLE_DIMJAG
 70
     0
  0
APPID
  2
ACAD_DSTYLE_DIMTALN
 70
     0
  0
APPID
  2
ACDBATTR
 70
     0
  0
ENDTAB
  0
TABLE
  2
DIMSTYLE
 70
     1
  0
DIMSTYLE
  2
STANDARD
 70
     0
  3

  4

  5

  6

  7

 40
1.0
 41
0.1875
 42
0.0625
 43
0.38
 44
0.125
 45
0.0
 46
0.0
 47
0.01
 48
0.01
140
0.15625
141
0.09
142
0.0
143
25.3999999999999986
144
1.0
145
0.0
146
1.0
147
0.09
 71
     1
 72
     0
 73
     1
 74
     1
 75
     0
 76
     0
 77
     0
 78
     4
170
     0
171
     2
172
     0
173
     0
174
     0
175
     0
176
     0
177
     0
178
     0
  0
ENDTAB
  0
ENDSEC
  0
SECTION
  2
BLOCKS
  0
BLOCK
  8
0
  2
$MODEL_SPACE
 70
     0
 10
0.0
 20
0.0
 30
0.0
  3
$MODEL_SPACE
  1

  0
ENDBLK
  5
21
  8
0
  0
BLOCK
 67
     1
  8
0
  2
$PAPER_SPACE
 70
     0
 10
0.0
 20
0.0
 30
0.0
  3
$PAPER_SPACE
  1

  0
ENDBLK
  5
1D
 67
     1
  8
0
  0
BLOCK
  8
0
  2
_FILLED
 70
     0
 10
0.0
 20
0.0
 30
0.0
  3
_FILLED
  1

  0
SOLID
  5
5A61
  8
0
  6
BYBLOCK
 62
     0
 10
0.0
 20
0.0
 30
0.0
 11
-1.0
 21
0.1666666667
 31
0.0
 12
-1.0
 22
-0.1666666667
 32
0.0
 13
-1.0
 23
-0.1666666667
 33
0.0
  0
ENDBLK
  5
5A62
  8
0
  6
BYBLOCK
 62
     0
  0
ENDSEC
  0
SECTION
  2
ENTITIES
  0
ATTDEF
  5
3930
  8
DEFPOINTS
 10
3010.7175109167042137
 20
78.9674386288041887
 30
0.0
 40
0.001
  1
K-23628H
  3

  2
MODELNUMBER
 70
     0
1001
ACDBATTR
1070
     0
1070
     1
  0
ATTDEF
  5
3931
  8
DEFPOINTS
 10
3010.7175109167042137
 20
78.9657719621375236
 30
0.0
 40
0.001
  1
VEIL
  3

  2
TRADENAME
 70
     0
1001
ACDBATTR
1070
     0
1070
     1
  0
ATTDEF
  5
3932
  8
DEFPOINTS
 10
3010.7175109167042137
 20
78.9641052954708584
 30
0.0
 40
0.001
  1
TOILET
  3

  2
PRODUCT
 70
     0
1001
ACDBATTR
1070
     0
1070
     1
  0
LINE
  5
5D00
  8
0
 10
3016.5669293009382272
 20
78.968769925223242
 30
0.0
 11
3004.8682183764249203
 21
78.968769925223242
 31
0.0
  0
LINE
  5
5D01
  8
0
 10
3003.3465069934650273
 20
108.4372738622231935
 30
0.0
 11
3018.0886406838990297
 21
108.4372738622231935
 31
0.0
  0
LINE
  5
5D02
  8
0
 10
3003.2284431171237884
 20
108.3162530569365032
 30
0.0
 11
3003.5142272018761105
 21
96.7643783068643444
 31
0.0
  0
ARC
  5
5D03
  8
0
 10
3003.3465069934650273
 20
108.3191738622231952
 30
0.0
 40
0.1181
 50
90.0
 51
181.4171624083286929
  0
LINE
  5
5D04
  8
0
 10
3003.8297932364239387
 20
96.8145390429232435
 30
0.0
 11
3017.6053544409410279
 21
96.8145390429232435
 31
0.0
  0
ARC
  5
5D05
  8
0
 10
3003.835280949315802
 20
95.6835211442385969
 30
0.0
 40
1.131031211831844
 50
90.2779976523084287
 51
100.873387714998799
  0
ARC
  5
5D06
  8
0
 10
3003.7462351048989149
 20
96.1469652845582772
 30
0.0
 40
0.6591099973606414
 50
100.8713568862434045
 51
108.7216630944701024
  0
ARC
  5
5D07
  8
0
 10
3003.6105664191300093
 20
96.5096498526900035
 30
0.0
 40
0.2723377134133618
 50
106.1795770811309012
 51
141.3333593041726033
  0
ARC
  5
5D08
  8
0
 10
3003.5236891697418287
 20
96.592384965269531
 30
0.0
 40
0.1531605582372785
 50
145.1966023765029092
 51
178.8341716068723031
  0
ARC
  5
5D09
  8
0
 10
3012.3305108859608481
 20
96.3570340727654866
 30
0.0
 40
8.9631233828473125
 50
178.4754453016205105
 51
180.7383583286863882
  0
ARC
  5
5D0A
  8
0
 10
3039.4038372656900719
 20
96.07869809309733
 30
0.0
 40
36.0360734164380005
 50
179.7411012311249863
 51
180.5434086327886973
  0
ARC
  5
5D0B
  8
0
 10
3015.0723859765689667
 20
95.6291274754677119
 30
0.0
 40
11.70349787056157
 50
179.4722461114064913
 51
182.3834756330776941
  0
ARC
  5
5D0C
  8
0
 10
3004.0255573482600084
 20
95.155674489995377
 30
0.0
 40
0.6466802331092145
 50
181.1754691783517046
 51
193.904461808466408
  0
ARC
  5
5D0D
  8
0
 10
3003.4330323257609052
 20
95.006555254226555
 30
0.0
 40
0.0357618267763928
 50
190.1145493045414128
 51
269.3299746095048022
  0
LINE
  5
5D0E
  8
0
 10
3003.5672292529161496
 20
94.9725945223232486
 30
0.0
 11
3017.8679184244479075
 21
94.9725945223232486
 31
0.0
  0
ARC
  5
5D0F
  8
0
 10
3003.4611735085118198
 20
95.2290839709446857
 30
0.0
 40
0.2598622322179454
 50
263.6903340434536176
 51
272.8656023768563159
  0
ARC
  5
5D10
  8
0
 10
3003.1478463600560644
 20
106.3558952802651021
 30
0.0
 40
11.3910235780892108
 50
271.641576166086395
 51
272.1099334390127069
  0
ARC
  5
5D11
  8
0
 10
3004.602337117747993
 20
95.7221913780472846
 30
0.0
 40
1.2332483678106121
 50
180.6164699134916987
 51
190.2915180653079119
  0
ARC
  5
5D12
  8
0
 10
3003.4633594627262028
 20
95.515876689575208
 30
0.0
 40
0.0757372738280121
 50
190.6625397669357085
 51
226.4768222024989086
  0
ARC
  5
5D13
  8
0
 10
3003.4326954604648563
 20
95.4993044607994221
 30
0.0
 40
0.0439570758028513
 50
240.7291493736011887
 51
272.948288987077774
  0
ARC
  5
5D14
  8
0
 10
3003.5472837963670827
 20
139.8141593444119906
 30
0.0
 40
44.358895996470352
 50
269.8549131175320781
 51
270.1465940043486853
  0
ARC
  5
5D15
  8
0
 10
3004.0390346282570135
 20
-28.365317889721311
 30
0.0
 40
123.8213041895423032
 50
89.8244763699511566
 51
90.1750307832055569
  0
ARC
  5
5D16
  8
0
 10
3004.9542525670549367
 20
-239.5113662382200062
 30
0.0
 40
334.9672001944981048
 50
89.9051487935139022
 51
90.0916645197222294
  0
ARC
  5
5D17
  8
0
 10
3006.895990144559164
 20
-287.1554839286076231
 30
0.0
 40
382.6133736439630866
 50
89.9272607387430583
 51
90.2077332345535581
  0
ARC
  5
5D18
  8
0
 10
3010.071630146806001
 20
1639.2761676668949349
 30
0.0
 40
1543.8209296776510655
 50
269.9001698722192941
 51
270.0239728894180757
  0
ARC
  5
5D19
  8
0
 10
3003.8894179687199539
 20
95.2370739737170453
 30
0.0
 40
0.2302728657308672
 50
34.2461857171888298
 51
71.9077783631492622
  0
ARC
  5
5D1A
  8
0
 10
3004.1063485282397778
 20
95.3874724585262612
 30
0.0
 40
0.0337593548744022
 50
218.0605857816510991
 51
262.4276015313748189
  0
ARC
  5
5D1B
  8
0
 10
3004.6958986657159585
 20
95.4865346389441925
 30
0.0
 40
0.1377697729749494
 50
275.0346509786634783
 51
292.8220608270748926
  0
ARC
  5
5D1C
  8
0
 10
3004.7451621421878372
 20
95.3724237916025004
 30
0.0
 40
0.0135330326657389
 50
287.9618003482577251
 51
341.6743820355858929
  0
ARC
  5
5D1D
  8
0
 10
3004.9476691768509227
 20
95.2367393381920948
 30
0.0
 40
0.230748213682253
 50
108.2944116660714968
 51
145.279095817229603
  0
ARC
  5
5D1E
  8
0
 10
3004.2163861640219693
 20
95.9479459200681362
 30
0.0
 40
0.6048718598494832
 50
259.0895919998421846
 51
267.711829214930674
  0
ARC
  5
5D1F
  8
0
 10
3004.4184121758521542
 20
99.1857781192366588
 30
0.0
 40
3.8488730342220459
 50
266.631120350339188
 51
271.1040305134146138
  0
ARC
  5
5D20
  8
0
 10
3004.4815030801651119
 20
97.5346978272568634
 30
0.0
 40
2.19710611382258
 50
270.2886389774931786
 51
275.9167763733937022
  0
LINE
  5
5D21
  8
0
 10
3004.1309609447689581
 20
95.3491366860433374
 30
0.0
 11
3004.130962549421838
 21
95.2999688281748973
 31
0.0
  0
ARC
  5
5D22
  8
0
 10
3004.1760854898279831
 20
95.3015473800757746
 30
0.0
 40
0.0451505434849827
 50
182.0035815837227915
 51
260.486159734528087
  0
ARC
  5
5D23
  8
0
 10
3004.382715250038018
 20
96.6420320419887844
 30
0.0
 40
1.4014634892457769
 50
261.2128888674238851
 51
271.4647261707758048
  0
ARC
  5
5D24
  8
0
 10
3004.4489233955800955
 20
96.8405435117412452
 30
0.0
 40
1.5998056015065529
 50
268.911733199105413
 51
277.4233110150910875
  0
LINE
  5
5D25
  8
0
 10
3004.7057641355318083
 20
95.3000478545232568
 30
0.0
 11
3004.7057641203618914
 21
95.349066966098917
 31
0.0
  0
ARC
  5
5D26
  8
0
 10
3004.6627816458549205
 20
95.3008243531515973
 30
0.0
 40
0.0429895030089335
 50
295.8001479179313833
 51
358.9650377272245123
  0
ARC
  5
5D27
  8
0
 10
3004.6403402633791302
 20
95.3496901458502464
 30
0.0
 40
0.0967573248260206
 50
279.0841360551610251
 51
295.1702825488325175
  0
ARC
  5
5D28
  8
0
 10
3005.4609250857311054
 20
95.2242943393115269
 30
0.0
 40
0.235977723017424
 50
22.9439377920479295
 51
78.3070616899928922
  0
ARC
  5
5D29
  8
0
 10
3005.6975464275551531
 20
95.3222482252787842
 30
0.0
 40
0.0202121004123334
 50
197.1577165171815125
 51
268.4587794936267073
  0
LINE
  5
5D2A
  8
0
 10
3006.4760454002771439
 20
95.3020434369232277
 30
0.0
 11
3005.6946211924318959
 21
95.3020434369232277
 31
0.0
  0
LINE
  5
5D2B
  8
0
 10
3005.6946211924318959
 20
95.3020434369232277
 30
0.0
 11
3005.6946211924318959
 21
95.2429883188232367
 31
0.0
  0
LINE
  5
5D2C
  8
0
 10
3006.4760454002771439
 20
95.3020434369232277
 30
0.0
 11
3006.4760504814321393
 21
95.2429883188232367
 31
0.0
  0
ARC
  5
5D2D
  8
0
 10
3006.7096193272109304
 20
95.2235257962131243
 30
0.0
 40
0.2362069870228884
 50
97.280157899343024
 51
156.9950475143386086
  0
ARC
  5
5D2E
  8
0
 10
3006.4728259300982245
 20
95.3223672911817062
 30
0.0
 40
0.0204424593874168
 50
276.1749435960899746
 51
341.3734833317722064
  0
ARC
  5
5D2F
  8
0
 10
3004.9438877270931698
 20
95.4713183778386139
 30
0.0
 40
1.4484377651093809
 50
180.6339070825686974
 51
188.9492817348310041
  0
ARC
  5
5D30
  8
0
 10
3003.548733888490915
 20
95.2458004582089472
 30
0.0
 40
0.0356518215147654
 50
179.6805180293845865
 51
263.9966949561896854
  0
ARC
  5
5D31
  8
0
 10
3003.5770137693461947
 20
95.8690939663403014
 30
0.0
 40
0.6595269972689434
 50
267.2181943940445876
 51
275.4502441996261837
  0
ARC
  5
5D32
  8
0
 10
3007.0684983640899191
 20
-0.9345217098814941
 30
0.0
 40
96.2081914184105074
 50
91.9374581970267997
 51
92.0424433500844543
  0
ARC
  5
5D33
  8
0
 10
3004.6951604357691394
 20
61.5860715100476881
 30
0.0
 40
33.6440915358140415
 50
90.9157329884206575
 51
91.4976572879102434
  0
ARC
  5
5D34
  8
0
 10
3004.6701710815709703
 20
56.3406793701665265
 30
0.0
 40
38.8885666120602309
 50
89.4290562445462882
 51
90.7554086446029231
  0
ARC
  5
5D35
  8
0
 10
3038.8442824799540176
 20
7053.7648537031800515
 30
0.0
 40
6958.6195620122416585
 50
269.7218073033216115
 51
269.7270913036596198
  0
ARC
  5
5D36
  8
0
 10
3055.370870439313876
 20
10735.6806066151093546
 30
0.0
 40
10640.5723144415005663
 50
269.732535562557814
 51
269.7367798268983847
  0
ARC
  5
5D37
  8
0
 10
3004.9508582699218096
 20
-6492.0542225823892295
 30
0.0
 40
6587.2749804532295457
 50
89.9498413977092213
 51
89.9866332486468252
  0
ARC
  5
5D38
  8
0
 10
3005.733891527077958
 20
95.242955266563996
 30
0.0
 40
0.03927034855554
 50
179.9517764611071016
 51
208.4799888373443082
  0
ARC
  5
5D39
  8
0
 10
3006.4351379916688529
 20
95.2434375451758655
 30
0.0
 40
0.0409149559812603
 50
326.1778927312223004
 51
359.3709075179046977
  0
ARC
  5
5D3A
  8
0
 10
3003.9374363055781032
 20
94.793574288656103
 30
0.0
 40
0.1910383127808349
 50
31.3802537152447094
 51
69.5685867368522395
  0
LINE
  5
5D3B
  8
0
 10
3004.1213144417320109
 20
94.8742817362232387
 30
0.0
 11
3004.6961175938317865
 21
94.8742817362232387
 31
0.0
  0
LINE
  5
5D3C
  8
0
 10
3004.1213144417320109
 20
94.8742817362232387
 30
0.0
 11
3004.1213144417320109
 21
94.8146565394232397
 31
0.0
  0
LINE
  5
5D3D
  8
0
 10
3004.6961175938317865
 20
94.8742817362232387
 30
0.0
 11
3004.6961175938317865
 21
94.8146565394232397
 31
0.0
  0
ARC
  5
5D3E
  8
0
 10
3004.691190615053074
 20
94.9136555348508466
 30
0.0
 40
0.0393740242907039
 50
270.1939827929397211
 51
311.1253176028232019
  0
ARC
  5
5D3F
  8
0
 10
3004.1369028666749728
 20
94.91642082125135
 30
0.0
 40
0.0432322789471312
 50
212.7222313086529937
 51
257.0877599578710146
  0
LINE
  5
5D40
  8
0
 10
3004.6573175938319764
 20
94.7758565394232448
 30
0.0
 11
3004.160114441731821
 21
94.7758565394232448
 31
0.0
  0
ARC
  5
5D41
  8
0
 10
3004.6573175938319764
 20
94.8146565394232397
 30
0.0
 40
0.0388
 50
270.0
 51
0.0000000000016284
  0
ARC
  5
5D42
  8
0
 10
3004.160114441731821
 20
94.8146565394232397
 30
0.0
 40
0.0388
 50
180.0
 51
270.0
  0
ARC
  5
5D43
  8
0
 10
3004.8413077438458458
 20
94.7426096537200948
 30
0.0
 40
0.1882043499049942
 50
113.0731862586660981
 51
131.3021585919161964
  0
ARC
  5
5D44
  8
0
 10
3004.8380298218207827
 20
94.7522568115935826
 30
0.0
 40
0.1780459208871342
 50
103.2296997973818975
 51
113.3193924283331029
  0
ARC
  5
5D45
  8
0
 10
3003.9612605307402191
 20
85.7123883423205086
 30
0.0
 40
9.2510425060057635
 50
80.4124982435597246
 51
84.8150707163563737
  0
ARC
  5
5D46
  8
0
 10
3005.2042277645200556
 20
93.3909960257276737
 30
0.0
 40
1.4736298788971209
 50
70.562559547691535
 51
78.3399269254068003
  0
LINE
  5
5D47
  8
0
 10
3017.8163137254728099
 20
94.7178369498797537
 30
0.0
 11
3003.6188336838768009
 21
94.7158862794860141
 31
0.0
  0
LINE
  5
5D48
  8
0
 10
3005.6946216291830751
 20
94.8152266181232477
 30
0.0
 11
3006.4760450870430759
 21
94.8152266181232477
 31
0.0
  0
LINE
  5
5D49
  8
0
 10
3005.6946216291830751
 20
94.8152266181232477
 30
0.0
 11
3005.6946164150422192
 21
94.7573808575681795
 31
0.0
  0
LINE
  5
5D4A
  8
0
 10
3006.4760450870430759
 20
94.8152266181232477
 30
0.0
 11
3006.4760503621860153
 21
94.7574769514118032
 31
0.0
  0
ARC
  5
5D4B
  8
0
 10
3005.4889937170410121
 20
94.7924793093647082
 30
0.0
 40
0.1957958517063759
 50
15.2602961232830605
 51
66.913413925998114
  0
ARC
  5
5D4C
  8
0
 10
3005.7162902195700553
 20
94.8552112393064704
 30
0.0
 40
0.0400035464689809
 50
196.2550893300364123
 51
268.2375097253743093
  0
ARC
  5
5D4D
  8
0
 10
3006.4590943100679397
 20
94.8577486981060787
 30
0.0
 40
0.0443323134612751
 50
286.4298547279453828
 51
328.5045206251177774
  0
ARC
  5
5D4E
  8
0
 10
3006.6519370230430468
 20
94.7456103660562121
 30
0.0
 40
0.1787592425062278
 50
111.9642043709982033
 51
150.1486250283246022
  0
ARC
  5
5D4F
  8
0
 10
3006.6389454205677794
 20
94.7686233822103645
 30
0.0
 40
0.1525961553168877
 50
80.8754832834625574
 51
110.6720361413432983
  0
ARC
  5
5D50
  8
0
 10
3003.5847620781009937
 20
364.3158194684974092
 30
0.0
 40
269.4141185699039056
 50
270.6546878192751251
 51
270.7123048877057272
  0
ARC
  5
5D51
  8
0
 10
3007.066407317120138
 20
148.6714178758952016
 30
0.0
 40
53.7490603929725808
 50
269.8589085017317188
 51
272.4774108932538752
  0
ARC
  5
5D52
  8
0
 10
3006.4348503623568831
 20
94.7574731879985137
 30
0.0
 40
0.0412
 50
270.0078721843387939
 51
0.0052336820082797
  0
ARC
  5
5D53
  8
0
 10
3005.7358164148749893
 20
94.7573771438539438
 30
0.0
 40
0.0412
 50
179.9948354331937139
 51
270.0078721843387939
  0
ARC
  5
5D54
  8
0
 10
2955.528326681137969
 20
81.984434778332556
 30
0.0
 40
49.4511353608350674
 50
7.189019535055837
 51
14.5649657674022297
  0
ARC
  5
5D55
  8
0
 10
3003.6188661367032182
 20
94.479686281715459
 30
0.0
 40
0.2362
 50
90.0078721843387655
 51
194.5649657674015032
  0
ARC
  5
5D56
  8
0
 10
2958.1467822692170557
 20
82.8369647551415085
 30
0.0
 40
46.7494475083510181
 50
2.9278927782650732
 51
6.5539701802063863
  0
ARC
  5
5D57
  8
0
 10
-3836.0112524581481921
 20
176.9440560785459979
 30
0.0
 40
6841.4612941858304112
 50
359.180452283632178
 51
359.2318484963071796
  0
ARC
  5
5D58
  8
0
 10
3004.8681639961728251
 20
79.0867699337224508
 30
0.0
 40
0.1180000210297629
 50
179.1804565592480003
 51
270.0264047330098265
  0
ARC
  5
5D59
  8
0
 10
3001.0084046157890043
 20
95.0978793734112031
 30
0.0
 40
3.0311345371296459
 50
356.1173731259116835
 51
357.3372532714944896
  0
ARC
  5
5D5A
  8
0
 10
3003.8350660169221555
 20
94.9146186865399528
 30
0.0
 40
0.1987361183563251
 50
271.0586841546024175
 51
353.6484660588492943
  0
ARC
  5
5D5B
  8
0
 10
3003.5464355426170187
 20
96.6981260847647235
 30
0.0
 40
0.058469926486512
 50
105.6903906536112032
 51
171.2592912807276946
  0
ARC
  5
5D5C
  8
0
 10
3003.7518848667641578
 20
96.2651958370059049
 30
0.0
 40
0.5369305447867716
 50
98.2435782419175894
 51
114.3359780357432953
  0
ARC
  5
5D5D
  8
0
 10
3053.504195968815111
 20
96.733880093770054
 30
0.0
 40
50.0155585097279172
 50
180.0307797286480991
 51
180.9282220554406138
  0
ARC
  5
5D5E
  8
0
 10
3004.2082299149869868
 20
95.9185117639392502
 30
0.0
 40
0.7130475468494116
 50
179.5881721861744893
 51
190.3968130394189018
  0
ARC
  5
5D5F
  8
0
 10
3003.5651107477769983
 20
95.7851668340290843
 30
0.0
 40
0.0584078259014414
 50
175.4187357858077974
 51
241.4459987864021002
  0
ARC
  5
5D60
  8
0
 10
3003.5607604499650733
 20
95.825866031710774
 30
0.0
 40
0.0949733769104434
 50
255.6317908359602029
 51
281.6117451998346723
  0
ARC
  5
5D61
  8
0
 10
3003.7473988302308499
 20
93.8677402813829644
 30
0.0
 40
1.8726043792345961
 50
89.0141478336513075
 51
95.1325135653262635
  0
ARC
  5
5D62
  8
0
 10
3004.237172765701871
 20
117.9984404155086963
 30
0.0
 40
22.2630753205786185
 50
268.8223637135217245
 51
270.3865710451149766
  0
ARC
  5
5D63
  8
0
 10
3004.2393218685620013
 20
-784.2583637713539702
 30
0.0
 40
879.9942480401166449
 50
89.8619727131408155
 51
89.9903600954924059
  0
ARC
  5
5D64
  8
0
 10
3008.4326778502259003
 20
14687.505320168009348
 30
0.0
 40
14591.7721367020203616
 50
269.9918585283426751
 51
270.008971829877396
  0
LINE
  5
5D65
  8
0
 10
3003.7938007254051627
 20
96.8091245261542497
 30
0.0
 11
3017.6413469519588944
 21
96.8091245261542497
 31
0.0
  0
ARC
  5
5D66
  8
0
 10
3003.8891440561869786
 20
95.3358237924278313
 30
0.0
 40
1.4763825394264321
 50
93.7026817173902913
 51
98.3439367401283704
  0
LINE
  5
5D67
  8
0
 10
3003.2475751440319982
 20
107.1725100820231944
 30
0.0
 11
3002.7965458934959315
 21
107.1606994661235035
 31
0.0
  0
LINE
  5
5D68
  8
0
 10
3003.2475751440319982
 20
107.1725100820231944
 30
0.0
 11
3003.2475751440319982
 21
105.9225100834232052
 31
0.0
  0
LINE
  5
5D69
  8
0
 10
3003.2475751440319982
 20
105.9225100827232069
 30
0.0
 11
3002.7965458934318121
 21
105.9343206993231945
 31
0.0
  0
ARC
  5
5D6A
  8
0
 10
3008.7475751314282206
 20
106.5475100827232069
 30
0.0
 40
5.9999999873964578
 50
174.3070854885218921
 51
185.6929145114781079
  0
ARC
  5
5D6B
  8
0
 10
3002.7970694324822034
 20
105.9543138459463023
 30
0.0
 40
0.0200000001243575
 50
185.6929146976897869
 51
268.4999998652853037
  0
ARC
  5
5D6C
  8
0
 10
3002.7970694324849319
 20
107.1407063194988041
 30
0.0
 40
0.0200000001271153
 50
91.5000002389708271
 51
174.3070851306993916
  0
LINE
  5
5D6D
  8
0
 10
3003.2475751440319982
 20
106.9907421682232069
 30
0.0
 11
3003.2612233989470951
 21
106.9912187737238014
 31
0.0
  0
LINE
  5
5D6E
  8
0
 10
3003.2475751440319982
 20
106.1042779932232065
 30
0.0
 11
3003.2831963736739453
 21
106.1030340725216945
 31
0.0
  0
ARC
  5
5D6F
  8
0
 10
3003.2830180288187876
 20
106.2411810926560065
 30
0.0
 40
0.0078992921187248
 50
115.6188215406928066
 51
176.4144703645796142
  0
LINE
  5
5D70
  8
0
 10
3003.275134199132026
 20
106.241675102123196
 30
0.0
 11
3003.2751359416129162
 21
106.2018511502728018
 31
0.0
  0
ARC
  5
5D71
  8
0
 10
3003.2917079888320586
 20
106.2021928372580959
 30
0.0
 40
0.0165755693425039
 50
181.1811726363480091
 51
230.0183204378894004
  0
ARC
  5
5D72
  8
0
 10
3004.8815301065551466
 20
80.8295337730591541
 30
0.0
 40
0.0131683624317408
 50
43.1752244075871374
 51
118.2197303128473038
  0
ARC
  5
5D73
  8
0
 10
3004.901863370404044
 20
80.7970266365330474
 30
0.0
 40
0.0514893437274239
 50
121.0532501088292037
 51
169.7788765361717083
  0
ARC
  5
5D74
  8
0
 10
3004.8177063978509977
 20
80.7826532055026547
 30
0.0
 40
0.0922783462793208
 50
11.0651062998853806
 51
37.2775024547980394
  0
ARC
  5
5D75
  8
0
 10
3005.77011681699787
 20
80.5543293189039957
 30
0.0
 40
0.9528088655981125
 50
164.6742260381801088
 51
177.7767914048613136
  0
ARC
  5
5D76
  8
0
 10
3003.8504510891420978
 20
80.574488172318226
 30
0.0
 40
1.0816649343837661
 50
359.9500388797987966
 51
12.0533304354814401
  0
ARC
  5
5D77
  8
0
 10
3005.8876337526639873
 20
80.5401800530695482
 30
0.0
 40
1.0708290832319181
 50
177.2642061386079888
 51
191.630874190351193
  0
ARC
  5
5D78
  8
0
 10
3003.495991024543855
 20
80.5361790478501547
 30
0.0
 40
1.436610609775538
 50
351.1096367468214225
 51
1.4904187770602431
  0
ARC
  5
5D79
  8
0
 10
3005.0528429740579668
 20
80.3522890473911957
 30
0.0
 40
0.2158735419199474
 50
187.451049075091106
 51
206.1143687236317987
  0
ARC
  5
5D7A
  8
0
 10
3004.7625693198879162
 20
80.3275544586030037
 30
0.0
 40
0.1533588235171338
 50
327.0605232600411796
 51
354.9890604626564254
  0
ARC
  5
5D7B
  8
0
 10
3004.8870375421479366
 20
80.2690721264164466
 30
0.0
 40
0.030414694356963
 50
202.8342355365226979
 51
248.2857400745884888
  0
ARC
  5
5D7C
  8
0
 10
3004.8814084822997756
 20
80.2523010965443149
 30
0.0
 40
0.0127883435770167
 50
243.9119012753942002
 51
320.491036659778274
  0
LINE
  5
5D7D
  8
0
 10
3004.8825651391780411
 20
80.8426613957153961
 30
0.0
 11
3005.0860212157322167
 21
80.8425568606232474
 31
0.0
  0
LINE
  5
5D7E
  8
0
 10
3004.8828148728221095
 20
80.2395903216999642
 30
0.0
 11
3005.0858690129139177
 21
80.2394859930214892
 31
0.0
  0
ARC
  5
5D7F
  8
0
 10
3003.1295622712100339
 20
80.5415151779637313
 30
0.0
 40
1.9794841995304699
 50
351.2235440019221073
 51
8.7475354255716375
  0
LINE
  5
5D80
  8
0
 10
3018.2067045602398139
 20
108.3162530569365032
 30
0.0
 11
3017.9209204754879465
 21
96.7643783068643444
 31
0.0
  0
ARC
  5
5D81
  8
0
 10
3018.0886406838990297
 20
108.3191738622231952
 30
0.0
 40
0.1181
 50
358.5828375916713071
 51
90.0
  0
ARC
  5
5D82
  8
0
 10
3017.5998667280478003
 20
95.6835211442385969
 30
0.0
 40
1.131031211831844
 50
79.1266122850011726
 51
89.7220023476915713
  0
ARC
  5
5D83
  8
0
 10
3017.6889125724651421
 20
96.1469652845582772
 30
0.0
 40
0.6591099973606414
 50
71.2783369055298692
 51
79.1286431137565387
  0
ARC
  5
5D84
  8
0
 10
3017.8245812582340477
 20
96.5096498526900035
 30
0.0
 40
0.2723377134133618
 50
38.6666406958273825
 51
73.8204229188690704
  0
ARC
  5
5D85
  8
0
 10
3017.9114585076231378
 20
96.592384965269531
 30
0.0
 40
0.1531605582372785
 50
1.165828393127639
 51
34.8033976234970766
  0
ARC
  5
5D86
  8
0
 10
3009.1046367914032089
 20
96.3570340727654866
 30
0.0
 40
8.9631233828473125
 50
359.2616416713136118
 51
1.524554698379458
  0
ARC
  5
5D87
  8
0
 10
2982.0313104116748946
 20
96.07869809309733
 30
0.0
 40
36.0360734164380005
 50
359.4565913672112174
 51
0.2588987688749203
  0
ARC
  5
5D88
  8
0
 10
3006.3627617007959998
 20
95.6291274754677119
 30
0.0
 40
11.70349787056157
 50
357.6165243669223059
 51
0.5277538885935003
  0
ARC
  5
5D89
  8
0
 10
3017.4095903291040486
 20
95.155674489995377
 30
0.0
 40
0.6466802331092145
 50
346.095538191533592
 51
358.8245308216481817
  0
ARC
  5
5D8A
  8
0
 10
3018.0021153516031518
 20
95.006555254226555
 30
0.0
 40
0.0357618267763928
 50
270.6700253904950841
 51
349.8854506954585872
  0
ARC
  5
5D8B
  8
0
 10
3017.9739741688517825
 20
95.2290839709446857
 30
0.0
 40
0.2598622322179454
 50
267.1343976231436841
 51
276.3096659565463824
  0
ARC
  5
5D8C
  8
0
 10
3018.2873013173079926
 20
106.3558952802651021
 30
0.0
 40
11.3910235780892108
 50
267.8900665610133274
 51
268.358423833913605
  0
ARC
  5
5D8D
  8
0
 10
3016.832810559616064
 20
95.7221913780472846
 30
0.0
 40
1.2332483678106121
 50
349.7084819346919744
 51
359.3835300865081877
  0
ARC
  5
5D8E
  8
0
 10
3017.9717882146378543
 20
95.515876689575208
 30
0.0
 40
0.0757372738280121
 50
313.5231777975010914
 51
349.3374602330641778
  0
ARC
  5
5D8F
  8
0
 10
3018.0024522169001102
 20
95.4993044607994221
 30
0.0
 40
0.0439570758028513
 50
267.0517110129221123
 51
299.2708506263987829
  0
ARC
  5
5D90
  8
0
 10
3017.8878638809978838
 20
139.8141593444119906
 30
0.0
 40
44.358895996470352
 50
269.8534059956513147
 51
270.1450868824679219
  0
ARC
  5
5D91
  8
0
 10
3017.396113049107953
 20
-28.365317889721311
 30
0.0
 40
123.8213041895423032
 50
89.8249692167944289
 51
90.1755236300488434
  0
ARC
  5
5D92
  8
0
 10
3016.4808951103091204
 20
-239.5113662382200062
 30
0.0
 40
334.9672001944981048
 50
89.9083354802777848
 51
90.0948512064860978
  0
ARC
  5
5D93
  8
0
 10
3014.539157532804893
 20
-287.1554839286076231
 30
0.0
 40
382.6133736439630866
 50
89.7922667654464419
 51
90.0727392612569417
  0
ARC
  5
5D94
  8
0
 10
3011.363517530558056
 20
1639.2761676668949349
 30
0.0
 40
1543.8209296776510655
 50
269.9760271105819243
 51
270.0998301277805922
  0
ARC
  5
5D95
  8
0
 10
3017.5457297086441031
 20
95.2370739737170453
 30
0.0
 40
0.2302728657308672
 50
108.0922216368506952
 51
145.7538142828111063
  0
ARC
  5
5D96
  8
0
 10
3017.3287991491238245
 20
95.3874724585262612
 30
0.0
 40
0.0337593548744022
 50
277.5723984686251811
 51
321.9394142183488725
  0
ARC
  5
5D97
  8
0
 10
3016.7392490116480985
 20
95.4865346389441925
 30
0.0
 40
0.1377697729749494
 50
247.1779391729249937
 51
264.9653490213365217
  0
ARC
  5
5D98
  8
0
 10
3016.6899855351762199
 20
95.3724237916025004
 30
0.0
 40
0.0135330326657389
 50
198.3256179644139934
 51
252.0381996517423033
  0
ARC
  5
5D99
  8
0
 10
3016.4874785005131343
 20
95.2367393381920948
 30
0.0
 40
0.230748213682253
 50
34.7209041827703828
 51
71.7055883339285316
  0
ARC
  5
5D9A
  8
0
 10
3017.2187615133429972
 20
95.9479459200681362
 30
0.0
 40
0.6048718598494832
 50
272.288170785069326
 51
280.9104080001578154
  0
ARC
  5
5D9B
  8
0
 10
3017.0167355015119028
 20
99.1857781192366588
 30
0.0
 40
3.8488730342220459
 50
268.8959694865853862
 51
273.368879649660812
  0
ARC
  5
5D9C
  8
0
 10
3016.9536445971989451
 20
97.5346978272568634
 30
0.0
 40
2.19710611382258
 50
264.0832236266064115
 51
269.7113610225068214
  0
LINE
  5
5D9D
  8
0
 10
3017.3041867325960084
 20
95.3491366860433374
 30
0.0
 11
3017.304185127942219
 21
95.2999688281748973
 31
0.0
  0
ARC
  5
5D9E
  8
0
 10
3017.2590621875360739
 20
95.3015473800757746
 30
0.0
 40
0.0451505434849827
 50
279.5138402654717993
 51
357.9964184162770948
  0
ARC
  5
5D9F
  8
0
 10
3017.052432427326039
 20
96.6420320419887844
 30
0.0
 40
1.4014634892457769
 50
268.5352738292240815
 51
278.7871111325761149
  0
ARC
  5
5DA0
  8
0
 10
3016.986224281783052
 20
96.8405435117412452
 30
0.0
 40
1.5998056015065529
 50
262.5766889849089125
 51
271.0882668008947007
  0
LINE
  5
5DA1
  8
0
 10
3016.729383541831794
 20
95.3000478545232568
 30
0.0
 11
3016.7293835570021656
 21
95.349066966098917
 31
0.0
  0
ARC
  5
5DA2
  8
0
 10
3016.7723660315091365
 20
95.3008243531515973
 30
0.0
 40
0.0429895030089335
 50
181.0349622727754024
 51
244.1998520820685883
  0
ARC
  5
5DA3
  8
0
 10
3016.7948074139849268
 20
95.3496901458502464
 30
0.0
 40
0.0967573248260206
 50
244.8297174511675109
 51
260.9158639448389749
  0
ARC
  5
5DA4
  8
0
 10
3015.9742225916329517
 20
95.2242943393115269
 30
0.0
 40
0.235977723017424
 50
101.6929383100070936
 51
157.0560622079520101
  0
ARC
  5
5DA5
  8
0
 10
3015.737601249808904
 20
95.3222482252787842
 30
0.0
 40
0.0202121004123334
 50
271.541220506373179
 51
342.8422834828182886
  0
LINE
  5
5DA6
  8
0
 10
3014.9591022770869131
 20
95.3020434369232277
 30
0.0
 11
3015.7405264849330706
 21
95.3020434369232277
 31
0.0
  0
LINE
  5
5DA7
  8
0
 10
3015.7405264849330706
 20
95.3020434369232277
 30
0.0
 11
3015.7405264849330706
 21
95.2429883188232367
 31
0.0
  0
LINE
  5
5DA8
  8
0
 10
3014.9591022770869131
 20
95.3020434369232277
 30
0.0
 11
3014.9590971959319177
 21
95.2429883188232367
 31
0.0
  0
ARC
  5
5DA9
  8
0
 10
3014.7255283501540362
 20
95.2235257962131243
 30
0.0
 40
0.2362069870228884
 50
23.0049524856613914
 51
82.7198421006570044
  0
ARC
  5
5DAA
  8
0
 10
3014.9623217472658325
 20
95.3223672911817062
 30
0.0
 40
0.0204424593874168
 50
198.6265166682277936
 51
263.8250564039100254
  0
ARC
  5
5DAB
  8
0
 10
3016.4912599502708872
 20
95.4713183778386139
 30
0.0
 40
1.4484377651093809
 50
351.0507182651688822
 51
359.3660929174312173
  0
ARC
  5
5DAC
  8
0
 10
3017.8864137888740515
 20
95.2458004582089472
 30
0.0
 40
0.0356518215147654
 50
276.0033050438103146
 51
0.3194819706153488
  0
ARC
  5
5DAD
  8
0
 10
3017.8581339080178623
 20
95.8690939663403014
 30
0.0
 40
0.6595269972689434
 50
264.5497558003738163
 51
272.7818056059554124
  0
ARC
  5
5DAE
  8
0
 10
3014.366649313274138
 20
-0.9345217098814941
 30
0.0
 40
96.2081914184105074
 50
87.9575566499155599
 51
88.0625418029731861
  0
ARC
  5
5DAF
  8
0
 10
3016.7399872415958271
 20
61.5860715100476881
 30
0.0
 40
33.6440915358140415
 50
88.5023427120897708
 51
89.0842670115793283
  0
ARC
  5
5DB0
  8
0
 10
3016.7649765957921772
 20
56.3406793701665265
 30
0.0
 40
38.8885666120602309
 50
89.2445913553970342
 51
90.5709437554536976
  0
ARC
  5
5DB1
  8
0
 10
2982.5908651974100394
 20
7053.7648537031800515
 30
0.0
 40
6958.6195620122416585
 50
270.2729086963403802
 51
270.2781926966783885
  0
ARC
  5
5DB2
  8
0
 10
2966.064277238050181
 20
10735.6806066151093546
 30
0.0
 40
10640.5723144415005663
 50
270.2632201731016153
 51
270.267464437442186
  0
ARC
  5
5DB3
  8
0
 10
3016.484289407443157
 20
-6492.0542225823892295
 30
0.0
 40
6587.2749804532295457
 50
90.0133667513532032
 51
90.0501586022907645
  0
ARC
  5
5DB4
  8
0
 10
3015.701256150286099
 20
95.242955266563996
 30
0.0
 40
0.03927034855554
 50
331.5200111626555781
 51
0.048223538892872
  0
ARC
  5
5DB5
  8
0
 10
3015.0000096856952041
 20
95.2434375451758655
 30
0.0
 40
0.0409149559812603
 50
180.6290924820953023
 51
213.8221072687775859
  0
ARC
  5
5DB6
  8
0
 10
3017.4977113717859538
 20
94.793574288656103
 30
0.0
 40
0.1910383127808349
 50
110.4314132631477037
 51
148.6197462847553084
  0
LINE
  5
5DB7
  8
0
 10
3017.3138332356320461
 20
94.8742817362232387
 30
0.0
 11
3016.7390300835318158
 21
94.8742817362232387
 31
0.0
  0
LINE
  5
5DB8
  8
0
 10
3017.3138332356320461
 20
94.8742817362232387
 30
0.0
 11
3017.3138332356320461
 21
94.8146565394232397
 31
0.0
  0
LINE
  5
5DB9
  8
0
 10
3016.7390300835318158
 20
94.8742817362232387
 30
0.0
 11
3016.7390300835318158
 21
94.8146565394232397
 31
0.0
  0
ARC
  5
5DBA
  8
0
 10
3016.7439570623118925
 20
94.9136555348508466
 30
0.0
 40
0.0393740242907039
 50
228.8746823971767981
 51
269.8060172070602789
  0
ARC
  5
5DBB
  8
0
 10
3017.2982448106890843
 20
94.91642082125135
 30
0.0
 40
0.0432322789471312
 50
282.9122400421289854
 51
327.2777686913469779
  0
LINE
  5
5DBC
  8
0
 10
3016.7778300835320806
 20
94.7758565394232448
 30
0.0
 11
3017.2750332356317813
 21
94.7758565394232448
 31
0.0
  0
ARC
  5
5DBD
  8
0
 10
3016.7778300835320806
 20
94.8146565394232397
 30
0.0
 40
0.0388
 50
179.9999999999984084
 51
270.0
  0
ARC
  5
5DBE
  8
0
 10
3017.2750332356317813
 20
94.8146565394232397
 30
0.0
 40
0.0388
 50
270.0
 51
0.0
  0
ARC
  5
5DBF
  8
0
 10
3016.5938399335191207
 20
94.7426096537200948
 30
0.0
 40
0.1882043499049942
 50
48.6978414080837112
 51
66.9268137413339872
  0
ARC
  5
5DC0
  8
0
 10
3016.5971178555428196
 20
94.7522568115935826
 30
0.0
 40
0.1780459208871342
 50
66.6806075716668261
 51
76.7703002026180599
  0
ARC
  5
5DC1
  8
0
 10
3017.4738871466238379
 20
85.7123883423205086
 30
0.0
 40
9.2510425060057635
 50
95.1849292836436263
 51
99.5875017564402896
  0
ARC
  5
5DC2
  8
0
 10
3016.2309199128440014
 20
93.3909960257276737
 30
0.0
 40
1.4736298788971209
 50
101.6600730745931997
 51
109.4374404523083939
  0
LINE
  5
5DC3
  8
0
 10
3015.7405260481809819
 20
94.8152266181232477
 30
0.0
 11
3014.9591025903209811
 21
94.8152266181232477
 31
0.0
  0
LINE
  5
5DC4
  8
0
 10
3015.7405260481809819
 20
94.8152266181232477
 30
0.0
 11
3015.7405312623218379
 21
94.7573808575681795
 31
0.0
  0
LINE
  5
5DC5
  8
0
 10
3014.9591025903209811
 20
94.8152266181232477
 30
0.0
 11
3014.9590973151789512
 21
94.7574769514118032
 31
0.0
  0
ARC
  5
5DC6
  8
0
 10
3015.9461539603230449
 20
94.7924793093647082
 30
0.0
 40
0.1957958517063759
 50
113.0865860740019002
 51
164.7397038767169022
  0
ARC
  5
5DC7
  8
0
 10
3015.7188574577949112
 20
94.8552112393064704
 30
0.0
 40
0.0400035464689809
 50
271.7624902746256907
 51
343.744910669963474
  0
ARC
  5
5DC8
  8
0
 10
3014.9760533672961174
 20
94.8577486981060787
 30
0.0
 40
0.0443323134612751
 50
211.4954793748821942
 51
253.5701452720545035
  0
ARC
  5
5DC9
  8
0
 10
3014.7832106543210102
 20
94.7456103660562121
 30
0.0
 40
0.1787592425062278
 50
29.8513749716753516
 51
68.0357956290017967
  0
ARC
  5
5DCA
  8
0
 10
3014.7962022567971871
 20
94.7686233822103645
 30
0.0
 40
0.1525961553168877
 50
69.3279638586566307
 51
99.1245167165374426
  0
ARC
  5
5DCB
  8
0
 10
3017.8503855992630633
 20
364.3158194684974092
 30
0.0
 40
269.4141185699039056
 50
269.2876951122942728
 51
269.3453121807248749
  0
ARC
  5
5DCC
  8
0
 10
3014.3687403602448285
 20
148.6714178758952016
 30
0.0
 40
53.7490603929725808
 50
267.5225891067461248
 51
270.1410914982682812
  0
ARC
  5
5DCD
  8
0
 10
3015.0002973150071739
 20
94.7574731879985137
 30
0.0
 40
0.0412
 50
179.9947663179916901
 51
269.9921278156612061
  0
ARC
  5
5DCE
  8
0
 10
3015.6993312624899772
 20
94.7573771438539438
 30
0.0
 40
0.0412
 50
269.9921278156612061
 51
0.0051645668062269
  0
ARC
  5
5DCF
  8
0
 10
3065.9068209962269975
 20
81.984434778332556
 30
0.0
 40
49.4511353608350674
 50
165.435034232597701
 51
172.8109804649442083
  0
ARC
  5
5DD0
  8
0
 10
3017.8135217186109003
 20
94.4791210611837045
 30
0.0
 40
0.2387322157109355
 50
345.7328973059010195
 51
89.329902518492176
  0
ARC
  5
5DD1
  8
0
 10
3063.2883654081470013
 20
82.8369647551415085
 30
0.0
 40
46.7494475083510181
 50
173.4460298197936083
 51
177.0721072217349104
  0
ARC
  5
5DD2
  8
0
 10
9857.4464001355136133
 20
176.9440560785459979
 30
0.0
 40
6841.4612941858304112
 50
180.7681515036927919
 51
180.8195477163677083
  0
ARC
  5
5DD3
  8
0
 10
3016.5669836811907771
 20
79.0867699337224508
 30
0.0
 40
0.118000021029764
 50
269.9735952669901735
 51
0.8195434407520265
  0
ARC
  5
5DD4
  8
0
 10
3020.4267430615750527
 20
95.0978793734112031
 30
0.0
 40
3.0311345371296459
 50
182.6627467285055104
 51
183.8826268740882028
  0
ARC
  5
5DD5
  8
0
 10
3017.600081660442811
 20
94.9146186865399528
 30
0.0
 40
0.1987361183563251
 50
186.351533941150592
 51
262.0273930744614859
  0
ARC
  5
5DD6
  8
0
 10
3017.8887121347470384
 20
96.6981260847647235
 30
0.0
 40
0.058469926486512
 50
8.7407087192723107
 51
74.3096093463887684
  0
ARC
  5
5DD7
  8
0
 10
3017.6832628105998992
 20
96.2651958370059049
 30
0.0
 40
0.5369305447867716
 50
65.6640219642566905
 51
81.7564217580823964
  0
ARC
  5
5DD8
  8
0
 10
2967.9309517085498555
 20
96.733880093770054
 30
0.0
 40
50.0155585097279172
 50
359.0717779445594147
 51
359.9692202713517872
  0
ARC
  5
5DD9
  8
0
 10
3017.2269177623770702
 20
95.9185117639392502
 30
0.0
 40
0.7130475468494116
 50
349.603186960581013
 51
0.4118278138255039
  0
ARC
  5
5DDA
  8
0
 10
3017.8700369295870587
 20
95.7851668340290843
 30
0.0
 40
0.0584078259014414
 50
298.5540012135979282
 51
4.5812642141921991
  0
ARC
  5
5DDB
  8
0
 10
3017.8743872273989837
 20
95.825866031710774
 30
0.0
 40
0.0949733769104434
 50
258.3882548001653277
 51
284.3682091640396834
  0
ARC
  5
5DDC
  8
0
 10
3017.6877488471341167
 20
93.8677402813829644
 30
0.0
 40
1.8726043792345961
 50
84.8674864346737508
 51
90.9858521663486783
  0
ARC
  5
5DDD
  8
0
 10
3017.1979749116630956
 20
117.9984404155086963
 30
0.0
 40
22.2630753205786185
 50
269.6134289548850234
 51
271.1776362864782755
  0
ARC
  5
5DDE
  8
0
 10
3017.1958258088029652
 20
-784.2583637713539702
 30
0.0
 40
879.9942480401166449
 50
90.0096399045075799
 51
90.1380272868591987
  0
ARC
  5
5DDF
  8
0
 10
3013.0024698271381567
 20
14687.505320168009348
 30
0.0
 40
14591.7721367020203616
 50
269.9910281701224903
 51
270.0081414716572112
  0
ARC
  5
5DE0
  8
0
 10
3017.5460036211770785
 20
95.3358237924278313
 30
0.0
 40
1.4763825394264321
 50
81.6560632598716865
 51
86.2973182826096945
  0
ARC
  5
5DE1
  8
0
 10
3016.5536175708089104
 20
80.8295337730591541
 30
0.0
 40
0.0131683624317408
 50
61.7802696871527033
 51
136.824775592412891
  0
ARC
  5
5DE2
  8
0
 10
3016.5332843069609225
 20
80.7970266365330474
 30
0.0
 40
0.0514893437274239
 50
10.2211234638283308
 51
58.9467498911707821
  0
ARC
  5
5DE3
  8
0
 10
3016.6174412795130593
 20
80.7826532055026547
 30
0.0
 40
0.0922783462793208
 50
142.7224975452018896
 51
168.9348937001145998
  0
ARC
  5
5DE4
  8
0
 10
3015.665030860366187
 20
80.5543293189039957
 30
0.0
 40
0.9528088655981125
 50
2.2232085951386802
 51
15.3257739618199196
  0
ARC
  5
5DE5
  8
0
 10
3017.5846965882219592
 20
80.574488172318226
 30
0.0
 40
1.0816649343837661
 50
167.9466695645186007
 51
180.0499611202012034
  0
ARC
  5
5DE6
  8
0
 10
3015.5475139247000698
 20
80.5401800530695482
 30
0.0
 40
1.0708290832319181
 50
348.3691258096487218
 51
2.735793861391945
  0
ARC
  5
5DE7
  8
0
 10
3017.9391566528211115
 20
80.5361790478501547
 30
0.0
 40
1.436610609775538
 50
178.509581222939687
 51
188.8903632531784922
  0
ARC
  5
5DE8
  8
0
 10
3016.3823047033060902
 20
80.3522890473911957
 30
0.0
 40
0.2158735419199474
 50
333.8856312763682013
 51
352.5489509249088087
  0
ARC
  5
5DE9
  8
0
 10
3016.6725783574761408
 20
80.3275544586030037
 30
0.0
 40
0.1533588235171338
 50
185.010939537343603
 51
212.9394767399587067
  0
ARC
  5
5DEA
  8
0
 10
3016.5481101352161204
 20
80.2690721264164466
 30
0.0
 40
0.030414694356963
 50
291.7142599254115112
 51
337.1657644634772737
  0
ARC
  5
5DEB
  8
0
 10
3016.5537391950638266
 20
80.2523010965443149
 30
0.0
 40
0.0127883435770167
 50
219.5089633402216123
 51
296.0880987246056861
  0
LINE
  5
5DEC
  8
0
 10
3016.5525825381869254
 20
80.8426613957153961
 30
0.0
 11
3016.3491264616318404
 21
80.8425568606232474
 31
0.0
  0
LINE
  5
5DED
  8
0
 10
3016.5523328045419476
 20
80.2395903216999642
 30
0.0
 11
3016.3492786644501393
 21
80.2394859930214892
 31
0.0
  0
ARC
  5
5DEE
  8
0
 10
3018.3055854061540231
 20
80.5415151779637313
 30
0.0
 40
1.9794841995304699
 50
171.2524645744283021
 51
188.7764559980778927
  0
ENDSEC
  0
EOF
