  0
SECTION
  2
HEADER
  9
$ACADVER
  1
AC1009
  9
$INSBASE
 10
3453.9646793013562274
 20
193.6845249640462896
 30
0.0
  9
$EXTMIN
 10
3442.618969851896054
 20
174.8208247750484929
 30
0.0
  9
$EXTMAX
 10
3465.3103887508150365
 20
193.689492667602309
 30
0.0
  9
$LIMMIN
 10
0.0
 20
0.0
  9
$LIMMAX
 10
11.6929133858000007
 20
8.2677165353999982
  9
$ORTHOMODE
 70
     0
  9
$REGENMODE
 70
     1
  9
$FILLMODE
 70
     1
  9
$QTEXTMODE
 70
     0
  9
$MIRRTEXT
 70
     0
  9
$DRAGMODE
 70
     2
  9
$LTSCALE
 40
0.6431102362
  9
$OSMODE
 70
  3839
  9
$ATTMODE
 70
     1
  9
$TEXTSIZE
 40
0.2
  9
$TRACEWID
 40
0.05
  9
$TEXTSTYLE
  7
STANDARD
  9
$CLAYER
  8
0
  9
$CELTYPE
  6
BYLAYER
  9
$CECOLOR
 62
   256
  9
$DIMSCALE
 40
1.0
  9
$DIMASZ
 40
0.1875
  9
$DIMEXO
 40
0.0625
  9
$DIMDLI
 40
0.4443307087
  9
$DIMRND
 40
0.0
  9
$DIMDLE
 40
0.0
  9
$DIMEXE
 40
0.125
  9
$DIMTP
 40
0.01
  9
$DIMTM
 40
0.01
  9
$DIMTXT
 40
2.0
  9
$DIMCEN
 40
0.1052362205
  9
$DIMTSZ
 40
0.0
  9
$DIMTOL
 70
     1
  9
$DIMLIM
 70
     0
  9
$DIMTIH
 70
     1
  9
$DIMTOH
 70
     1
  9
$DIMSE1
 70
     0
  9
$DIMSE2
 70
     0
  9
$DIMTAD
 70
     0
  9
$DIMZIN
 70
     0
  9
$DIMBLK
  1

  9
$DIMASO
 70
     1
  9
$DIMSHO
 70
     1
  9
$DIMPOST
  1
\X
  9
$DIMAPOST
  1

  9
$DIMALT
 70
     1
  9
$DIMALTD
 70
     2
  9
$DIMALTF
 40
25.3999999999999986
  9
$DIMLFAC
 40
1.0
  9
$DIMTOFL
 70
     0
  9
$DIMTVP
 40
0.0
  9
$DIMTIX
 70
     0
  9
$DIMSOXD
 70
     0
  9
$DIMSAH
 70
     0
  9
$DIMBLK1
  1

  9
$DIMBLK2
  1

  9
$DIMSTYLE
  2
STANDARD
  9
$DIMCLRD
 70
     0
  9
$DIMCLRE
 70
     0
  9
$DIMCLRT
 70
     0
  9
$DIMTFAC
 40
1.0
  9
$DIMGAP
 40
0.09
  9
$LUNITS
 70
     2
  9
$LUPREC
 70
     4
  9
$SKETCHINC
 40
0.1
  9
$FILLETRAD
 40
0.0
  9
$AUNITS
 70
     0
  9
$AUPREC
 70
     0
  9
$MENU
  1
.
  9
$ELEVATION
 40
0.0
  9
$PELEVATION
 40
0.0
  9
$THICKNESS
 40
0.0
  9
$LIMCHECK
 70
     0
  9
$BLIPMODE
 70
     0
  9
$CHAMFERA
 40
0.0
  9
$CHAMFERB
 40
0.0
  9
$SKPOLY
 70
     0
  9
$TDCREATE
 40
2458060.468368056230247
  9
$TDUPDATE
 40
2459016.7365046301856637
  9
$TDINDWG
 40
0.6896366898
  9
$TDUSRTIMER
 40
0.6896366898
  9
$USRTIMER
 70
     1
  9
$ANGBASE
 50
0.0
  9
$ANGDIR
 70
     0
  9
$PDMODE
 70
     0
  9
$PDSIZE
 40
0.3125
  9
$PLINEWID
 40
0.0
  9
$COORDS
 70
     1
  9
$SPLFRAME
 70
     0
  9
$SPLINETYPE
 70
     6
  9
$SPLINESEGS
 70
     8
  9
$ATTDIA
 70
     1
  9
$ATTREQ
 70
     1
  9
$HANDLING
 70
     1
  9
$HANDSEED
  5
9359
  9
$SURFTAB1
 70
     6
  9
$SURFTAB2
 70
     6
  9
$SURFTYPE
 70
     6
  9
$SURFU
 70
     6
  9
$SURFV
 70
     6
  9
$UCSNAME
  2

  9
$UCSORG
 10
0.0
 20
0.0
 30
0.0
  9
$UCSXDIR
 10
1.0
 20
0.0
 30
0.0
  9
$UCSYDIR
 10
0.0
 20
1.0
 30
0.0
  9
$PUCSNAME
  2

  9
$PUCSORG
 10
0.0
 20
0.0
 30
0.0
  9
$PUCSXDIR
 10
1.0
 20
0.0
 30
0.0
  9
$PUCSYDIR
 10
0.0
 20
1.0
 30
0.0
  9
$USERI1
 70
     0
  9
$USERI2
 70
     0
  9
$USERI3
 70
     0
  9
$USERI4
 70
     0
  9
$USERI5
 70
     0
  9
$USERR1
 40
0.0
  9
$USERR2
 40
0.0
  9
$USERR3
 40
0.0
  9
$USERR4
 40
0.0
  9
$USERR5
 40
0.0
  9
$WORLDVIEW
 70
     1
  9
$SHADEDGE
 70
     3
  9
$SHADEDIF
 70
    70
  9
$TILEMODE
 70
     1
  9
$MAXACTVP
 70
    64
  9
$PLIMCHECK
 70
     0
  9
$PEXTMIN
 10
1.0000000000000000E+20
 20
1.0000000000000000E+20
 30
1.0000000000000000E+20
  9
$PEXTMAX
 10
-1.0000000000000000E+20
 20
-1.0000000000000000E+20
 30
-1.0000000000000000E+20
  9
$PLIMMIN
 10
0.0
 20
0.0
  9
$PLIMMAX
 10
12.0
 20
9.0
  9
$UNITMODE
 70
     0
  9
$VISRETAIN
 70
     1
  9
$PLINEGEN
 70
     0
  9
$PSLTSCALE
 70
     1
  0
ENDSEC
  0
SECTION
  2
TABLES
  0
TABLE
  2
VPORT
 70
     1
  0
VPORT
  2
*ACTIVE
 70
     0
 10
0.0
 20
0.0
 11
1.0
 21
1.0
 12
0.0
 22
2.0630350866547049
 13
0.0
 23
0.0
 14
1.0
 24
1.0
 15
0.0
 25
0.0
 16
0.0
 26
0.0
 36
101.6334087707912062
 17
3453.964599609375
 27
184.2551619832152028
 37
0.0
 40
33.6457564666118429
 41
2.3528591352859132
 42
50.0
 43
0.0
 44
0.0
 50
0.0
 51
0.0
 71
     0
 72
   100
 73
     1
 74
     1
 75
     0
 76
     0
 77
     0
 78
     0
  0
ENDTAB
  0
TABLE
  2
LTYPE
 70
     2
  0
LTYPE
  2
CONTINUOUS
 70
     0
  3
Solid line
 72
    65
 73
     0
 40
0.0
  0
LTYPE
  2
PHANTOM2
 70
     0
  3
___ _ _ ___ _ _ ___ _ _ ___ _ _
 72
    65
 73
     6
 40
1.25
 49
0.625
 49
-0.125
 49
0.125
 49
-0.125
 49
0.125
 49
-0.125
  0
ENDTAB
  0
TABLE
  2
LAYER
 70
     2
  0
LAYER
  2
0
 70
     0
 62
   255
  6
CONTINUOUS
  0
LAYER
  2
DEFPOINTS
 70
     0
 62
     7
  6
CONTINUOUS
  0
ENDTAB
  0
TABLE
  2
STYLE
 70
     1
  0
STYLE
  2
STANDARD
 70
     0
 40
0.0
 41
0.8
 50
0.0
 71
     0
 42
0.2
  3
txt
  4

  0
ENDTAB
  0
TABLE
  2
VIEW
 70
     0
  0
ENDTAB
  0
TABLE
  2
UCS
 70
     0
  0
ENDTAB
  0
TABLE
  2
APPID
 70
     9
  0
APPID
  2
ACAD
 70
     0
  0
APPID
  2
ACAD_MLEADERVER
 70
     0
  0
APPID
  2
ACAD_EXEMPT_FROM_CAD_STANDARDS
 70
     0
  0
APPID
  2
ACAD_NAV_VCDISPLAY
 70
     0
  0
APPID
  2
ACAECLAYERSTANDARD
 70
     0
  0
APPID
  2
ACCMTRANSPARENCY
 70
     0
  0
APPID
  2
ACAD_DSTYLE_DIMJAG
 70
     0
  0
APPID
  2
ACAD_DSTYLE_DIMTALN
 70
     0
  0
APPID
  2
ACDBATTR
 70
     0
  0
ENDTAB
  0
TABLE
  2
DIMSTYLE
 70
     1
  0
DIMSTYLE
  2
STANDARD
 70
     0
  3

  4

  5

  6

  7

 40
1.0
 41
0.1875
 42
0.0625
 43
0.38
 44
0.125
 45
0.0
 46
0.0
 47
0.01
 48
0.01
140
0.15625
141
0.09
142
0.0
143
25.3999999999999986
144
1.0
145
0.0
146
1.0
147
0.09
 71
     1
 72
     0
 73
     1
 74
     1
 75
     0
 76
     0
 77
     0
 78
     4
170
     0
171
     2
172
     0
173
     0
174
     0
175
     0
176
     0
177
     0
178
     0
  0
ENDTAB
  0
ENDSEC
  0
SECTION
  2
BLOCKS
  0
BLOCK
  8
0
  2
$MODEL_SPACE
 70
     0
 10
0.0
 20
0.0
 30
0.0
  3
$MODEL_SPACE
  1

  0
ENDBLK
  5
21
  8
0
  0
BLOCK
 67
     1
  8
0
  2
$PAPER_SPACE
 70
     0
 10
0.0
 20
0.0
 30
0.0
  3
$PAPER_SPACE
  1

  0
ENDBLK
  5
1D
 67
     1
  8
0
  0
BLOCK
  8
0
  2
_FILLED
 70
     0
 10
0.0
 20
0.0
 30
0.0
  3
_FILLED
  1

  0
SOLID
  5
6F59
  8
0
  6
BYBLOCK
 62
     0
 10
0.0
 20
0.0
 30
0.0
 11
-1.0
 21
0.1666666667
 31
0.0
 12
-1.0
 22
-0.1666666667
 32
0.0
 13
-1.0
 23
-0.1666666667
 33
0.0
  0
ENDBLK
  5
6F5A
  8
0
  6
BYBLOCK
 62
     0
  0
ENDSEC
  0
SECTION
  2
ENTITIES
  0
ATTDEF
  5
3930
  8
DEFPOINTS
 10
3453.9567967709867844
 20
193.6884926676021905
 30
0.0
 40
0.001
  1
K-2363X-8
  3

  2
MODELNUMBER
 70
     0
1001
ACDBATTR
1070
     0
1070
     1
  0
ATTDEF
  5
3931
  8
DEFPOINTS
 10
3453.9567967709867844
 20
193.6868260009354969
 30
0.0
 40
0.001
  1
CIMARRON
  3

  2
TRADENAME
 70
     0
1001
ACDBATTR
1070
     0
1070
     1
  0
ATTDEF
  5
3932
  8
DEFPOINTS
 10
3453.9567967709867844
 20
193.6851593342688886
 30
0.0
 40
0.001
  1
BATHROOM SINK
  3

  2
PRODUCT
 70
     0
1001
ACDBATTR
1070
     0
1070
     1
  0
ARC
  5
9059
  8
0
 10
3453.9621043914589791
 20
192.3611311010346867
 30
0.0
 40
17.5403063259862293
 50
252.9961221100274997
 51
270.0084109973540762
  0
ARC
  5
905A
  8
0
 10
3454.2155429542967795
 20
193.1908593181427989
 30
0.0
 40
18.4078776158172914
 50
235.4742173499878106
 51
252.9970038048722927
  0
ARC
  5
905B
  8
0
 10
3445.2623872578610644
 20
180.1764868594538882
 30
0.0
 40
2.611267618159737
 50
182.4589972838980998
 51
235.4742173499878106
  0
ARC
  5
905C
  8
0
 10
3308.926935281157057
 20
183.5502461255404114
 30
0.0
 40
133.7720125067629908
 50
358.5068333716832853
 51
1.1079765184474359
  0
LINE
  5
905D
  8
0
 10
3442.6739364122540792
 20
186.1369464460221934
 30
0.0
 11
3442.618969851896054
 21
193.1810220106648899
 31
0.0
  0
ARC
  5
905E
  8
0
 10
3443.1620252410330068
 20
193.1415161059400987
 30
0.0
 40
0.5444904702376637
 50
94.2279838234557445
 51
175.8392066730750969
  0
LINE
  5
905F
  8
0
 10
3443.1218825250680311
 20
193.6845247932872951
 30
0.0
 11
3464.8074760776430594
 21
193.6845251348053978
 31
0.0
  0
ARC
  5
9060
  8
0
 10
3453.9968069917781577
 20
192.6730778842531038
 30
0.0
 40
16.7213423340449694
 50
235.6633473245427979
 51
269.8899142088936856
  0
ARC
  5
9061
  8
0
 10
3445.2892589568477888
 20
180.1907018543587071
 30
0.0
 40
1.5100538050864829
 50
176.8876194818772092
 51
241.3417214683013015
  0
ARC
  5
9062
  8
0
 10
3260.619392280142165
 20
182.0680890381985932
 30
0.0
 40
183.1708395214947984
 50
359.4383906375152264
 51
0.9079962812796352
  0
ARC
  5
9063
  8
0
 10
3445.336897056853104
 20
184.9699707509884945
 30
0.0
 40
1.5696661105639289
 50
126.8138744070301982
 51
179.9707550690114033
  0
ARC
  5
9064
  8
0
 10
3450.7725330816620044
 20
177.9742641067988984
 30
0.0
 40
10.4286846385926104
 50
104.1672704817483037
 51
127.6915620776915006
  0
ARC
  5
9065
  8
0
 10
3450.8777230590449108
 20
177.3744813320849119
 30
0.0
 40
11.0360617992544494
 50
89.3759629950771739
 51
103.9346391047920974
  0
ARC
  5
9066
  8
0
 10
3453.8483014938287852
 20
25.8386192075087706
 30
0.0
 40
162.5962554754862026
 50
89.9589907052388043
 51
91.0044708458172238
  0
CIRCLE
  5
9069
  8
0
 10
3453.96467903071607
 20
185.6645250594222034
 30
0.0
 40
0.8160586879999996
  0
CIRCLE
  5
906A
  8
0
 10
3453.96467903071607
 20
185.6645250594222034
 30
0.0
 40
1.4943381784091789
  0
ARC
  5
906B
  8
0
 10
3453.9772946405760194
 20
190.0608918362771078
 30
0.0
 40
1.8463622503703661
 50
269.6085117499642934
 51
283.0898042663926049
  0
ARC
  5
906C
  8
0
 10
3454.3923638429519087
 20
188.2742820705267093
 30
0.0
 40
0.0121760576136813
 50
284.7069547679571997
 51
52.742423932174411
  0
ARC
  5
906D
  8
0
 10
3454.1124370272041233
 20
187.4249683097586114
 30
0.0
 40
0.9057757775597917
 50
71.5072491385650864
 51
85.0532259635637757
  0
ARC
  5
906E
  8
0
 10
3453.9672534593441924
 20
192.3611310998122121
 30
0.0
 40
17.5403063246533115
 50
269.9915914587563179
 51
287.0038796949498874
  0
ARC
  5
906F
  8
0
 10
3453.7138148700760212
 20
193.1908593102413079
 30
0.0
 40
18.4078776158172914
 50
287.0029979997958094
 51
304.5257844546723049
  0
ARC
  5
9070
  8
0
 10
3462.6669709764291838
 20
180.1764871335520866
 30
0.0
 40
2.611267618159737
 50
304.5257844546733281
 51
357.5410045207607936
  0
ARC
  5
9071
  8
0
 10
3599.0024228468691945
 20
183.5502506938285876
 30
0.0
 40
133.7720125067629908
 50
178.8920252862126858
 51
181.4931684329752102
  0
LINE
  5
9072
  8
0
 10
3465.2554216342991822
 20
186.1369468016494011
 30
0.0
 11
3465.3103887508150365
 21
193.181022368023406
 31
0.0
  0
ARC
  5
9073
  8
0
 10
3464.7673317593339561
 20
193.1415148457496969
 30
0.0
 40
0.5444921857225568
 50
4.1609508558992729
 51
85.7718604501133228
  0
ARC
  5
9074
  8
0
 10
3453.9325508466581596
 20
192.67307788789131
 30
0.0
 40
16.7213423391516791
 50
270.110088409883474
 51
304.3366544774668228
  0
ARC
  5
9075
  8
0
 10
3462.640099276994988
 20
180.190702127610507
 30
0.0
 40
1.5100538050864829
 50
298.6582803363776861
 51
3.1123823227823388
  0
ARC
  5
9076
  8
0
 10
3647.3099658945679948
 20
182.0680951280407953
 30
0.0
 40
183.1708395214947984
 50
179.0920055233798962
 51
180.5616111671430986
  0
ARC
  5
9077
  8
0
 10
3462.5924610264560215
 20
184.9699710227397986
 30
0.0
 40
1.569666110563928
 50
0.0292467356483326
 51
53.1861273976256683
  0
ARC
  5
9078
  8
0
 10
3457.1568252219922215
 20
177.9742642073427135
 30
0.0
 40
10.4286846385926104
 50
52.3084397269495582
 51
75.8327313228965778
  0
ARC
  5
9079
  8
0
 10
3457.0516352634999748
 20
177.3744814293154093
 30
0.0
 40
11.0360617992544494
 50
76.065362699871514
 51
90.6240388095802842
  0
ARC
  5
907A
  8
0
 10
3454.0810616717749326
 20
25.8386246158218285
 30
0.0
 40
162.5962500704403908
 50
88.9955309501765299
 51
90.041010904002988
  0
CIRCLE
  5
907D
  8
0
 10
3453.96467903071607
 20
185.6645250594222034
 30
0.0
 40
0.8160586879999993
  0
CIRCLE
  5
907E
  8
0
 10
3453.96467903071607
 20
185.6645250594222034
 30
0.0
 40
1.4943381784091789
  0
ARC
  5
907F
  8
0
 10
3453.9520632823828237
 20
190.0608918358796871
 30
0.0
 40
1.8463622503703649
 50
256.9101975382802152
 51
270.3914900547064235
  0
ARC
  5
9080
  8
0
 10
3453.5369941362801001
 20
188.274282057055899
 30
0.0
 40
0.0121760576136813
 50
127.2575778724830968
 51
255.2930470367047064
  0
ARC
  5
9081
  8
0
 10
3453.8169209787788532
 20
187.4249683051046134
 30
0.0
 40
0.9057757775597916
 50
94.9467758410906839
 51
108.4927526661015946
  0
ARC
  5
9082
  8
0
 10
3453.964679029430954
 20
185.7461160643786968
 30
0.0
 40
2.591117050701452
 50
84.9992773075704235
 51
95.0007244971009754
  0
POINT
  5
9084
  8
DEFPOINTS
 10
3453.9646789455159706
 20
191.0745250594222
 30
0.0
  0
CIRCLE
  5
9114
  8
0
 10
3449.9646785896761685
 20
190.9345250594222136
 30
0.0
 40
0.6899999999999999
  0
CIRCLE
  5
9116
  8
0
 10
3457.9646793013548631
 20
190.9345250594222136
 30
0.0
 40
0.6899999999999999
  0
CIRCLE
  5
9206
  8
0
 10
3453.9646789455159706
 20
191.0745250594222
 30
0.0
 40
0.6899999999999999
  0
ENDSEC
  0
EOF
