  0
SECTION
  2
HEADER
  9
$ACADVER
  1
AC1009
  9
$INSBASE
 10
3462.1029244563728753
 20
193.2225723932814958
 30
0.0
  9
$EXTMIN
 10
3443.238968492892127
 20
189.3860616156314052
 30
0.0
  9
$EXTMAX
 10
3462.1138750077570876
 20
197.0590827798924067
 30
0.0
  9
$LIMMIN
 10
0.0
 20
0.0
  9
$LIMMAX
 10
11.6929133858000007
 20
8.2677165353999982
  9
$ORTHOMODE
 70
     0
  9
$REGENMODE
 70
     1
  9
$FILLMODE
 70
     1
  9
$QTEXTMODE
 70
     0
  9
$MIRRTEXT
 70
     0
  9
$DRAGMODE
 70
     2
  9
$LTSCALE
 40
0.6431102362
  9
$OSMODE
 70
  3839
  9
$ATTMODE
 70
     1
  9
$TEXTSIZE
 40
0.2
  9
$TRACEWID
 40
0.05
  9
$TEXTSTYLE
  7
STANDARD
  9
$CLAYER
  8
0
  9
$CELTYPE
  6
BYLAYER
  9
$CECOLOR
 62
   256
  9
$DIMSCALE
 40
1.0
  9
$DIMASZ
 40
0.1875
  9
$DIMEXO
 40
0.0625
  9
$DIMDLI
 40
0.4443307087
  9
$DIMRND
 40
0.0
  9
$DIMDLE
 40
0.0
  9
$DIMEXE
 40
0.125
  9
$DIMTP
 40
0.01
  9
$DIMTM
 40
0.01
  9
$DIMTXT
 40
2.0
  9
$DIMCEN
 40
0.1052362205
  9
$DIMTSZ
 40
0.0
  9
$DIMTOL
 70
     1
  9
$DIMLIM
 70
     0
  9
$DIMTIH
 70
     1
  9
$DIMTOH
 70
     1
  9
$DIMSE1
 70
     0
  9
$DIMSE2
 70
     0
  9
$DIMTAD
 70
     0
  9
$DIMZIN
 70
     0
  9
$DIMBLK
  1

  9
$DIMASO
 70
     1
  9
$DIMSHO
 70
     1
  9
$DIMPOST
  1
\X
  9
$DIMAPOST
  1

  9
$DIMALT
 70
     1
  9
$DIMALTD
 70
     2
  9
$DIMALTF
 40
25.3999999999999986
  9
$DIMLFAC
 40
1.0
  9
$DIMTOFL
 70
     0
  9
$DIMTVP
 40
0.0
  9
$DIMTIX
 70
     0
  9
$DIMSOXD
 70
     0
  9
$DIMSAH
 70
     0
  9
$DIMBLK1
  1

  9
$DIMBLK2
  1

  9
$DIMSTYLE
  2
STANDARD
  9
$DIMCLRD
 70
     0
  9
$DIMCLRE
 70
     0
  9
$DIMCLRT
 70
     0
  9
$DIMTFAC
 40
1.0
  9
$DIMGAP
 40
0.09
  9
$LUNITS
 70
     2
  9
$LUPREC
 70
     4
  9
$SKETCHINC
 40
0.1
  9
$FILLETRAD
 40
0.0
  9
$AUNITS
 70
     0
  9
$AUPREC
 70
     0
  9
$MENU
  1
.
  9
$ELEVATION
 40
0.0
  9
$PELEVATION
 40
0.0
  9
$THICKNESS
 40
0.0
  9
$LIMCHECK
 70
     0
  9
$BLIPMODE
 70
     0
  9
$CHAMFERA
 40
0.0
  9
$CHAMFERB
 40
0.0
  9
$SKPOLY
 70
     0
  9
$TDCREATE
 40
2458060.468368056230247
  9
$TDUPDATE
 40
2459016.7367129628546536
  9
$TDINDWG
 40
0.6773450231
  9
$TDUSRTIMER
 40
0.6773450231
  9
$USRTIMER
 70
     1
  9
$ANGBASE
 50
0.0
  9
$ANGDIR
 70
     0
  9
$PDMODE
 70
     0
  9
$PDSIZE
 40
0.3125
  9
$PLINEWID
 40
0.0
  9
$COORDS
 70
     1
  9
$SPLFRAME
 70
     0
  9
$SPLINETYPE
 70
     6
  9
$SPLINESEGS
 70
     8
  9
$ATTDIA
 70
     1
  9
$ATTREQ
 70
     1
  9
$HANDLING
 70
     1
  9
$HANDSEED
  5
9301
  9
$SURFTAB1
 70
     6
  9
$SURFTAB2
 70
     6
  9
$SURFTYPE
 70
     6
  9
$SURFU
 70
     6
  9
$SURFV
 70
     6
  9
$UCSNAME
  2

  9
$UCSORG
 10
0.0
 20
0.0
 30
0.0
  9
$UCSXDIR
 10
1.0
 20
0.0
 30
0.0
  9
$UCSYDIR
 10
0.0
 20
1.0
 30
0.0
  9
$PUCSNAME
  2

  9
$PUCSORG
 10
0.0
 20
0.0
 30
0.0
  9
$PUCSXDIR
 10
1.0
 20
0.0
 30
0.0
  9
$PUCSYDIR
 10
0.0
 20
1.0
 30
0.0
  9
$USERI1
 70
     0
  9
$USERI2
 70
     0
  9
$USERI3
 70
     0
  9
$USERI4
 70
     0
  9
$USERI5
 70
     0
  9
$USERR1
 40
0.0
  9
$USERR2
 40
0.0
  9
$USERR3
 40
0.0
  9
$USERR4
 40
0.0
  9
$USERR5
 40
0.0
  9
$WORLDVIEW
 70
     1
  9
$SHADEDGE
 70
     3
  9
$SHADEDIF
 70
    70
  9
$TILEMODE
 70
     1
  9
$MAXACTVP
 70
    64
  9
$PLIMCHECK
 70
     0
  9
$PEXTMIN
 10
1.0000000000000000E+20
 20
1.0000000000000000E+20
 30
1.0000000000000000E+20
  9
$PEXTMAX
 10
-1.0000000000000000E+20
 20
-1.0000000000000000E+20
 30
-1.0000000000000000E+20
  9
$PLIMMIN
 10
0.0
 20
0.0
  9
$PLIMMAX
 10
12.0
 20
9.0
  9
$UNITMODE
 70
     0
  9
$VISRETAIN
 70
     1
  9
$PLINEGEN
 70
     0
  9
$PSLTSCALE
 70
     1
  0
ENDSEC
  0
SECTION
  2
TABLES
  0
TABLE
  2
VPORT
 70
     1
  0
VPORT
  2
*ACTIVE
 70
     0
 10
0.0
 20
0.0
 11
1.0
 21
1.0
 12
0.0
 22
1.8939841039809791
 13
0.0
 23
0.0
 14
1.0
 24
1.0
 15
0.0
 25
0.0
 16
0.0
 26
0.0
 36
70.1682729594301264
 17
3452.6764443399738411
 27
193.2225723266600994
 37
0.0
 40
23.2253420353428695
 41
2.3528591352859132
 42
50.0
 43
0.0
 44
0.0
 50
0.0
 51
0.0
 71
     0
 72
   100
 73
     1
 74
     1
 75
     0
 76
     0
 77
     0
 78
     0
  0
ENDTAB
  0
TABLE
  2
LTYPE
 70
     2
  0
LTYPE
  2
CONTINUOUS
 70
     0
  3
Solid line
 72
    65
 73
     0
 40
0.0
  0
LTYPE
  2
PHANTOM2
 70
     0
  3
___ _ _ ___ _ _ ___ _ _ ___ _ _
 72
    65
 73
     6
 40
1.25
 49
0.625
 49
-0.125
 49
0.125
 49
-0.125
 49
0.125
 49
-0.125
  0
ENDTAB
  0
TABLE
  2
LAYER
 70
     2
  0
LAYER
  2
0
 70
     0
 62
   255
  6
CONTINUOUS
  0
LAYER
  2
DEFPOINTS
 70
     0
 62
     7
  6
CONTINUOUS
  0
ENDTAB
  0
TABLE
  2
STYLE
 70
     1
  0
STYLE
  2
STANDARD
 70
     0
 40
0.0
 41
0.8
 50
0.0
 71
     0
 42
0.2
  3
txt
  4

  0
ENDTAB
  0
TABLE
  2
VIEW
 70
     0
  0
ENDTAB
  0
TABLE
  2
UCS
 70
     0
  0
ENDTAB
  0
TABLE
  2
APPID
 70
     9
  0
APPID
  2
ACAD
 70
     0
  0
APPID
  2
ACAD_MLEADERVER
 70
     0
  0
APPID
  2
ACAD_EXEMPT_FROM_CAD_STANDARDS
 70
     0
  0
APPID
  2
ACAD_NAV_VCDISPLAY
 70
     0
  0
APPID
  2
ACAECLAYERSTANDARD
 70
     0
  0
APPID
  2
ACCMTRANSPARENCY
 70
     0
  0
APPID
  2
ACAD_DSTYLE_DIMJAG
 70
     0
  0
APPID
  2
ACAD_DSTYLE_DIMTALN
 70
     0
  0
APPID
  2
ACDBATTR
 70
     0
  0
ENDTAB
  0
TABLE
  2
DIMSTYLE
 70
     1
  0
DIMSTYLE
  2
STANDARD
 70
     0
  3

  4

  5

  6

  7

 40
1.0
 41
0.1875
 42
0.0625
 43
0.38
 44
0.125
 45
0.0
 46
0.0
 47
0.01
 48
0.01
140
0.15625
141
0.09
142
0.0
143
25.3999999999999986
144
1.0
145
0.0
146
1.0
147
0.09
 71
     1
 72
     0
 73
     1
 74
     1
 75
     0
 76
     0
 77
     0
 78
     4
170
     0
171
     2
172
     0
173
     0
174
     0
175
     0
176
     0
177
     0
178
     0
  0
ENDTAB
  0
ENDSEC
  0
SECTION
  2
BLOCKS
  0
BLOCK
  8
0
  2
$MODEL_SPACE
 70
     0
 10
0.0
 20
0.0
 30
0.0
  3
$MODEL_SPACE
  1

  0
ENDBLK
  5
21
  8
0
  0
BLOCK
 67
     1
  8
0
  2
$PAPER_SPACE
 70
     0
 10
0.0
 20
0.0
 30
0.0
  3
$PAPER_SPACE
  1

  0
ENDBLK
  5
1D
 67
     1
  8
0
  0
BLOCK
  8
0
  2
_FILLED
 70
     0
 10
0.0
 20
0.0
 30
0.0
  3
_FILLED
  1

  0
SOLID
  5
6F59
  8
0
  6
BYBLOCK
 62
     0
 10
0.0
 20
0.0
 30
0.0
 11
-1.0
 21
0.1666666667
 31
0.0
 12
-1.0
 22
-0.1666666667
 32
0.0
 13
-1.0
 23
-0.1666666667
 33
0.0
  0
ENDBLK
  5
6F5A
  8
0
  6
BYBLOCK
 62
     0
  0
ENDSEC
  0
SECTION
  2
ENTITIES
  0
ATTDEF
  5
3930
  8
DEFPOINTS
 10
3462.1032083410877931
 20
193.2262012048491897
 30
0.0
 40
0.001
  1
K-2363X-8
  3

  2
MODELNUMBER
 70
     0
1001
ACDBATTR
1070
     0
1070
     1
  0
ATTDEF
  5
3931
  8
DEFPOINTS
 10
3462.1032083410877931
 20
193.2245345381824961
 30
0.0
 40
0.001
  1
CIMARRON
  3

  2
TRADENAME
 70
     0
1001
ACDBATTR
1070
     0
1070
     1
  0
ATTDEF
  5
3932
  8
DEFPOINTS
 10
3462.1032083410877931
 20
193.2228678715158026
 30
0.0
 40
0.001
  1
BATHROOM SINK
  3

  2
PRODUCT
 70
     0
1001
ACDBATTR
1070
     0
1070
     1
  0
LINE
  5
90C9
  8
0
 10
3455.2982073477328413
 20
189.3860616156314052
 30
0.0
 11
3452.8672901412328429
 21
189.3860616156314052
 31
0.0
  0
LINE
  5
90CA
  8
0
 10
3457.4697526298978119
 20
189.6760616156313972
 30
0.0
 11
3449.9497130822328472
 21
189.6760616156313972
 31
0.0
  0
ARC
  5
90CB
  8
0
 10
3452.867290141257854
 20
189.5110616156972014
 30
0.0
 40
0.1250000000658487
 50
185.0000000259983892
 51
269.9999999882491011
  0
LINE
  5
90CC
  8
0
 10
3452.7427658039359812
 20
189.5001671477915863
 30
0.0
 11
3452.7273770319429786
 21
189.6760616156236097
 31
0.0
  0
ARC
  5
90CD
  8
0
 10
3449.949715723520967
 20
189.8560638830404912
 30
0.0
 40
0.1800022674284612
 50
186.3703401580831098
 51
269.9991592627644081
  0
ARC
  5
90CE
  8
0
 10
3446.6322396950831717
 20
189.3355542540338092
 30
0.0
 40
3.1782471325358892
 50
9.0611533257323025
 51
42.9021322514725867
  0
ARC
  5
90CF
  8
0
 10
3421.4509957421951185
 20
152.6511539845018888
 30
0.0
 40
47.9107652334595713
 50
58.6449232571268695
 51
62.7237942697505702
  0
ARC
  5
90D0
  8
0
 10
3443.4916610292461883
 20
195.3937901729252076
 30
0.0
 40
0.180031522072289
 50
182.9046365232372011
 51
242.1523621854294106
  0
LINE
  5
90D1
  8
0
 10
3443.3118608009071977
 20
195.3846672989859883
 30
0.0
 11
3443.2392244563720851
 21
196.8189768598965088
 31
0.0
  0
ARC
  5
90D2
  8
0
 10
3443.4389639802088823
 20
196.8290920743984032
 30
0.0
 40
0.1999954873173139
 50
88.3763392746214151
 51
182.8990977901802921
  0
ARC
  5
90D3
  8
0
 10
3445.9192863701969145
 20
321.8399856571139139
 30
0.0
 40
124.8355087628908962
 50
268.8641323875056059
 51
271.1286150334616991
  0
ARC
  5
90D4
  8
0
 10
3448.1023499344810261
 20
3328.4099312512571487
 30
0.0
 40
3131.3812483783858625
 50
270.0050462690069821
 51
270.2524678815843799
  0
ARC
  5
90D5
  8
0
 10
3461.8990367121168674
 20
196.8551768133197015
 30
0.0
 40
0.2039105938916807
 50
0.8577514099538777
 51
89.6140032894425644
  0
LINE
  5
90D6
  8
0
 10
3462.1029244563728753
 20
196.8582293604314088
 30
0.0
 11
3462.1029244563728753
 21
191.4560616130314088
 31
0.0
  0
ARC
  5
90D7
  8
0
 10
3461.9237057676941731
 20
191.4559134239979983
 30
0.0
 40
0.1792187499438099
 50
270.2368697436004936
 51
0.0473756632913363
  0
LINE
  5
90D8
  8
0
 10
3461.9244466840191308
 20
191.2766962055885074
 30
0.0
 11
3458.4273210327328343
 21
191.2760615766314061
 31
0.0
  0
ARC
  5
90D9
  8
0
 10
3458.4414317100381595
 20
190.6411218743380118
 30
0.0
 40
0.6350964783105528
 50
91.2731117483191241
 51
167.6090298367147966
  0
LINE
  5
90DA
  8
0
 10
3457.8211291001380232
 20
190.7774017661554922
 30
0.0
 11
3457.6467018394328079
 21
189.8230568362313875
 31
0.0
  0
ARC
  5
90DB
  8
0
 10
3457.4697535959189736
 20
189.8560616031984978
 30
0.0
 40
0.1799999875696906
 50
269.9996925057662907
 51
349.4344781346358104
  0
ARC
  5
90DC
  8
0
 10
3445.6353686143388586
 20
294.7787308640631068
 30
0.0
 40
99.5690493692644338
 50
268.71793057123989
 51
271.2027680959620852
  0
ARC
  5
90DD
  8
0
 10
3461.6111680078729478
 20
194.7468600374145922
 30
0.0
 40
0.513102476744851
 50
16.5848425860082394
 51
90.6584097569365639
  0
ARC
  5
90DE
  8
0
 10
3438.2975943988599283
 20
180.8286524988396025
 30
0.0
 40
15.0848900474765593
 50
45.0207350578741412
 51
57.5981464521208366
  0
LINE
  5
90DF
  8
0
 10
3447.7253948147840674
 20
195.2316194907014051
 30
0.0
 11
3461.6052718625610396
 21
195.2599286362512032
 31
0.0
  0
ARC
  5
90E0
  8
0
 10
3455.2982073477069207
 20
189.5110616156972014
 30
0.0
 40
0.1250000000658438
 50
270.0000000117248078
 51
355.0000017125872773
  0
ARC
  5
90E1
  8
0
 10
3455.623342827012948
 20
189.4915732087754066
 30
0.0
 40
0.2007951344229238
 50
113.2502874741899035
 51
177.5470167349805877
  0
ENDSEC
  0
EOF
