  0
SECTION
  2
HEADER
  9
$ACADVER
  1
AC1009
  9
$INSBASE
 10
2186.7927288365222012
 20
250.5268642692892058
 30
0.0
  9
$EXTMIN
 10
2170.9808352994969027
 20
250.5192409161097089
 30
-0.0000000000112498
  9
$EXTMAX
 10
2202.5743797196059859
 20
271.5933925461001763
 30
0.0000000000002956
  9
$LIMMIN
 10
0.0
 20
0.0
  9
$LIMMAX
 10
11.6929133858000007
 20
8.2677165353999982
  9
$ORTHOMODE
 70
     0
  9
$REGENMODE
 70
     1
  9
$FILLMODE
 70
     1
  9
$QTEXTMODE
 70
     0
  9
$MIRRTEXT
 70
     0
  9
$DRAGMODE
 70
     2
  9
$LTSCALE
 40
0.6431102362
  9
$OSMODE
 70
  4095
  9
$ATTMODE
 70
     1
  9
$TEXTSIZE
 40
0.2
  9
$TRACEWID
 40
0.05
  9
$TEXTSTYLE
  7
STANDARD
  9
$CLAYER
  8
0
  9
$CELTYPE
  6
BYLAYER
  9
$CECOLOR
 62
   256
  9
$DIMSCALE
 40
1.0
  9
$DIMASZ
 40
0.1875
  9
$DIMEXO
 40
0.0625
  9
$DIMDLI
 40
0.4443307087
  9
$DIMRND
 40
0.0
  9
$DIMDLE
 40
0.0
  9
$DIMEXE
 40
0.125
  9
$DIMTP
 40
0.01
  9
$DIMTM
 40
0.01
  9
$DIMTXT
 40
2.0
  9
$DIMCEN
 40
0.1052362205
  9
$DIMTSZ
 40
0.0
  9
$DIMTOL
 70
     1
  9
$DIMLIM
 70
     0
  9
$DIMTIH
 70
     1
  9
$DIMTOH
 70
     1
  9
$DIMSE1
 70
     0
  9
$DIMSE2
 70
     0
  9
$DIMTAD
 70
     0
  9
$DIMZIN
 70
     0
  9
$DIMBLK
  1

  9
$DIMASO
 70
     1
  9
$DIMSHO
 70
     1
  9
$DIMPOST
  1
\X
  9
$DIMAPOST
  1

  9
$DIMALT
 70
     1
  9
$DIMALTD
 70
     2
  9
$DIMALTF
 40
25.3999999999999986
  9
$DIMLFAC
 40
1.0
  9
$DIMTOFL
 70
     0
  9
$DIMTVP
 40
0.0
  9
$DIMTIX
 70
     0
  9
$DIMSOXD
 70
     0
  9
$DIMSAH
 70
     0
  9
$DIMBLK1
  1

  9
$DIMBLK2
  1

  9
$DIMSTYLE
  2
STANDARD
  9
$DIMCLRD
 70
     0
  9
$DIMCLRE
 70
     0
  9
$DIMCLRT
 70
     0
  9
$DIMTFAC
 40
1.0
  9
$DIMGAP
 40
0.09
  9
$LUNITS
 70
     2
  9
$LUPREC
 70
     4
  9
$SKETCHINC
 40
0.1
  9
$FILLETRAD
 40
0.0
  9
$AUNITS
 70
     0
  9
$AUPREC
 70
     0
  9
$MENU
  1
.
  9
$ELEVATION
 40
0.0
  9
$PELEVATION
 40
0.0
  9
$THICKNESS
 40
0.0
  9
$LIMCHECK
 70
     0
  9
$BLIPMODE
 70
     0
  9
$CHAMFERA
 40
0.0
  9
$CHAMFERB
 40
0.0
  9
$SKPOLY
 70
     0
  9
$TDCREATE
 40
2458060.468368056230247
  9
$TDUPDATE
 40
2460004.4385532410815358
  9
$TDINDWG
 40
0.2675996528
  9
$TDUSRTIMER
 40
0.2675996528
  9
$USRTIMER
 70
     1
  9
$ANGBASE
 50
0.0
  9
$ANGDIR
 70
     0
  9
$PDMODE
 70
     0
  9
$PDSIZE
 40
0.3125
  9
$PLINEWID
 40
0.0
  9
$COORDS
 70
     1
  9
$SPLFRAME
 70
     0
  9
$SPLINETYPE
 70
     6
  9
$SPLINESEGS
 70
     8
  9
$ATTDIA
 70
     1
  9
$ATTREQ
 70
     1
  9
$HANDLING
 70
     1
  9
$HANDSEED
  5
57B6
  9
$SURFTAB1
 70
     6
  9
$SURFTAB2
 70
     6
  9
$SURFTYPE
 70
     6
  9
$SURFU
 70
     6
  9
$SURFV
 70
     6
  9
$UCSNAME
  2

  9
$UCSORG
 10
0.0
 20
0.0
 30
0.0
  9
$UCSXDIR
 10
1.0
 20
0.0
 30
0.0
  9
$UCSYDIR
 10
0.0
 20
1.0
 30
0.0
  9
$PUCSNAME
  2

  9
$PUCSORG
 10
0.0
 20
0.0
 30
0.0
  9
$PUCSXDIR
 10
1.0
 20
0.0
 30
0.0
  9
$PUCSYDIR
 10
0.0
 20
1.0
 30
0.0
  9
$USERI1
 70
     0
  9
$USERI2
 70
     0
  9
$USERI3
 70
     0
  9
$USERI4
 70
     0
  9
$USERI5
 70
     0
  9
$USERR1
 40
0.0
  9
$USERR2
 40
0.0
  9
$USERR3
 40
0.0
  9
$USERR4
 40
0.0
  9
$USERR5
 40
0.0
  9
$WORLDVIEW
 70
     1
  9
$SHADEDGE
 70
     3
  9
$SHADEDIF
 70
    70
  9
$TILEMODE
 70
     1
  9
$MAXACTVP
 70
    64
  9
$PLIMCHECK
 70
     0
  9
$PEXTMIN
 10
1.0000000000000000E+20
 20
1.0000000000000000E+20
 30
1.0000000000000000E+20
  9
$PEXTMAX
 10
-1.0000000000000000E+20
 20
-1.0000000000000000E+20
 30
-1.0000000000000000E+20
  9
$PLIMMIN
 10
0.0
 20
0.0
  9
$PLIMMAX
 10
12.0
 20
9.0
  9
$UNITMODE
 70
     0
  9
$VISRETAIN
 70
     1
  9
$PLINEGEN
 70
     0
  9
$PSLTSCALE
 70
     1
  0
ENDSEC
  0
SECTION
  2
TABLES
  0
TABLE
  2
VPORT
 70
     1
  0
VPORT
  2
*ACTIVE
 70
     0
 10
0.0
 20
0.0
 11
1.0
 21
1.0
 12
332.8724561423637169
 22
88.9448445850037501
 13
0.0
 23
0.0
 14
1.0
 24
1.0
 15
0.0
 25
0.0
 16
0.0
 26
0.0
 36
198.6867210225404961
 17
1853.9051513671870453
 27
172.1114721461011925
 37
0.0
 40
21.2411858569124092
 41
2.5251322751322749
 42
50.0
 43
0.0
 44
0.0
 50
0.0
 51
0.0
 71
     0
 72
   100
 73
     1
 74
     1
 75
     0
 76
     0
 77
     0
 78
     0
  0
ENDTAB
  0
TABLE
  2
LTYPE
 70
     2
  0
LTYPE
  2
CONTINUOUS
 70
     0
  3
Solid line
 72
    65
 73
     0
 40
0.0
  0
LTYPE
  2
PHANTOM2
 70
     0
  3
___ _ _ ___ _ _ ___ _ _ ___ _ _
 72
    65
 73
     6
 40
1.25
 49
0.625
 49
-0.125
 49
0.125
 49
-0.125
 49
0.125
 49
-0.125
  0
ENDTAB
  0
TABLE
  2
LAYER
 70
     2
  0
LAYER
  2
0
 70
     0
 62
   255
  6
CONTINUOUS
  0
LAYER
  2
DEFPOINTS
 70
     0
 62
     7
  6
CONTINUOUS
  0
ENDTAB
  0
TABLE
  2
STYLE
 70
     1
  0
STYLE
  2
STANDARD
 70
     0
 40
0.0
 41
0.8
 50
0.0
 71
     0
 42
0.2
  3
txt
  4

  0
ENDTAB
  0
TABLE
  2
VIEW
 70
     0
  0
ENDTAB
  0
TABLE
  2
UCS
 70
     0
  0
ENDTAB
  0
TABLE
  2
APPID
 70
     9
  0
APPID
  2
ACAD
 70
     0
  0
APPID
  2
ACAD_MLEADERVER
 70
     0
  0
APPID
  2
ACAD_EXEMPT_FROM_CAD_STANDARDS
 70
     0
  0
APPID
  2
ACAD_NAV_VCDISPLAY
 70
     0
  0
APPID
  2
ACAECLAYERSTANDARD
 70
     0
  0
APPID
  2
ACCMTRANSPARENCY
 70
     0
  0
APPID
  2
ACAD_DSTYLE_DIMJAG
 70
     0
  0
APPID
  2
ACAD_DSTYLE_DIMTALN
 70
     0
  0
APPID
  2
ACDBATTR
 70
     0
  0
ENDTAB
  0
TABLE
  2
DIMSTYLE
 70
     1
  0
DIMSTYLE
  2
STANDARD
 70
     0
  3

  4

  5

  6

  7

 40
1.0
 41
0.1875
 42
0.0625
 43
0.38
 44
0.125
 45
0.0
 46
0.0
 47
0.01
 48
0.01
140
0.15625
141
0.09
142
0.0
143
25.3999999999999986
144
1.0
145
0.0
146
1.0
147
0.09
 71
     1
 72
     0
 73
     1
 74
     1
 75
     0
 76
     0
 77
     0
 78
     4
170
     0
171
     2
172
     0
173
     0
174
     0
175
     0
176
     0
177
     0
178
     0
  0
ENDTAB
  0
ENDSEC
  0
SECTION
  2
BLOCKS
  0
BLOCK
  8
0
  2
$MODEL_SPACE
 70
     0
 10
0.0
 20
0.0
 30
0.0
  3
$MODEL_SPACE
  1

  0
ENDBLK
  5
21
  8
0
  0
BLOCK
 67
     1
  8
0
  2
$PAPER_SPACE
 70
     0
 10
0.0
 20
0.0
 30
0.0
  3
$PAPER_SPACE
  1

  0
ENDBLK
  5
1D
 67
     1
  8
0
  0
BLOCK
  8
0
  2
_FILLED
 70
     0
 10
0.0
 20
0.0
 30
0.0
  3
_FILLED
  1

  0
SOLID
  5
518D
  8
0
  6
BYBLOCK
 62
     0
 10
0.0
 20
0.0
 30
0.0
 11
-1.0
 21
0.1666666667
 31
0.0
 12
-1.0
 22
-0.1666666667
 32
0.0
 13
-1.0
 23
-0.1666666667
 33
0.0
  0
ENDBLK
  5
518E
  8
0
  6
BYBLOCK
 62
     0
  0
ENDSEC
  0
SECTION
  2
ENTITIES
  0
LINE
  5
55BF
  8
0
 10
2171.4812625766057863
 20
271.5900962270894183
 30
0.0
 11
2202.1041891093400409
 21
271.5900962270894183
 31
0.0
  0
LINE
  5
55C1
  8
0
 10
2176.9423351357218053
 20
254.2670217495893894
 30
0.0
 11
2196.6431335609217967
 21
254.2670217495893894
 31
0.0
  0
ARC
  5
55C2
  8
0
 10
2196.6155335609219037
 20
254.2276217495893889
 30
0.0
 40
0.0394
 50
0.0
 51
90.0
  0
LINE
  5
55C3
  8
0
 10
2200.1588705688218397
 20
254.2670217495893894
 30
0.0
 11
2202.048634348322139
 21
254.2670217495893894
 31
0.0
  0
LINE
  5
55C5
  8
0
 10
2176.9423241121221508
 20
254.6607225369893115
 30
0.0
 11
2196.6431335609217967
 21
254.6607225369893115
 31
0.0
  0
ARC
  5
55C6
  8
0
 10
2176.9423241157578559
 20
254.6489225282132054
 30
0.0
 40
0.0118000087761409
 50
90.0000176508998777
 51
180.0534832661909945
  0
LINE
  5
55C7
  8
0
 10
2200.1588705688218397
 20
254.6607225369893115
 30
0.0
 11
2202.048634348322139
 21
254.6607225369893115
 31
0.0
  0
LINE
  5
55CD
  8
0
 10
2177.2848548207221029
 20
250.5268642692894048
 30
0.0
 11
2177.7966658444220229
 21
250.5268642692894048
 31
0.0
  0
LINE
  5
55CE
  8
0
 10
2178.747453245923225
 20
250.5268642692894048
 30
0.0
 11
2179.4836737184218691
 21
250.5268642692894048
 31
0.0
  0
LINE
  5
55CF
  8
0
 10
2194.1017839546229879
 20
250.5268642692894048
 30
0.0
 11
2194.8380044270229519
 21
250.5268642692894048
 31
0.0
  0
LINE
  5
55D0
  8
0
 10
2195.7887918286219247
 20
250.5268642692894048
 30
0.0
 11
2196.3006028522218003
 21
250.5268642692894048
 31
0.0
  0
LINE
  5
561B
  8
0
 10
2171.0446973404218625
 20
270.7237146629893232
 30
0.0
 11
2202.5407603326229946
 21
270.7237146629893232
 31
0.0
  0
LINE
  5
561D
  8
0
 10
2176.9699241121229534
 20
250.7237146629892948
 30
0.0
 11
2196.615563482223024
 21
250.7237146629892948
 31
0.0
  0
LINE
  5
561E
  8
0
 10
2196.6549335609229274
 20
250.7237146629892948
 30
0.0
 11
2202.048634348322139
 21
250.7237146629892948
 31
0.0
  0
LINE
  5
5636
  8
0
 10
2202.048634348322139
 20
270.7237146629893232
 30
0.0
 11
2202.048634348322139
 21
250.7237146629892948
 31
0.0
  0
ARC
  5
5637
  8
0
 10
2233.4685597596890148
 20
273.6849838664883237
 30
0.0
 40
31.0692435166432617
 50
184.5365959330023031
 51
185.4692728859230897
  0
ARC
  5
5638
  8
0
 10
2202.1041891093400409
 20
271.1963962270892807
 30
0.0
 40
0.3937
 50
4.536595933005561
 51
90.0
  0
ARC
  5
5639
  8
0
 10
2128.9601085510271332
 20
274.6610764575576127
 30
0.0
 40
42.2683738919987206
 50
354.6550641219735098
 51
355.3417544489764168
  0
ARC
  5
563A
  8
0
 10
2171.4812625766057863
 20
271.1963962270892807
 30
0.0
 40
0.3937
 50
90.0
 51
175.3417544489763884
  0
LINE
  5
563B
  8
0
 10
2176.9477300438220482
 20
254.6607225369893115
 30
0.0
 11
2174.9590435370218984
 21
270.7237146629893232
 31
0.0
  0
LINE
  5
563C
  8
0
 10
2200.1588705688218397
 20
250.7237146629892948
 30
0.0
 11
2200.1588705688218397
 21
270.6606567272121993
 31
0.0
  0
ARC
  5
563D
  8
0
 10
2200.0509784825158022
 20
270.7397625314172274
 30
0.0
 40
0.0791241011075544
 50
191.7070502892337913
 51
268.369806230515394
  0
LINE
  5
563E
  8
0
 10
2200.0487275276432229
 20
270.6606704548340758
 30
0.0
 11
2200.3061277438218895
 21
270.6606383738892987
 31
0.0
  0
ARC
  5
563F
  8
0
 10
2200.3061697067751084
 20
270.7397151310975119
 30
0.0
 40
0.0790767684420045
 50
269.9695953712275127
 51
348.3111229546574918
  0
LINE
  5
5640
  8
0
 10
2196.6549335609229274
 20
254.2670217495893041
 30
0.0
 11
2198.6755613742229798
 21
270.7237146629893232
 31
0.0
  0
LINE
  5
5641
  8
0
 10
2196.6377276292228089
 20
254.6607225369893115
 30
0.0
 11
2198.6234455786220678
 21
270.7237110209894126
 31
0.0
  0
LINE
  5
5642
  8
0
 10
2196.6632145378680434
 20
254.8668927638285027
 30
0.0
 11
2196.7276175175661592
 21
254.8589850722453889
 31
0.0
  0
LINE
  5
5643
  8
0
 10
2196.6922438513720408
 20
255.1017184240668882
 30
0.0
 11
2196.7564533993331679
 21
255.0938344829145876
 31
0.0
  0
LINE
  5
5644
  8
0
 10
2177.2848548207221029
 20
250.5268642692894048
 30
0.0
 11
2177.2454847420640363
 21
250.6843445841894038
 31
0.0
  0
LINE
  5
5645
  8
0
 10
2177.8360359231228358
 20
250.7237146629892948
 30
0.0
 11
2177.8360359231228358
 21
250.6843445841894038
 31
0.0
  0
LINE
  5
5646
  8
0
 10
2177.8360359231228358
 20
250.6843445841894038
 30
0.0
 11
2177.7966658444220229
 21
250.5268642692894048
 31
0.0
  0
LINE
  5
5647
  8
0
 10
2178.747453245923225
 20
250.7237146629894085
 30
0.0
 11
2178.747453245923225
 21
250.5268642692894048
 31
0.0
  0
LINE
  5
5648
  8
0
 10
2179.4836737184218691
 20
250.7237146629892948
 30
0.0
 11
2179.4836737184218691
 21
250.5268642692894048
 31
0.0
  0
LINE
  5
5649
  8
0
 10
2194.1017839546229879
 20
250.7237146629892948
 30
0.0
 11
2194.1017839546229879
 21
250.5268642692894048
 31
0.0
  0
LINE
  5
564A
  8
0
 10
2194.469894190821833
 20
250.7237146629892948
 30
0.0
 11
2194.469894190821833
 21
250.5268642692894048
 31
0.0
  0
LINE
  5
564B
  8
0
 10
2194.8380044270229519
 20
250.7237146629894085
 30
0.0
 11
2194.8380044270229519
 21
250.5268642692894048
 31
0.0
  0
LINE
  5
564C
  8
0
 10
2196.3006028522218003
 20
250.5268642692894048
 30
0.0
 11
2196.3399729310222028
 21
250.6843445841894038
 31
0.0
  0
LINE
  5
564D
  8
0
 10
2195.7494217499229308
 20
250.7237146629892948
 30
0.0
 11
2195.7494217499229308
 21
250.6843445841894038
 31
0.0
  0
LINE
  5
564E
  8
0
 10
2195.7494217499229308
 20
250.6843445841894038
 30
0.0
 11
2195.7887918286219247
 21
250.5268642692894048
 31
0.0
  0
LINE
  5
5687
  8
0
 10
2177.2454847420221995
 20
250.7237146629894085
 30
0.0
 11
2177.2454847420221995
 21
250.6843445841894038
 31
0.0
  0
LINE
  5
5688
  8
0
 10
2196.3399729310222028
 20
250.7237146629894085
 30
0.0
 11
2196.3399729310222028
 21
250.6843445841894038
 31
0.0
  0
LINE
  5
5689
  8
0
 10
2196.6549335609229274
 20
254.6489225369894029
 30
0.0
 11
2196.6549335609229274
 21
250.7237146629894085
 31
0.0
  0
ARC
  5
568A
  8
0
 10
2196.6431335609217967
 20
254.2788217495894116
 30
0.0
 40
0.0118
 50
270.0
 51
0.0
  0
ARC
  5
568B
  8
0
 10
2196.6431335609217967
 20
254.6489225369894029
 30
0.0
 40
0.0118
 50
0.0
 51
90.0
  0
ARC
  5
568C
  8
0
 10
2196.6155335415019181
 20
250.7631146710336054
 30
0.0
 40
0.0394000194204331
 50
270.0435400059930089
 51
359.9999883020545894
  0
LINE
  5
568D
  8
0
 10
2176.9305241121228391
 20
254.6489115133894074
 30
0.0
 11
2176.9305241121228391
 21
254.2788217495894116
 31
0.0
  0
LINE
  5
568E
  8
0
 10
2176.9305241121228391
 20
254.2276516707894132
 30
0.0
 11
2176.9305241121228391
 21
250.7631146629892953
 31
0.0
  0
ARC
  5
568F
  8
0
 10
2176.9699241121229534
 20
254.2276217495893889
 30
0.0
 40
0.0394
 50
90.0
 51
180.0
  0
ARC
  5
5690
  8
0
 10
2176.9699241121229534
 20
250.7631146629892953
 30
0.0
 40
0.0394
 50
180.0
 51
270.0
  0
ARC
  5
5691
  8
0
 10
2176.9423241121221508
 20
254.2788217495894116
 30
0.0
 40
0.0118
 50
180.0000000000015916
 51
270.0
  0
ATTDEF
  5
56A4
  8
DEFPOINTS
 10
2186.7944739771978675
 20
250.5245924382483906
 30
0.0
 40
0.001
  1
K-23747T-GR
  3

  2
MODELNUMBER
 70
     0
1001
ACDBATTR
1070
     0
1070
     1
  0
ATTDEF
  5
56A5
  8
DEFPOINTS
 10
2186.7944739771978675
 20
250.5229257715816971
 30
0.0
 40
0.001
  1
VOLUTE
  3

  2
TRADENAME
 70
     0
1001
ACDBATTR
1070
     0
1070
     1
  0
ATTDEF
  5
56A6
  8
DEFPOINTS
 10
2186.7944739771978675
 20
250.5212591049150035
 30
0.0
 40
0.001
  1
BATH
  3

  2
PRODUCT
 70
     0
1001
ACDBATTR
1070
     0
1070
     1
  0
ENDSEC
  0
EOF
