  0
SECTION
  2
HEADER
  9
$ACADVER
  1
AC1009
  9
$INSBASE
 10
3428.9963873377050732
 20
76.1231910178345856
 30
0.0
  9
$EXTMIN
 10
3395.4824764677700841
 20
60.3751160359756796
 30
-0.0000000349181948
  9
$EXTMAX
 10
3462.5806042424160296
 20
91.8748106564745513
 30
0.0000000814935746
  9
$LIMMIN
 10
0.0
 20
0.0
  9
$LIMMAX
 10
11.6929133858000007
 20
8.2677165353999982
  9
$ORTHOMODE
 70
     0
  9
$REGENMODE
 70
     1
  9
$FILLMODE
 70
     1
  9
$QTEXTMODE
 70
     0
  9
$MIRRTEXT
 70
     0
  9
$DRAGMODE
 70
     2
  9
$LTSCALE
 40
0.6431102362
  9
$OSMODE
 70
  4095
  9
$ATTMODE
 70
     1
  9
$TEXTSIZE
 40
0.2
  9
$TRACEWID
 40
0.05
  9
$TEXTSTYLE
  7
STANDARD
  9
$CLAYER
  8
0
  9
$CELTYPE
  6
BYLAYER
  9
$CECOLOR
 62
   256
  9
$DIMSCALE
 40
1.0
  9
$DIMASZ
 40
0.1875
  9
$DIMEXO
 40
0.0625
  9
$DIMDLI
 40
0.4443307087
  9
$DIMRND
 40
0.0
  9
$DIMDLE
 40
0.0
  9
$DIMEXE
 40
0.125
  9
$DIMTP
 40
0.01
  9
$DIMTM
 40
0.01
  9
$DIMTXT
 40
2.0
  9
$DIMCEN
 40
0.1052362205
  9
$DIMTSZ
 40
0.0
  9
$DIMTOL
 70
     1
  9
$DIMLIM
 70
     0
  9
$DIMTIH
 70
     1
  9
$DIMTOH
 70
     1
  9
$DIMSE1
 70
     0
  9
$DIMSE2
 70
     0
  9
$DIMTAD
 70
     0
  9
$DIMZIN
 70
     0
  9
$DIMBLK
  1

  9
$DIMASO
 70
     1
  9
$DIMSHO
 70
     1
  9
$DIMPOST
  1
\X
  9
$DIMAPOST
  1

  9
$DIMALT
 70
     1
  9
$DIMALTD
 70
     2
  9
$DIMALTF
 40
25.3999999999999986
  9
$DIMLFAC
 40
1.0
  9
$DIMTOFL
 70
     0
  9
$DIMTVP
 40
0.0
  9
$DIMTIX
 70
     0
  9
$DIMSOXD
 70
     0
  9
$DIMSAH
 70
     0
  9
$DIMBLK1
  1

  9
$DIMBLK2
  1

  9
$DIMSTYLE
  2
STANDARD
  9
$DIMCLRD
 70
     0
  9
$DIMCLRE
 70
     0
  9
$DIMCLRT
 70
     0
  9
$DIMTFAC
 40
1.0
  9
$DIMGAP
 40
0.09
  9
$LUNITS
 70
     2
  9
$LUPREC
 70
     4
  9
$SKETCHINC
 40
0.1
  9
$FILLETRAD
 40
0.0
  9
$AUNITS
 70
     0
  9
$AUPREC
 70
     0
  9
$MENU
  1
.
  9
$ELEVATION
 40
0.0
  9
$PELEVATION
 40
0.0
  9
$THICKNESS
 40
0.0
  9
$LIMCHECK
 70
     0
  9
$BLIPMODE
 70
     0
  9
$CHAMFERA
 40
0.0
  9
$CHAMFERB
 40
0.0
  9
$SKPOLY
 70
     0
  9
$TDCREATE
 40
2458060.468368056230247
  9
$TDUPDATE
 40
2460060.6387384259141982
  9
$TDINDWG
 40
0.2973450231
  9
$TDUSRTIMER
 40
0.2973450231
  9
$USRTIMER
 70
     1
  9
$ANGBASE
 50
0.0
  9
$ANGDIR
 70
     0
  9
$PDMODE
 70
     0
  9
$PDSIZE
 40
0.3125
  9
$PLINEWID
 40
0.0
  9
$COORDS
 70
     1
  9
$SPLFRAME
 70
     0
  9
$SPLINETYPE
 70
     6
  9
$SPLINESEGS
 70
     8
  9
$ATTDIA
 70
     1
  9
$ATTREQ
 70
     1
  9
$HANDLING
 70
     1
  9
$HANDSEED
  5
7B8B
  9
$SURFTAB1
 70
     6
  9
$SURFTAB2
 70
     6
  9
$SURFTYPE
 70
     6
  9
$SURFU
 70
     6
  9
$SURFV
 70
     6
  9
$UCSNAME
  2

  9
$UCSORG
 10
0.0
 20
0.0
 30
0.0
  9
$UCSXDIR
 10
1.0
 20
0.0
 30
0.0
  9
$UCSYDIR
 10
0.0
 20
1.0
 30
0.0
  9
$PUCSNAME
  2

  9
$PUCSORG
 10
0.0
 20
0.0
 30
0.0
  9
$PUCSXDIR
 10
1.0
 20
0.0
 30
0.0
  9
$PUCSYDIR
 10
0.0
 20
1.0
 30
0.0
  9
$USERI1
 70
     0
  9
$USERI2
 70
     0
  9
$USERI3
 70
     0
  9
$USERI4
 70
     0
  9
$USERI5
 70
     0
  9
$USERR1
 40
0.0
  9
$USERR2
 40
0.0
  9
$USERR3
 40
0.0
  9
$USERR4
 40
0.0
  9
$USERR5
 40
0.0
  9
$WORLDVIEW
 70
     1
  9
$SHADEDGE
 70
     3
  9
$SHADEDIF
 70
    70
  9
$TILEMODE
 70
     1
  9
$MAXACTVP
 70
    64
  9
$PLIMCHECK
 70
     0
  9
$PEXTMIN
 10
1.0000000000000000E+20
 20
1.0000000000000000E+20
 30
1.0000000000000000E+20
  9
$PEXTMAX
 10
-1.0000000000000000E+20
 20
-1.0000000000000000E+20
 30
-1.0000000000000000E+20
  9
$PLIMMIN
 10
0.0
 20
0.0
  9
$PLIMMAX
 10
12.0
 20
9.0
  9
$UNITMODE
 70
     0
  9
$VISRETAIN
 70
     1
  9
$PLINEGEN
 70
     0
  9
$PSLTSCALE
 70
     1
  0
ENDSEC
  0
SECTION
  2
TABLES
  0
TABLE
  2
VPORT
 70
     1
  0
VPORT
  2
*ACTIVE
 70
     0
 10
0.0
 20
0.0
 11
1.0
 21
1.0
 12
261.4550022691556137
 22
3.7671104104340989
 13
0.0
 23
0.0
 14
1.0
 24
1.0
 15
0.0
 25
0.0
 16
0.0
 26
0.0
 36
91.4160890752958437
 17
3167.5765380859370453
 27
72.3578529357910156
 37
0.0
 40
31.7834756531159783
 41
2.8436090225563899
 42
50.0
 43
0.0
 44
0.0
 50
0.0
 51
0.0
 71
     0
 72
   100
 73
     1
 74
     1
 75
     0
 76
     0
 77
     0
 78
     0
  0
ENDTAB
  0
TABLE
  2
LTYPE
 70
     2
  0
LTYPE
  2
CONTINUOUS
 70
     0
  3
Solid line
 72
    65
 73
     0
 40
0.0
  0
LTYPE
  2
PHANTOM2
 70
     0
  3
___ _ _ ___ _ _ ___ _ _ ___ _ _
 72
    65
 73
     6
 40
1.25
 49
0.625
 49
-0.125
 49
0.125
 49
-0.125
 49
0.125
 49
-0.125
  0
ENDTAB
  0
TABLE
  2
LAYER
 70
     2
  0
LAYER
  2
0
 70
     0
 62
   255
  6
CONTINUOUS
  0
LAYER
  2
DEFPOINTS
 70
     0
 62
     7
  6
CONTINUOUS
  0
ENDTAB
  0
TABLE
  2
STYLE
 70
     1
  0
STYLE
  2
STANDARD
 70
     0
 40
0.0
 41
0.8
 50
0.0
 71
     0
 42
0.2
  3
txt
  4

  0
ENDTAB
  0
TABLE
  2
VIEW
 70
     0
  0
ENDTAB
  0
TABLE
  2
UCS
 70
     0
  0
ENDTAB
  0
TABLE
  2
APPID
 70
     9
  0
APPID
  2
ACAD
 70
     0
  0
APPID
  2
ACAD_MLEADERVER
 70
     0
  0
APPID
  2
ACAD_EXEMPT_FROM_CAD_STANDARDS
 70
     0
  0
APPID
  2
ACAD_NAV_VCDISPLAY
 70
     0
  0
APPID
  2
ACAECLAYERSTANDARD
 70
     0
  0
APPID
  2
ACCMTRANSPARENCY
 70
     0
  0
APPID
  2
ACAD_DSTYLE_DIMJAG
 70
     0
  0
APPID
  2
ACAD_DSTYLE_DIMTALN
 70
     0
  0
APPID
  2
ACDBATTR
 70
     0
  0
ENDTAB
  0
TABLE
  2
DIMSTYLE
 70
     1
  0
DIMSTYLE
  2
STANDARD
 70
     0
  3

  4

  5

  6

  7

 40
1.0
 41
0.1875
 42
0.0625
 43
0.38
 44
0.125
 45
0.0
 46
0.0
 47
0.01
 48
0.01
140
0.15625
141
0.09
142
0.0
143
25.3999999999999986
144
1.0
145
0.0
146
1.0
147
0.09
 71
     1
 72
     0
 73
     1
 74
     1
 75
     0
 76
     0
 77
     0
 78
     4
170
     0
171
     2
172
     0
173
     0
174
     0
175
     0
176
     0
177
     0
178
     0
  0
ENDTAB
  0
ENDSEC
  0
SECTION
  2
BLOCKS
  0
BLOCK
  8
0
  2
$MODEL_SPACE
 70
     0
 10
0.0
 20
0.0
 30
0.0
  3
$MODEL_SPACE
  1

  0
ENDBLK
  5
21
  8
0
  0
BLOCK
 67
     1
  8
0
  2
$PAPER_SPACE
 70
     0
 10
0.0
 20
0.0
 30
0.0
  3
$PAPER_SPACE
  1

  0
ENDBLK
  5
1D
 67
     1
  8
0
  0
BLOCK
  8
0
  2
_FILLED
 70
     0
 10
0.0
 20
0.0
 30
0.0
  3
_FILLED
  1

  0
SOLID
  5
66FA
  8
0
  6
BYBLOCK
 62
     0
 10
0.0
 20
0.0
 30
0.0
 11
-1.0
 21
0.1666666667
 31
0.0
 12
-1.0
 22
-0.1666666667
 32
0.0
 13
-1.0
 23
-0.1666666667
 33
0.0
  0
ENDBLK
  5
66FB
  8
0
  6
BYBLOCK
 62
     0
  0
ENDSEC
  0
SECTION
  2
ENTITIES
  0
ATTDEF
  5
3930
  8
DEFPOINTS
 10
3428.988547037356966
 20
76.1279822724345649
 30
0.0
 40
0.001
  1
K-23747T
  3

  2
MODELNUMBER
 70
     0
1001
ACDBATTR
1070
     0
1070
     1
  0
ATTDEF
  5
3931
  8
DEFPOINTS
 10
3428.988547037356966
 20
76.1263156057678998
 30
0.0
 40
0.001
  1
VOLUTE
  3

  2
TRADENAME
 70
     0
1001
ACDBATTR
1070
     0
1070
     1
  0
ATTDEF
  5
3932
  8
DEFPOINTS
 10
3428.988547037356966
 20
76.1246489391012346
 30
0.0
 40
0.001
  1
BATH
  3

  2
PRODUCT
 70
     0
1001
ACDBATTR
1070
     0
1070
     1
  0
LINE
  5
738D
  8
0
 10
3411.2798534085550273
 20
91.871224017834578
 30
0.0
 11
3446.712921266855119
 21
91.871224017834578
 31
0.0
  0
LINE
  5
738E
  8
0
 10
3411.2798534085550273
 20
60.375158017834579
 30
0.0
 11
3446.712921266855119
 21
60.375158017834579
 31
0.0
  0
ARC
  5
738F
  8
0
 10
3411.2798534085550273
 20
76.1231910178345856
 30
0.0
 40
15.7480329999999995
 50
90.0
 51
270.0
  0
LINE
  5
7390
  8
0
 10
3414.6169295155991676
 20
85.9563316209787445
 30
0.0
 11
3443.3758451598109787
 21
85.9563316209787445
 31
0.0
  0
LINE
  5
7391
  8
0
 10
3414.6169295155991676
 20
85.9563316209787445
 30
0.0
 11
3443.3758451598109787
 21
85.9563316209787445
 31
0.0
  0
LINE
  5
7392
  8
0
 10
3414.6169295155991676
 20
66.2900504146904126
 30
0.0
 11
3426.3048476161388862
 21
66.2900504146904126
 31
0.0
  0
LINE
  5
7393
  8
0
 10
3431.6879270420799912
 20
66.2900504146904126
 30
0.0
 11
3443.3758451598109787
 21
66.2900504146904126
 31
0.0
  0
ARC
  5
7394
  8
0
 10
3414.6169295155991676
 20
76.1231910178345856
 30
0.0
 40
9.8331406031441642
 50
90.0
 51
270.0
  0
LINE
  5
7395
  8
0
 10
3423.4041797998638685
 20
87.2513974836928554
 30
0.0
 11
3434.588594875545823
 21
87.2513974836928554
 31
0.0
  0
LINE
  5
7396
  8
0
 10
3423.5730430419498589
 20
87.2749079716345761
 30
0.0
 11
3434.4197316334598327
 21
87.2749079716345761
 31
0.0
  0
LINE
  5
7397
  8
0
 10
3423.745540721055022
 20
87.2749079716345761
 30
0.0
 11
3423.745540721055022
 21
87.2513974836928554
 31
0.0
  0
LINE
  5
7398
  8
0
 10
3422.7154309488551007
 20
88.0353665078345671
 30
0.0
 11
3422.7154309488551007
 21
87.6818043058232206
 31
0.0
  0
ARC
  5
7399
  8
0
 10
3423.6964309488548679
 20
88.0353665078345671
 30
0.0
 40
0.981
 50
90.0
 51
180.0
  0
ARC
  5
739A
  8
0
 10
3418.5547230796200893
 20
86.12936699535598
 30
0.0
 40
4.4408953574750001
 50
16.553792941906071
 51
20.4614782530397505
  0
ARC
  5
739B
  8
0
 10
3423.5507354197770837
 20
89.8627828055152236
 30
0.0
 40
2.615494570584572
 50
255.7569182436218966
 51
266.7878278502424223
  0
ARC
  5
739C
  8
0
 10
3422.9397195935339369
 20
87.4759409361749647
 30
0.0
 40
0.1517725340773837
 50
212.3868474638308896
 51
257.6387457023453749
  0
LINE
  5
739D
  8
0
 10
3423.230009601637903
 20
87.6864781419231747
 30
0.0
 11
3423.3405699472959896
 21
87.3340573024713365
 31
0.0
  0
ARC
  5
739E
  8
0
 10
3424.0962338114800332
 20
87.8944934648107221
 30
0.0
 40
0.8908505802158865
 50
171.5320672684908061
 51
193.5033326596004031
  0
ARC
  5
739F
  8
0
 10
3423.7719157388910389
 20
87.9117442968726266
 30
0.0
 40
0.5683572648142809
 50
140.3383105598134932
 51
168.436218797172387
  0
ARC
  5
73A0
  8
0
 10
3423.7966183455578175
 20
87.8935031211303368
 30
0.0
 40
0.5990189558050134
 50
92.1613766718032963
 51
140.5032081690696089
  0
LINE
  5
73A1
  8
0
 10
3423.7740268290222048
 20
88.4920959149345805
 30
0.0
 11
3434.218747846387032
 21
88.4920959149345805
 31
0.0
  0
ARC
  5
73A2
  8
0
 10
3423.3940659962090649
 20
87.3618305148223442
 30
0.0
 40
0.0602758539847152
 50
207.4367058758824101
 51
245.3229811965184126
  0
ARC
  5
73A3
  8
0
 10
3423.451627016952898
 20
87.4914666538155359
 30
0.0
 40
0.2021131294671146
 50
245.8386815539248005
 51
259.7436688062692838
  0
ARC
  5
73A4
  8
0
 10
3423.6520372592490276
 20
88.6880768865436266
 30
0.0
 40
1.4153750274863139
 50
260.3853580469133817
 51
266.8005735732418202
  0
LINE
  5
73A5
  8
0
 10
3422.7154309488551007
 20
87.6818043058232206
 30
0.0
 11
3409.5360055176120113
 21
87.6818043058232206
 31
0.0
  0
LINE
  5
73A6
  8
0
 10
3409.5360055176120113
 20
64.5645777298459222
 30
0.0
 11
3448.456769157798135
 21
64.5645777298459222
 31
0.0
  0
ARC
  5
73A7
  8
0
 10
3409.5360055176120113
 20
76.1231910178345856
 30
0.0
 40
11.5586132879886492
 50
90.0
 51
270.0
  0
LINE
  5
73A8
  8
0
 10
3422.8583405977310576
 20
64.7480131198345816
 30
0.0
 11
3424.3504972987871042
 21
64.7480131198345816
 31
0.0
  0
LINE
  5
73A9
  8
0
 10
3433.642169626643863
 20
64.7480131198345816
 30
0.0
 11
3435.134434060489184
 21
64.7480131198345816
 31
0.0
  0
ARC
  5
73AA
  8
0
 10
3428.996387329108984
 20
55.651815276583001
 30
0.0
 40
10.9734421618816391
 50
55.9888155296699992
 51
124.0111844703299937
  0
ARC
  5
73AB
  8
0
 10
3428.9963334627150289
 20
55.6238963244474078
 30
0.0
 40
10.2388134545919804
 50
63.0156239259087982
 51
116.9843760740912018
  0
ARC
  5
73AC
  8
0
 10
3423.684777490344004
 20
66.3613497585101868
 30
0.0
 40
1.6554679703991679
 50
265.5267690439102921
 51
274.0561245777809063
  0
ARC
  5
73AD
  8
0
 10
3423.8520756513607921
 20
64.7654918744136836
 30
0.0
 40
0.0477147081851261
 50
283.5890627555018
 51
298.9752446314824965
  0
ARC
  5
73AE
  8
0
 10
3423.8714027081141467
 20
64.730405785352616
 30
0.0
 40
0.007658254527526
 50
299.6406831540887765
 51
328.9270641022835093
  0
ARC
  5
73AF
  8
0
 10
3423.8737181731389683
 20
64.7282992699020383
 30
0.0
 40
0.0046280669406415
 50
336.4906451859562821
 51
0.367859293352137
  0
ARC
  5
73B0
  8
0
 10
3423.7740737675821947
 20
65.1100781362763428
 30
0.0
 40
0.4010146325342202
 50
273.9753062505589014
 51
282.8540092278485076
  0
ARC
  5
73B1
  8
0
 10
3423.5797890511021251
 20
65.046519523095327
 30
0.0
 40
0.3364611497591232
 50
256.051615733811218
 51
265.8878969898307787
  0
ARC
  5
73B2
  8
0
 10
3423.5070275872121783
 20
64.7555300825750066
 30
0.0
 40
0.0365161246902082
 50
234.9824519151221125
 51
256.7947926619089003
  0
ARC
  5
73B3
  8
0
 10
3423.4885858720199394
 20
64.7287518254888425
 30
0.0
 40
0.0040116213518749
 50
186.0634287211464084
 51
231.2268147172109991
  0
ARC
  5
73B4
  8
0
 10
3423.684777490344004
 20
63.0953064023589505
 30
0.0
 40
1.6554679703991679
 50
85.9438754222190937
 51
86.6902840930228535
  0
ARC
  5
73B5
  8
0
 10
3423.684777490344004
 20
63.0953064023589505
 30
0.0
 40
1.6554679703991679
 50
93.3097159069771465
 51
94.4732309560897363
  0
ARC
  5
73B6
  8
0
 10
3423.8520756513607921
 20
64.691164286455475
 30
0.0
 40
0.0477147081851261
 50
61.0247553685175035
 51
76.4109372444981716
  0
ARC
  5
73B7
  8
0
 10
3423.8714027081141467
 20
64.7262503755165284
 30
0.0
 40
0.007658254527526
 50
31.0729358977168388
 51
60.3593168459112235
  0
ARC
  5
73B8
  8
0
 10
3423.873718422265938
 20
64.7283569697898429
 30
0.0
 40
0.0046278070498993
 50
359.6535067110689283
 51
23.5096902898667395
  0
ARC
  5
73B9
  8
0
 10
3423.7740737675821947
 20
64.3465780245928158
 30
0.0
 40
0.4010146325342202
 50
77.1459907721514924
 51
86.024693749441127
  0
ARC
  5
73BA
  8
0
 10
3423.5797890511021251
 20
64.4101366377738316
 30
0.0
 40
0.3364611497591232
 50
94.1121030101691503
 51
103.9483842661886968
  0
ARC
  5
73BB
  8
0
 10
3423.5070275872121783
 20
64.7011260782941235
 30
0.0
 40
0.0365161246902082
 50
103.2052073380910002
 51
125.0175480848779017
  0
ARC
  5
73BC
  8
0
 10
3423.4885858720199394
 20
64.7279043353803161
 30
0.0
 40
0.0040116213518749
 50
128.7731852827890009
 51
173.9365712788531084
  0
ARC
  5
73BD
  8
0
 10
3446.712921266855119
 20
76.1231910178345856
 30
0.0
 40
15.7480329999999995
 50
270.0
 51
90.0
  0
LINE
  5
73BE
  8
0
 10
3443.3758451598109787
 20
66.2900504146904126
 30
0.0
 11
3431.6879270592708053
 21
66.2900504146904126
 31
0.0
  0
ARC
  5
73BF
  8
0
 10
3443.3758451598109787
 20
76.1231910178345856
 30
0.0
 40
9.8331406031441642
 50
270.0
 51
90.0
  0
LINE
  5
73C0
  8
0
 10
3434.2472339543551243
 20
87.2749079716345761
 30
0.0
 11
3434.2472339543551243
 21
87.2513974836928554
 31
0.0
  0
LINE
  5
73C1
  8
0
 10
3435.2773437265550456
 20
88.0353665078345671
 30
0.0
 11
3435.2773437265550456
 21
87.6818043058232206
 31
0.0
  0
ARC
  5
73C2
  8
0
 10
3434.2963437265548237
 20
88.0353665078345671
 30
0.0
 40
0.981
 50
0.0
 51
90.0
  0
ARC
  5
73C3
  8
0
 10
3439.438051595790057
 20
86.12936699535598
 30
0.0
 40
4.4408953574750001
 50
159.5385217469602992
 51
163.4462070580939042
  0
ARC
  5
73C4
  8
0
 10
3434.4420392556330626
 20
89.8627828055152236
 30
0.0
 40
2.615494570584572
 50
273.2121721497575777
 51
284.2430817563779897
  0
ARC
  5
73C5
  8
0
 10
3435.0530550818762094
 20
87.4759409361749647
 30
0.0
 40
0.1517725340773837
 50
282.3612542976546251
 51
327.6131525361690819
  0
LINE
  5
73C6
  8
0
 10
3434.7627650737708791
 20
87.6864781419231747
 30
0.0
 11
3434.6522047281141568
 21
87.3340573024713365
 31
0.0
  0
ARC
  5
73C7
  8
0
 10
3433.8965408639301131
 20
87.8944934648107221
 30
0.0
 40
0.8908505802158865
 50
346.4966673403995969
 51
8.4679327315091726
  0
ARC
  5
73C8
  8
0
 10
3434.2208589365191074
 20
87.9117442968726266
 30
0.0
 40
0.5683572648142809
 50
11.5637812028275793
 51
39.6616894401865423
  0
ARC
  5
73C9
  8
0
 10
3434.196156329851874
 20
87.8935031211303368
 30
0.0
 40
0.5990189558050134
 50
39.4967918309303627
 51
87.8386233281967037
  0
ARC
  5
73CA
  8
0
 10
3434.5987086792019909
 20
87.3618305148223442
 30
0.0
 40
0.0602758539847152
 50
294.6770188034815874
 51
332.5632941241177036
  0
ARC
  5
73CB
  8
0
 10
3434.5411476584567936
 20
87.4914666538155359
 30
0.0
 40
0.2021131294671146
 50
280.2563311937307731
 51
294.1613184460751995
  0
ARC
  5
73CC
  8
0
 10
3434.3407374161620282
 20
88.6880768865436266
 30
0.0
 40
1.4153750274863139
 50
273.1994264267581798
 51
279.6146419530865046
  0
LINE
  5
73CD
  8
0
 10
3435.2773437265550456
 20
87.6818043058232206
 30
0.0
 11
3448.456769157798135
 21
87.6818043058232206
 31
0.0
  0
ARC
  5
73CE
  8
0
 10
3448.456769157798135
 20
76.1231910178345856
 30
0.0
 40
11.5586132879886492
 50
270.0
 51
90.0
  0
LINE
  5
73CF
  8
0
 10
3435.1344340776781792
 20
64.7480131198345816
 30
0.0
 11
3433.6422773766230421
 21
64.7480131198345816
 31
0.0
  0
ARC
  5
73D0
  8
0
 10
3434.3079971850661423
 20
66.3613497585101868
 30
0.0
 40
1.6554679703991679
 50
265.9438754222190937
 51
274.4732309560897079
  0
ARC
  5
73D1
  8
0
 10
3434.1406990240488994
 20
64.7654918744136836
 30
0.0
 40
0.0477147081851261
 50
241.0247553685175035
 51
256.4109372444980863
  0
ARC
  5
73D2
  8
0
 10
3434.1213719672950901
 20
64.730405785352616
 30
0.0
 40
0.007658254527526
 50
211.0729358977164054
 51
240.3593168459111951
  0
ARC
  5
73D3
  8
0
 10
3434.119056502271178
 20
64.7282992699020383
 30
0.0
 40
0.0046280669406415
 50
179.6321407066483005
 51
203.5093548140436894
  0
ARC
  5
73D4
  8
0
 10
3434.2187009078279516
 20
65.1100781362763428
 30
0.0
 40
0.4010146325342202
 50
257.1459907721513787
 51
266.0246937494410986
  0
ARC
  5
73D5
  8
0
 10
3434.4129856243080212
 20
65.046519523095327
 30
0.0
 40
0.3364611497591232
 50
274.1121030101691076
 51
283.948384266188782
  0
ARC
  5
73D6
  8
0
 10
3434.485747088197968
 20
64.7555300825750066
 30
0.0
 40
0.0365161246902082
 50
283.2052073380910997
 51
305.0175480848778875
  0
ARC
  5
73D7
  8
0
 10
3434.5041888033902069
 20
64.7287518254888425
 30
0.0
 40
0.0040116213518749
 50
308.7731852827889725
 51
353.9365712788534779
  0
ARC
  5
73D8
  8
0
 10
3434.3079971850661423
 20
63.0953064023589505
 30
0.0
 40
1.6554679703991679
 50
93.3097159069771465
 51
94.0561245777809063
  0
ARC
  5
73D9
  8
0
 10
3434.3079971850661423
 20
63.0953064023589505
 30
0.0
 40
1.6554679703991679
 50
85.5267690439102637
 51
86.6902840930228535
  0
ARC
  5
73DA
  8
0
 10
3434.1406990240488994
 20
64.691164286455475
 30
0.0
 40
0.0477147081851261
 50
103.5890627555018
 51
118.9752446314824965
  0
ARC
  5
73DB
  8
0
 10
3434.1213719672950901
 20
64.7262503755165284
 30
0.0
 40
0.007658254527526
 50
119.6406831540888049
 51
148.9270641022831967
  0
ARC
  5
73DC
  8
0
 10
3434.1190562531428441
 20
64.7283569697898429
 30
0.0
 40
0.0046278070498993
 50
156.4903097101332037
 51
180.3464932889311001
  0
ARC
  5
73DD
  8
0
 10
3434.2187009078279516
 20
64.3465780245928158
 30
0.0
 40
0.4010146325342202
 50
93.9753062505588872
 51
102.8540092278484934
  0
ARC
  5
73DE
  8
0
 10
3434.4129856243080212
 20
64.4101366377738316
 30
0.0
 40
0.3364611497591232
 50
76.0516157338112322
 51
85.8878969898308355
  0
ARC
  5
73DF
  8
0
 10
3434.485747088197968
 20
64.7011260782941235
 30
0.0
 40
0.0365161246902082
 50
54.9824519151220699
 51
76.7947926619089429
  0
ARC
  5
73E0
  8
0
 10
3434.5041888033902069
 20
64.7279043353803161
 30
0.0
 40
0.0040116213518749
 50
6.0634287211468596
 51
51.2268147172109778
  0
CIRCLE
  5
73E1
  8
0
 10
3428.9963873377050732
 20
76.1231910178345856
 30
0.0
 40
1.3877962795999981
  0
CIRCLE
  5
73E2
  8
0
 10
3428.9963873377050732
 20
76.1231910178345856
 30
0.0
 40
2.3167516057999999
  0
LINE
  5
73E3
  8
0
 10
3423.6964309488548679
 20
89.0163665078345758
 30
0.0
 11
3434.2963437265548237
 21
89.0163665078345758
 31
0.0
  0
ENDSEC
  0
EOF
