  0
SECTION
  2
HEADER
  9
$ACADVER
  1
AC1009
  9
$INSBASE
 10
728.9664971284317971
 20
15.0873022542655502
 30
0.0
  9
$EXTMIN
 10
722.9298829549099992
 20
5.5821888285982233
 30
0.0
  9
$EXTMAX
 10
728.9854606356051363
 20
46.5592753934862102
 30
0.0
  9
$LIMMIN
 10
0.0
 20
0.0
  9
$LIMMAX
 10
11.6929133858000007
 20
8.2677165353999982
  9
$ORTHOMODE
 70
     1
  9
$REGENMODE
 70
     1
  9
$FILLMODE
 70
     1
  9
$QTEXTMODE
 70
     0
  9
$MIRRTEXT
 70
     0
  9
$DRAGMODE
 70
     2
  9
$LTSCALE
 40
0.6431102362
  9
$OSMODE
 70
  4095
  9
$ATTMODE
 70
     1
  9
$TEXTSIZE
 40
0.2
  9
$TRACEWID
 40
0.05
  9
$TEXTSTYLE
  7
STANDARD
  9
$CLAYER
  8
0
  9
$CELTYPE
  6
BYLAYER
  9
$CECOLOR
 62
   256
  9
$DIMSCALE
 40
1.0
  9
$DIMASZ
 40
0.1875
  9
$DIMEXO
 40
0.0625
  9
$DIMDLI
 40
0.4443307087
  9
$DIMRND
 40
0.0
  9
$DIMDLE
 40
0.0
  9
$DIMEXE
 40
0.125
  9
$DIMTP
 40
0.01
  9
$DIMTM
 40
0.01
  9
$DIMTXT
 40
1.0
  9
$DIMCEN
 40
0.1052362205
  9
$DIMTSZ
 40
0.0
  9
$DIMTOL
 70
     1
  9
$DIMLIM
 70
     0
  9
$DIMTIH
 70
     1
  9
$DIMTOH
 70
     1
  9
$DIMSE1
 70
     0
  9
$DIMSE2
 70
     0
  9
$DIMTAD
 70
     0
  9
$DIMZIN
 70
     0
  9
$DIMBLK
  1

  9
$DIMASO
 70
     1
  9
$DIMSHO
 70
     1
  9
$DIMPOST
  1
\X
  9
$DIMAPOST
  1

  9
$DIMALT
 70
     1
  9
$DIMALTD
 70
     2
  9
$DIMALTF
 40
25.3999999999999986
  9
$DIMLFAC
 40
1.0
  9
$DIMTOFL
 70
     0
  9
$DIMTVP
 40
0.0
  9
$DIMTIX
 70
     0
  9
$DIMSOXD
 70
     0
  9
$DIMSAH
 70
     0
  9
$DIMBLK1
  1

  9
$DIMBLK2
  1

  9
$DIMSTYLE
  2
STANDARD
  9
$DIMCLRD
 70
     0
  9
$DIMCLRE
 70
     0
  9
$DIMCLRT
 70
     0
  9
$DIMTFAC
 40
1.0
  9
$DIMGAP
 40
0.09
  9
$LUNITS
 70
     2
  9
$LUPREC
 70
     4
  9
$SKETCHINC
 40
0.1
  9
$FILLETRAD
 40
0.0
  9
$AUNITS
 70
     0
  9
$AUPREC
 70
     0
  9
$MENU
  1
.
  9
$ELEVATION
 40
0.0
  9
$PELEVATION
 40
0.0
  9
$THICKNESS
 40
0.0
  9
$LIMCHECK
 70
     0
  9
$BLIPMODE
 70
     0
  9
$CHAMFERA
 40
0.0
  9
$CHAMFERB
 40
0.0
  9
$SKPOLY
 70
     0
  9
$TDCREATE
 40
2458306.6094560190103948
  9
$TDUPDATE
 40
2459907.8994560190476477
  9
$TDINDWG
 40
0.0723701389
  9
$TDUSRTIMER
 40
0.0723700116
  9
$USRTIMER
 70
     1
  9
$ANGBASE
 50
0.0
  9
$ANGDIR
 70
     0
  9
$PDMODE
 70
     0
  9
$PDSIZE
 40
0.3125
  9
$PLINEWID
 40
0.0
  9
$COORDS
 70
     1
  9
$SPLFRAME
 70
     0
  9
$SPLINETYPE
 70
     6
  9
$SPLINESEGS
 70
     8
  9
$ATTDIA
 70
     1
  9
$ATTREQ
 70
     1
  9
$HANDLING
 70
     1
  9
$HANDSEED
  5
3245
  9
$SURFTAB1
 70
     6
  9
$SURFTAB2
 70
     6
  9
$SURFTYPE
 70
     6
  9
$SURFU
 70
     6
  9
$SURFV
 70
     6
  9
$UCSNAME
  2

  9
$UCSORG
 10
0.0
 20
0.0
 30
0.0
  9
$UCSXDIR
 10
1.0
 20
0.0
 30
0.0
  9
$UCSYDIR
 10
0.0
 20
1.0
 30
0.0
  9
$PUCSNAME
  2

  9
$PUCSORG
 10
0.0
 20
0.0
 30
0.0
  9
$PUCSXDIR
 10
1.0
 20
0.0
 30
0.0
  9
$PUCSYDIR
 10
0.0
 20
1.0
 30
0.0
  9
$USERI1
 70
     0
  9
$USERI2
 70
     0
  9
$USERI3
 70
     0
  9
$USERI4
 70
     0
  9
$USERI5
 70
     0
  9
$USERR1
 40
0.0
  9
$USERR2
 40
0.0
  9
$USERR3
 40
0.0
  9
$USERR4
 40
0.0
  9
$USERR5
 40
0.0
  9
$WORLDVIEW
 70
     1
  9
$SHADEDGE
 70
     3
  9
$SHADEDIF
 70
    70
  9
$TILEMODE
 70
     1
  9
$MAXACTVP
 70
    64
  9
$PLIMCHECK
 70
     0
  9
$PEXTMIN
 10
1.0000000000000000E+20
 20
1.0000000000000000E+20
 30
1.0000000000000000E+20
  9
$PEXTMAX
 10
-1.0000000000000000E+20
 20
-1.0000000000000000E+20
 30
-1.0000000000000000E+20
  9
$PLIMMIN
 10
0.0
 20
0.0
  9
$PLIMMAX
 10
12.0
 20
9.0
  9
$UNITMODE
 70
     0
  9
$VISRETAIN
 70
     1
  9
$PLINEGEN
 70
     0
  9
$PSLTSCALE
 70
     1
  0
ENDSEC
  0
SECTION
  2
TABLES
  0
TABLE
  2
VPORT
 70
     1
  0
VPORT
  2
*ACTIVE
 70
     0
 10
0.0
 20
0.0
 11
1.0
 21
1.0
 12
0.0
 22
0.0
 13
0.0
 23
0.0
 14
1.0
 24
1.0
 15
0.0
 25
0.0
 16
0.0
 26
0.0
 36
119.0199603024323949
 17
725.9576656206959342
 27
26.0707404613494909
 37
0.0
 40
41.4220954881611121
 41
2.156179775280898
 42
50.0
 43
0.0
 44
0.0
 50
0.0
 51
0.0
 71
     0
 72
   100
 73
     1
 74
     1
 75
     0
 76
     0
 77
     0
 78
     0
  0
ENDTAB
  0
TABLE
  2
LTYPE
 70
     1
  0
LTYPE
  2
CONTINUOUS
 70
     0
  3
Solid line
 72
    65
 73
     0
 40
0.0
  0
ENDTAB
  0
TABLE
  2
LAYER
 70
     2
  0
LAYER
  2
0
 70
     0
 62
   255
  6
CONTINUOUS
  0
LAYER
  2
DEFPOINT
 70
     0
 62
     7
  6
CONTINUOUS
  0
ENDTAB
  0
TABLE
  2
STYLE
 70
     1
  0
STYLE
  2
STANDARD
 70
     0
 40
0.0
 41
0.8
 50
0.0
 71
     0
 42
0.2
  3
txt
  4

  0
ENDTAB
  0
TABLE
  2
VIEW
 70
     0
  0
ENDTAB
  0
TABLE
  2
UCS
 70
     0
  0
ENDTAB
  0
TABLE
  2
APPID
 70
    10
  0
APPID
  2
ACAD
 70
     0
  0
APPID
  2
ACADANNOTATIVE
 70
     0
  0
APPID
  2
ACAD_MLEADERVER
 70
     0
  0
APPID
  2
ACAD_EXEMPT_FROM_CAD_STANDARDS
 70
     0
  0
APPID
  2
ACAD_DSTYLE_DIMJAG
 70
     0
  0
APPID
  2
ACAD_DSTYLE_DIMTALN
 70
     0
  0
APPID
  2
ACAD_NAV_VCDISPLAY
 70
     0
  0
APPID
  2
ACAECLAYERSTANDARD
 70
     0
  0
APPID
  2
ACCMTRANSPARENCY
 70
     0
  0
APPID
  2
ACDBATTR
 70
     0
  0
ENDTAB
  0
TABLE
  2
DIMSTYLE
 70
     1
  0
DIMSTYLE
  2
STANDARD
 70
     0
  3

  4

  5

  6

  7

 40
1.0
 41
0.1875
 42
0.0625
 43
0.38
 44
0.125
 45
0.0
 46
0.0
 47
0.01
 48
0.01
140
0.15625
141
0.09
142
0.0
143
25.3999999999999986
144
1.0
145
0.0
146
1.0
147
0.09
 71
     1
 72
     0
 73
     1
 74
     1
 75
     0
 76
     0
 77
     0
 78
     4
170
     0
171
     2
172
     0
173
     0
174
     0
175
     0
176
     0
177
     0
178
     0
  0
ENDTAB
  0
ENDSEC
  0
SECTION
  2
BLOCKS
  0
BLOCK
  8
0
  2
$MODEL_SPACE
 70
     0
 10
0.0
 20
0.0
 30
0.0
  3
$MODEL_SPACE
  1

  0
ENDBLK
  5
1598
  8
0
  0
BLOCK
 67
     1
  8
0
  2
$PAPER_SPACE
 70
     0
 10
0.0
 20
0.0
 30
0.0
  3
$PAPER_SPACE
  1

  0
ENDBLK
  5
1594
 67
     1
  8
0
  0
ENDSEC
  0
SECTION
  2
ENTITIES
  0
ATTDEF
  5
659
  8
DEFPOINT
 10
728.9747939689385703
 20
15.0884015906393891
 30
0.0
 40
0.001
  1
K-23748T-9
  3

  2
MODELNUMBER
 70
     0
1001
ACDBATTR
1070
     0
1070
     1
  0
ATTDEF
  5
65A
  8
DEFPOINT
 10
728.9747939689385703
 20
15.0867349239727293
 30
0.0
 40
0.001
  1
URBANITY
  3

  2
TRADENAME
 70
     0
1001
ACDBATTR
1070
     0
1070
     1
  0
ATTDEF
  5
65B
  8
DEFPOINT
 10
728.9747939689385703
 20
15.0850682573060606
 30
0.0
 40
0.001
  1
BATH AND SHOWER FAUCET
  3

  2
PRODUCT
 70
     0
1001
ACDBATTR
1070
     0
1070
     1
  0
LINE
  5
2F7D
  8
0
 10
727.6190109494318676
 20
12.4775977581655599
 30
0.0
 11
728.2560305516318522
 21
12.4775977581655599
 31
0.0
  0
LINE
  5
2F7E
  8
0
 10
728.9664971284317971
 20
13.6581683959655606
 30
0.0
 11
728.9074420103319198
 21
13.6581683959655606
 31
0.0
  0
LINE
  5
2F7F
  8
0
 10
727.4749223253319315
 20
13.6660424117655399
 30
0.0
 11
728.2932958293492902
 21
13.6660424117655399
 31
0.0
  0
LINE
  5
2F80
  8
0
 10
723.0924813804317637
 20
14.6227353251655607
 30
0.0
 11
725.0428095163839544
 21
14.6227353251655607
 31
0.0
  0
LINE
  5
2F81
  8
0
 10
725.4492398369748116
 20
14.6227353251655607
 30
0.0
 11
726.2430244010597562
 21
14.6227353251655607
 31
0.0
  0
LINE
  5
2F82
  8
0
 10
726.7969312285074466
 20
14.6227353251655607
 30
0.0
 11
728.9074420103319198
 21
14.6227353251655607
 31
0.0
  0
LINE
  5
2F83
  8
0
 10
722.9495679946319342
 20
14.7802156400655598
 30
0.0
 11
723.0806703568318881
 21
14.7802156400655598
 31
0.0
  0
LINE
  5
2F84
  8
0
 10
728.9074420103319198
 20
13.61879831726554
 30
0.0
 11
726.798684599871649
 21
13.7810175697209694
 31
0.0
  0
LINE
  5
2F85
  8
0
 10
726.2444608169760158
 20
13.8236520459809604
 30
0.0
 11
724.1874037296131519
 21
13.9818941753576595
 31
0.0
  0
LINE
  5
2F86
  8
0
 10
722.9495679946319342
 20
16.2368846118655483
 30
0.0
 11
723.0806703568318881
 21
16.2368846118655483
 31
0.0
  0
LINE
  5
2F87
  8
0
 10
723.0924813804317637
 20
16.3747038290655382
 30
0.0
 11
726.2547368476703014
 21
16.3747038290655382
 31
0.0
  0
LINE
  5
2F88
  8
0
 10
726.8077297375657508
 20
16.3747038290655382
 30
0.0
 11
728.9074420103319198
 21
16.3747038290655382
 31
0.0
  0
LINE
  5
2F89
  8
0
 10
723.0413002780319403
 20
16.3983258763655613
 30
0.0
 11
726.2550342524494909
 21
16.3983258763655613
 31
0.0
  0
LINE
  5
2F8A
  8
0
 10
726.8080087059685184
 20
16.3983258763655613
 30
0.0
 11
728.9074420103319198
 21
16.3983258763655613
 31
0.0
  0
LINE
  5
2F8B
  8
0
 10
728.9074420103319198
 20
16.4967510731655409
 30
0.0
 11
726.8092092758872695
 21
16.4967510731655409
 31
0.0
  0
LINE
  5
2F8C
  8
0
 10
726.2563133922681118
 20
16.4967510731655409
 30
0.0
 11
723.0413002780319403
 21
16.4967510731655409
 31
0.0
  0
LINE
  5
2F8D
  8
0
 10
728.9074420103319198
 20
16.5164361125655397
 30
0.0
 11
728.9664971284317971
 21
16.5164361125655397
 31
0.0
  0
LINE
  5
2F8E
  8
0
 10
728.9074420103319198
 20
16.5558061912655603
 30
0.0
 11
726.8099591936709203
 21
16.5558061912655603
 31
0.0
  0
LINE
  5
2F8F
  8
0
 10
726.257111808188597
 20
16.5558061912655603
 30
0.0
 11
723.1003553961319312
 21
16.5558061912655603
 31
0.0
  0
LINE
  5
2F90
  8
0
 10
723.9270888449317454
 20
14.3246749557655395
 30
0.0
 11
724.0042952821319204
 21
14.1988334496655604
 31
0.0
  0
LINE
  5
2F91
  8
0
 10
723.7927871704318932
 20
14.6170913255655499
 30
0.0
 11
724.1782364962317615
 21
13.9875033823655599
 31
0.0
  0
LINE
  5
2F92
  8
0
 10
722.9298829552319603
 20
16.2171948313655605
 30
0.0
 11
722.9298829552319603
 21
14.7999006803655409
 31
0.0
  0
LINE
  5
2F93
  8
0
 10
723.0413002780319403
 20
16.3983258763655613
 30
0.0
 11
723.0413002780319403
 21
16.4967510731655409
 31
0.0
  0
LINE
  5
2F94
  8
0
 10
723.0806703568318881
 20
14.6345463487655501
 30
0.0
 11
723.0806703568318881
 21
16.3628928054655489
 31
0.0
  0
LINE
  5
2F95
  8
0
 10
723.2972057898318781
 20
16.3747038290655382
 30
0.0
 11
723.2972057898318781
 21
16.3983258763655613
 31
0.0
  0
LINE
  5
2F96
  8
0
 10
724.8461418526319449
 20
46.3942376311655309
 30
0.0
 11
724.8485616376317466
 21
46.3391331736655374
 31
0.0
  0
LINE
  5
2F97
  8
0
 10
724.892236103034179
 20
14.7215289828786506
 30
0.0
 11
724.8924311957318878
 21
14.6842712690655599
 31
0.0
  0
LINE
  5
2F98
  8
0
 10
725.5996068012318574
 20
14.6842487989655393
 30
0.0
 11
725.5998019834755723
 21
14.7215236413232997
 31
0.0
  0
LINE
  5
2F99
  8
0
 10
727.5403553961317584
 20
12.5526887266655596
 30
0.0
 11
727.4887018528318094
 21
13.6660424117655399
 31
0.0
  0
LINE
  5
2F9A
  8
0
 10
726.5242542063318751
 20
36.1702700584655474
 30
0.0
 11
726.4974480503318546
 21
37.398755303165558
 31
0.0
  0
LINE
  5
2F9B
  8
0
 10
726.5451296974318893
 20
35.8358654746655603
 30
0.0
 11
726.5451296974318893
 21
36.2295662620655605
 31
0.0
  0
LINE
  5
2F9C
  8
0
 10
727.096310799731782
 20
35.8358654746655603
 30
0.0
 11
727.096310799731782
 21
36.2295662620655605
 31
0.0
  0
LINE
  5
2F9D
  8
0
 10
727.4749223253319315
 20
13.6660424117655399
 30
0.0
 11
727.4749223253317041
 21
13.7289969922177608
 31
0.0
  0
LINE
  5
2F9E
  8
0
 10
727.2551822237319357
 20
37.149829405965562
 30
0.0
 11
727.2388997515319033
 21
36.4036285399655526
 31
0.0
  0
LINE
  5
2F9F
  8
0
 10
727.2179931914319013
 20
36.3046572306655619
 30
0.0
 11
727.2533864806318888
 21
37.0675332390655399
 31
0.0
  0
LINE
  5
2FA0
  8
0
 10
727.2576257474014483
 20
37.158907479196273
 30
0.0
 11
727.2696467347318503
 21
37.4180109156655476
 31
0.0
  0
LINE
  5
2FA1
  8
0
 10
727.6619301993318913
 20
12.4775977581655599
 30
0.0
 11
727.6619301993318913
 21
12.0838969707655508
 31
0.0
  0
LINE
  5
2FA2
  8
0
 10
728.2131113016318977
 20
12.4775977581655599
 30
0.0
 11
728.2131113016318977
 21
12.0838969707655508
 31
0.0
  0
LINE
  5
2FA3
  8
0
 10
728.9074420103319198
 20
13.61879831726554
 30
0.0
 11
728.9074420103319198
 21
16.5558061912655603
 31
0.0
  0
LINE
  5
2FA4
  8
0
 10
728.9664971284317971
 20
16.5164361125655397
 30
0.0
 11
728.9664971284317971
 21
13.6581683959655606
 31
0.0
  0
LINE
  5
2FA5
  8
0
 10
728.334686104831917
 20
12.5526887266655596
 30
0.0
 11
728.3843456583339275
 21
13.6590382703120099
 31
0.0
  0
LINE
  5
2FA6
  8
0
 10
723.0413002780319403
 20
16.4967510731655409
 30
0.0
 11
723.1003553961319312
 21
16.5558061912655603
 31
0.0
  0
LINE
  5
2FA7
  8
0
 10
723.9283857801317481
 20
14.3300895675655493
 30
0.0
 11
723.9468425343318359
 21
14.3414131783655403
 31
0.0
  0
LINE
  5
2FA8
  8
0
 10
724.0281666482319451
 20
14.2088601252655398
 30
0.0
 11
724.0097098939319267
 21
14.1975365144655505
 31
0.0
  0
LINE
  5
2FA9
  8
0
 10
726.3175922765318546
 20
36.1501555922655484
 30
0.0
 11
726.5451296974318893
 21
36.1501555922655484
 31
0.0
  0
LINE
  5
2FAA
  8
0
 10
726.5231759807319349
 20
36.2295662620655605
 30
0.0
 11
727.1393376390318508
 21
36.2295662620655605
 31
0.0
  0
LINE
  5
2FAB
  8
0
 10
726.6443167702318533
 20
36.5051568132655575
 30
0.0
 11
726.9973366435286835
 21
36.5051568132655575
 31
0.0
  0
LINE
  5
2FAC
  8
0
 10
726.3175922765318546
 20
37.4180109156655476
 30
0.0
 11
727.3015430512318744
 21
37.4180109156655476
 31
0.0
  0
LINE
  5
2FAD
  8
0
 10
725.3033918301565564
 20
44.1434718681150571
 30
0.0
 11
725.2643955535319265
 21
44.1330781553655527
 31
0.0
  0
LINE
  5
2FAE
  8
0
 10
725.2761188075319296
 20
44.2686223522655311
 30
0.0
 11
725.2345451756317516
 21
44.2575416946655409
 31
0.0
  0
ARC
  5
2FAF
  8
0
 10
727.6190109479317698
 20
12.5563379156655497
 30
0.0
 40
0.0787401575
 50
182.6563071452993938
 51
270.0
  0
ARC
  5
2FB0
  8
0
 10
722.9495679946319342
 20
14.7999006794655603
 30
0.0
 40
0.0196850394
 50
180.0
 51
270.0
  0
ARC
  5
2FB1
  8
0
 10
724.034717210328381
 20
14.1969592187696794
 30
0.0
 40
0.0135846030216378
 50
47.8123631476359918
 51
118.8295068649760964
  0
ARC
  5
2FB2
  8
0
 10
723.939444575704897
 20
14.3523669528101703
 30
0.0
 40
0.0132179789996637
 50
304.0342992420466999
 51
25.4716418245359009
  0
ARC
  5
2FB3
  8
0
 10
723.0924813804317637
 20
14.6345463487655501
 30
0.0
 40
0.0118110236
 50
180.0
 51
270.0
  0
ARC
  5
2FB4
  8
0
 10
723.7827140331319242
 20
14.6109243015655395
 30
0.0
 40
0.0118110236
 50
31.4759999999997291
 51
83.4835553305992732
  0
ARC
  5
2FB5
  8
0
 10
724.1883096334319134
 20
13.9936704063655402
 30
0.0
 40
0.0118110236
 50
211.4759999999996865
 51
265.6011016821007047
  0
ARC
  5
2FB6
  8
0
 10
724.0076510556318681
 20
14.2008922879655604
 30
0.0
 40
0.0039370079
 50
211.530000004900586
 51
301.5299999874017089
  0
ARC
  5
2FB7
  8
0
 10
723.9304446184319204
 20
14.3267337940655395
 30
0.0
 40
0.0039370079
 50
121.5299999875011991
 51
211.5299999950993026
  0
ARC
  5
2FB8
  8
0
 10
722.9495691754839299
 20
16.2171983913269706
 30
0.0
 40
0.0196862205739803
 50
90.003436812112227
 51
180.0103610932231959
  0
ARC
  5
2FB9
  8
0
 10
723.0924813804317637
 20
16.3628928054655489
 30
0.0
 40
0.0118110236
 50
90.0
 51
180.0
  0
ARC
  5
2FBA
  8
0
 10
725.2460246766795535
 20
15.4241431853528201
 30
0.0
 40
0.8267714071880968
 50
245.2182177370507929
 51
294.7974427821264953
  0
ARC
  5
2FBB
  8
0
 10
725.246024687531758
 20
15.4691920180655398
 30
0.0
 40
0.8402736485
 50
294.8936766536824052
 51
245.1054748145301119
  0
CIRCLE
  5
2FBC
  8
0
 10
725.246024687531758
 20
15.4691920180655398
 30
0.0
 40
0.8271435043000001
  0
CIRCLE
  5
2FBD
  8
0
 10
725.246024687531758
 20
15.4691920180655398
 30
0.0
 40
0.7897035814
  0
ARC
  5
2FBE
  8
0
 10
728.2560305530319056
 20
12.5563379156655497
 30
0.0
 40
0.0787401575
 50
270.0
 51
357.3436928547005778
  0
ARC
  5
2FBF
  8
0
 10
726.319302911181012
 20
36.1716142388224924
 30
0.0
 40
0.0215267226473106
 50
186.6286952322585933
 51
265.4421484718245097
  0
ARC
  5
2FC0
  8
0
 10
726.5049484605829093
 20
36.1694770660566931
 30
0.0
 40
0.0193220251496264
 50
269.546943735274624
 51
2.352128326372144
  0
ARC
  5
2FC1
  8
0
 10
727.1393376397319344
 20
36.3083064195655467
 30
0.0
 40
0.0787401575
 50
270.0
 51
357.3436928533001833
  0
ARC
  5
2FC2
  8
0
 10
727.2585765769996442
 20
36.4031968820092118
 30
0.0
 40
0.0196815596200628
 50
178.7432824042037964
 51
312.7898360406550751
  0
ARC
  5
2FC3
  8
0
 10
727.2748625742934792
 20
37.1493999875667669
 30
0.0
 40
0.0196850348842452
 50
45.3161511803164672
 51
178.7500243797244934
  0
ARC
  5
2FC4
  8
0
 10
726.4758372449618946
 20
37.3963533059270503
 30
0.0
 40
0.0217438841854777
 50
6.3422780816821023
 51
84.8943168272123216
  0
ARC
  5
2FC5
  8
0
 10
726.3192291397979261
 20
37.3966287564119
 30
0.0
 40
0.0214447210421968
 50
94.3776123341333744
 51
173.5515445816936904
  0
ARC
  5
2FC6
  8
0
 10
743.2975877387364108
 20
36.7840832512011104
 30
0.0
 40
17.0107868253046313
 50
177.928258982608213
 51
182.0717409988561997
  0
ARC
  5
2FC7
  8
0
 10
742.3953278673318437
 20
38.18089823316555
 30
0.0
 40
15.8399001125000005
 50
186.0728233740996131
 51
186.802681168900591
  0
LINE
  5
2FC8
  8
0
 10
728.6515364985317547
 20
37.783954557815548
 30
0.0
 11
728.9664971284317971
 21
37.783954557815548
 31
0.0
  0
LINE
  5
2FC9
  8
0
 10
728.6121664198318513
 20
37.3367959424155629
 30
0.0
 11
727.8050801736319499
 21
37.350883685215571
 31
0.0
  0
LINE
  5
2FCA
  8
0
 10
728.6121664198318513
 20
35.823324209015567
 30
0.0
 11
728.6121664198318513
 21
37.7445849065155414
 31
0.0
  0
LINE
  5
2FCB
  8
0
 10
728.9664971284317971
 20
35.7839545577155604
 30
0.0
 11
728.9664971284317971
 21
37.783954557815548
 31
0.0
  0
ARC
  5
2FCC
  8
0
 10
728.653058491621664
 20
37.7430624693965626
 30
0.0
 40
0.040920402613537
 50
92.131550367032645
 51
177.8678274833469004
  0
LINE
  5
2FCD
  8
0
 10
728.6515364985317547
 20
35.7839545577155604
 30
0.0
 11
728.9664971284317971
 21
35.7839545577155604
 31
0.0
  0
LINE
  5
2FCE
  8
0
 10
728.6121664198318513
 20
36.2311131731155527
 30
0.0
 11
728.5685290630098052
 21
36.2304424256437017
 31
0.0
  0
LINE
  5
2FCF
  8
0
 10
728.3037488493979481
 20
36.22637250317797
 30
0.0
 11
727.096310799731782
 21
36.2078130376602303
 31
0.0
  0
ARC
  5
2FD0
  8
0
 10
728.653058491621664
 20
35.8248466461345529
 30
0.0
 40
0.040920402613537
 50
182.132172516651508
 51
267.8684496329673834
  0
LINE
  5
2FD1
  8
0
 10
727.8050798056318627
 20
37.3508836916390123
 30
0.0
 11
727.2665969333098701
 21
37.3522747155308323
 31
0.0
  0
ARC
  5
2FD2
  8
0
 10
726.9497385328252221
 20
36.7832266564487895
 30
0.0
 40
0.5093397522557764
 50
309.2421521117726115
 51
48.2791778136458376
  0
ARC
  5
2FD3
  8
0
 10
726.7366330619116752
 20
36.3318109032043424
 30
0.0
 40
0.0747956585690032
 50
201.2885731247403953
 51
256.8195266811279112
  0
ARC
  5
2FD4
  8
0
 10
726.8494937837758698
 20
36.8523723758144968
 30
0.0
 40
0.6074420994888021
 50
257.6505739026532069
 51
267.2950661651004793
  0
ARC
  5
2FD5
  8
0
 10
711.2463263182319224
 20
38.18089823316555
 30
0.0
 40
15.8399001125000005
 50
353.1973188310993237
 51
353.9271766259004153
  0
ARC
  5
2FD6
  8
0
 10
726.9050211236518635
 20
36.3318109032043424
 30
0.0
 40
0.0747956585690032
 50
283.1804733188719752
 51
338.7114268752595763
  0
ARC
  5
2FD7
  8
0
 10
726.7921604017877826
 20
36.8523723758144968
 30
0.0
 40
0.6074420994888021
 50
272.7049338348995207
 51
282.3494260973437235
  0
ARC
  5
2FD8
  8
0
 10
725.3916856995854232
 20
46.5022853323573031
 30
0.0
 40
0.0569900611289128
 50
40.7317734705526675
 51
93.8538356774857334
  0
ARC
  5
2FD9
  8
0
 10
712.2965251919378034
 20
39.3316821639146497
 30
0.0
 40
14.9856056363664099
 50
6.1767052231206661
 51
28.749486470180571
  0
ARC
  5
2FDA
  8
0
 10
708.3698399849743055
 20
38.5515651262447321
 30
0.0
 40
18.9767177063783308
 50
356.6089576454164103
 51
7.2428578698023518
  0
ARC
  5
2FDB
  8
0
 10
727.3006078865183781
 20
37.4308172379070427
 30
0.0
 40
0.0128404214258834
 50
274.1765351784762856
 51
352.2533366110068869
  0
ARC
  5
2FDC
  8
0
 10
726.3401994635839856
 20
37.4298867753248601
 30
0.0
 40
0.0118760934200671
 50
180.1117764254329074
 51
269.6405095634718236
  0
ARC
  5
2FDD
  8
0
 10
543.1685738310944771
 20
-3.6099687537388259
 30
0.0
 40
189.0395979902995123
 50
13.6122001528796002
 51
15.3839106765187399
  0
ARC
  5
2FDE
  8
0
 10
733.659029514183203
 20
42.8865579124785015
 30
0.0
 40
7.052198090389548
 50
196.5279693783542996
 51
205.6804636634279007
  0
ARC
  5
2FDF
  8
0
 10
731.2137133394608099
 20
21.6351775418449996
 30
0.0
 40
25.5957975373928299
 50
103.1563998323750013
 51
104.3376311433827937
  0
ARC
  5
2FE0
  8
0
 10
724.8899193766064855
 20
46.3924516968155487
 30
0.0
 40
0.0438139380432271
 50
109.5084912380379052
 51
177.6638744922381932
  0
ARC
  5
2FE1
  8
0
 10
289.4496217179541873
 20
-70.0444670242309826
 30
0.0
 40
450.6854549219474961
 50
14.4174967887691405
 51
14.9654697948285893
  0
ARC
  5
2FE2
  8
0
 10
790.8150945831621357
 20
55.6013287032191883
 30
0.0
 40
66.2492451235204527
 50
191.6974174118768133
 51
192.6323881013763923
  0
ARC
  5
2FE3
  8
0
 10
725.2475184211328951
 20
40.9235072657655721
 30
0.0
 40
0.9412697455584446
 50
343.3220059582822046
 51
11.6113535952768494
  0
ARC
  5
2FE4
  8
0
 10
710.1981746341236885
 20
38.1502336645773994
 30
0.0
 40
16.1462265559536107
 50
357.4428781196260161
 51
8.9184881199978001
  0
ARC
  5
2FE5
  8
0
 10
726.154083152037515
 20
40.6944096888180908
 30
0.0
 40
0.0123522570721129
 50
191.5869522848358031
 51
285.6480147680139225
  0
ARC
  5
2FE6
  8
0
 10
718.2504001917590131
 20
39.0904475396721125
 30
0.0
 40
8.0524415602527046
 50
11.47155606362535
 51
13.8518989683279408
  0
ARC
  5
2FE7
  8
0
 10
725.2526836932945571
 20
44.2270281668302019
 30
0.0
 40
0.0354976225113896
 50
120.7290211739673964
 51
185.999011021291409
  0
ARC
  5
2FE8
  8
0
 10
725.3973692279751049
 20
44.2311032999534106
 30
0.0
 40
0.1801570455534471
 50
182.4766648634484909
 51
209.6043748597205933
  0
ARC
  5
2FE9
  8
0
 10
725.2594745381599068
 20
44.1557124039709379
 30
0.0
 40
0.0231630223032936
 50
215.9794836209167954
 51
282.2660464560249238
  0
ARC
  5
2FEA
  8
0
 10
725.1790487431320571
 20
44.1785342871118516
 30
0.0
 40
0.0584154995861384
 50
348.9632254794137793
 51
36.8780697629507586
  0
ARC
  5
2FEB
  8
0
 10
725.2858405623012459
 20
44.2030333851877231
 30
0.0
 40
0.0609850955094532
 50
170.0315604646202132
 51
215.8097345859991947
  0
ARC
  5
2FEC
  8
0
 10
725.2717242101755346
 20
44.2843309208006701
 30
0.0
 40
0.0163117016692706
 50
285.6293868851035995
 51
317.5042437448274768
  0
ARC
  5
2FED
  8
0
 10
725.3411283617698473
 20
44.2716699261429127
 30
0.0
 40
0.0574005737389064
 50
164.5452083840129092
 51
178.3609144048431006
  0
ARC
  5
2FEE
  8
0
 10
725.2930986325634422
 20
44.2847737662934477
 30
0.0
 40
0.0076175378204607
 50
110.7658413172272986
 51
163.2751230434170111
  0
ARC
  5
2FEF
  8
0
 10
725.2899449636147438
 20
44.2835586980720208
 30
0.0
 40
0.0083500397209128
 50
36.1502026914603718
 51
86.8909709321027037
  0
ARC
  5
2FF0
  8
0
 10
725.0559695696043718
 20
44.1501933678633165
 30
0.0
 40
0.2776139192285062
 50
359.1205613942170771
 51
29.8771278193758612
  0
ARC
  5
2FF1
  8
0
 10
725.3003084986825115
 20
44.1463370052734874
 30
0.0
 40
0.0332447506627287
 50
331.6467367176422272
 51
359.3026843994895216
  0
ARC
  5
2FF2
  8
0
 10
725.326117672234318
 20
44.13303292051733
 30
0.0
 40
0.0042491439307343
 50
240.5437266909370067
 51
324.2250251498339253
  0
ARC
  5
2FF3
  8
0
 10
725.3430902911726434
 20
44.1554161077489411
 30
0.0
 40
0.0323062219097242
 50
202.9250936589670005
 51
233.8396890459937083
  0
ARC
  5
2FF4
  8
0
 10
725.3073916974423128
 20
44.1280459250819206
 30
0.0
 40
0.0159360803450625
 50
68.099539191349578
 51
104.5363647891945931
  0
LINE
  5
2FF5
  8
0
 10
725.1927822426065404
 20
44.5605507601110489
 30
0.0
 11
725.1533434594310847
 21
44.5519879780304109
 31
0.0
  0
LINE
  5
2FF6
  8
0
 10
725.1713785870371112
 20
44.6868375170353715
 30
0.0
 11
725.1293332022908089
 21
44.677708800601323
 31
0.0
  0
ARC
  5
2FF7
  8
0
 10
725.1460281679505897
 20
44.6463821454083813
 30
0.0
 40
0.0354976225113896
 50
118.0545653389807939
 51
183.3245551863043943
  0
ARC
  5
2FF8
  8
0
 10
725.2907462580800484
 20
44.6437016519828376
 30
0.0
 40
0.1801570455534471
 50
179.8022090284617036
 51
206.9299190247344029
  0
ARC
  5
2FF9
  8
0
 10
725.1494839433322568
 20
44.5748271929404325
 30
0.0
 40
0.0231630223032936
 50
213.3050277859323103
 51
279.5915906210365165
  0
ARC
  5
2FFA
  8
0
 10
725.0702106443452521
 20
44.6013769749286766
 30
0.0
 40
0.0584154995861384
 50
346.2887696444274752
 51
34.2036139279627704
  0
ARC
  5
2FFB
  8
0
 10
725.1780292985635015
 20
44.6208663630791307
 30
0.0
 40
0.0609850955094532
 50
167.3571046296337101
 51
213.1352787510151074
  0
ARC
  5
2FFC
  8
0
 10
725.1677217556394908
 20
44.7027340322345594
 30
0.0
 40
0.0163117016692706
 50
282.9549310501192849
 51
314.8297879098411158
  0
ARC
  5
2FFD
  8
0
 10
725.2364595345666203
 20
44.6868483533872265
 30
0.0
 40
0.0574005737389064
 50
161.8707525490262071
 51
175.6864585698558017
  0
ARC
  5
2FFE
  8
0
 10
725.189093560180936
 20
44.7021790410703304
 30
0.0
 40
0.0076175378204607
 50
108.0913854822384934
 51
160.6006672084315881
  0
ARC
  5
2FFF
  8
0
 10
725.1858866298472321
 20
44.701112450026443
 30
0.0
 40
0.0083500397209128
 50
33.4757468564751122
 51
84.2165150971167691
  0
ARC
  5
3000
  8
0
 10
724.9459431126816753
 20
44.5788099362575778
 30
0.0
 40
0.2776139192285062
 50
356.4461055592308867
 51
27.2026719843895393
  0
ARC
  5
3001
  8
0
 10
725.1898359600511412
 20
44.5635566481693601
 30
0.0
 40
0.0332447506627287
 50
328.9722808826559231
 51
356.6282285645032175
  0
ARC
  5
3002
  8
0
 10
725.21499623828322
 20
44.5490627698096588
 30
0.0
 40
0.0042491439307343
 50
237.8692708559520099
 51
321.5505693148473938
  0
ARC
  5
3003
  8
0
 10
725.2329947946451512
 20
44.5706296155028383
 30
0.0
 40
0.0323062219097242
 50
200.2506378239806111
 51
231.1652332110068926
  0
ARC
  5
3004
  8
0
 10
725.1960579615024471
 20
44.5449549811154668
 30
0.0
 40
0.0159360803450625
 50
65.4250833563631176
 51
101.8619089542040967
  0
LINE
  5
3005
  8
0
 10
725.150264016994015
 20
44.4216489555925023
 30
0.0
 11
725.110825233818673
 21
44.4130861735118927
 31
0.0
  0
LINE
  5
3006
  8
0
 10
725.1288603614245858
 20
44.5479357125168391
 30
0.0
 11
725.0868149766780562
 21
44.5388069960827622
 31
0.0
  0
ARC
  5
3007
  8
0
 10
725.1035099423379506
 20
44.5074803408898276
 30
0.0
 40
0.0354976225113896
 50
118.0545653389807939
 51
183.3245551863043943
  0
ARC
  5
3008
  8
0
 10
725.2482280324676367
 20
44.5047998474642768
 30
0.0
 40
0.1801570455534471
 50
179.8022090284617036
 51
206.9299190247344029
  0
ARC
  5
3009
  8
0
 10
725.1069657177198451
 20
44.4359253884218788
 30
0.0
 40
0.0231630223032936
 50
213.3050277859323103
 51
279.5915906210365165
  0
ARC
  5
300A
  8
0
 10
725.0276924187326131
 20
44.46247517041013
 30
0.0
 40
0.0584154995861384
 50
346.2887696444274752
 51
34.2036139279627704
  0
ARC
  5
300B
  8
0
 10
725.1355110729510898
 20
44.481964558560577
 30
0.0
 40
0.0609850955094532
 50
167.3571046296337101
 51
213.1352787510151074
  0
ARC
  5
300C
  8
0
 10
725.1252035300270791
 20
44.5638322277159986
 30
0.0
 40
0.0163117016692706
 50
282.9549310501192849
 51
314.8297879098411158
  0
ARC
  5
300D
  8
0
 10
725.1939413089538675
 20
44.5479465488686728
 30
0.0
 40
0.0574005737389064
 50
172.6327797538795039
 51
175.6864585698558017
  0
ARC
  5
300E
  8
0
 10
724.9034248870691499
 20
44.4399081317390596
 30
0.0
 40
0.2776139192285062
 50
356.4461055592308867
 51
23.9930365385855104
  0
ARC
  5
300F
  8
0
 10
725.1473177344385022
 20
44.4246548436508135
 30
0.0
 40
0.0332447506627287
 50
328.9722808826559231
 51
356.6282285645032175
  0
ARC
  5
3010
  8
0
 10
725.1724780126704673
 20
44.4101609652911122
 30
0.0
 40
0.0042491439307343
 50
237.8692708559520099
 51
321.5505693148473938
  0
ARC
  5
3011
  8
0
 10
725.1904765690327395
 20
44.4317278109842775
 30
0.0
 40
0.0323062219097242
 50
200.2506378239806111
 51
231.1652332110068926
  0
ARC
  5
3012
  8
0
 10
725.1535397358898081
 20
44.4060531765969131
 30
0.0
 40
0.0159360803450625
 50
65.4250833563631176
 51
101.8619089542040967
  0
LINE
  5
3013
  8
0
 10
725.0547763588187991
 20
44.5550001396103994
 30
0.0
 11
725.0153375756433434
 21
44.5464373575297472
 31
0.0
  0
LINE
  5
3014
  8
0
 10
725.0333727032493698
 20
44.6812868965347079
 30
0.0
 11
724.9913273185029539
 21
44.6721581801006735
 31
0.0
  0
ARC
  5
3015
  8
0
 10
725.0080222841627346
 20
44.6408315249076892
 30
0.0
 40
0.0354976225113896
 50
118.0545653389807939
 51
183.3245551863043943
  0
ARC
  5
3016
  8
0
 10
725.1527403742924207
 20
44.6381510314821526
 30
0.0
 40
0.1801570455534471
 50
179.8022090284617036
 51
206.9299190247344029
  0
ARC
  5
3017
  8
0
 10
725.0114780595445154
 20
44.5692765724397688
 30
0.0
 40
0.0231630223032936
 50
213.3050277859323103
 51
279.5915906210365165
  0
ARC
  5
3018
  8
0
 10
724.9322047605572834
 20
44.59582635442802
 30
0.0
 40
0.0584154995861384
 50
346.2887696444274752
 51
34.2036139279627704
  0
ARC
  5
3019
  8
0
 10
725.0400234147757601
 20
44.6153157425784386
 30
0.0
 40
0.0609850955094532
 50
167.3571046296337101
 51
213.1352787510151074
  0
ARC
  5
301A
  8
0
 10
725.0297158718517494
 20
44.6971834117339029
 30
0.0
 40
0.0163117016692706
 50
282.9549310501192849
 51
314.8297879098411158
  0
ARC
  5
301B
  8
0
 10
725.0984536507786515
 20
44.681297732886577
 30
0.0
 40
0.0574005737389064
 50
161.8707525490262071
 51
175.6864585698558017
  0
ARC
  5
301C
  8
0
 10
725.051087676393081
 20
44.6966284205696809
 30
0.0
 40
0.0076175378204607
 50
108.0913854822384934
 51
160.6006672084315881
  0
ARC
  5
301D
  8
0
 10
725.0478807460592634
 20
44.6955618295257935
 30
0.0
 40
0.0083500397209128
 50
33.4757468564751122
 51
84.2165150971167691
  0
ARC
  5
301E
  8
0
 10
724.8079372288939339
 20
44.5732593157569283
 30
0.0
 40
0.2776139192285062
 50
356.4461055592308867
 51
27.2026719843895393
  0
ARC
  5
301F
  8
0
 10
725.0518300762632862
 20
44.5580060276687107
 30
0.0
 40
0.0332447506627287
 50
328.9722808826559231
 51
356.6282285645032175
  0
ARC
  5
3020
  8
0
 10
725.0769903544952513
 20
44.5435121493089667
 30
0.0
 40
0.0042491439307343
 50
237.8692708559520099
 51
321.5505693148473938
  0
ARC
  5
3021
  8
0
 10
725.0949889108574098
 20
44.5650789950021817
 30
0.0
 40
0.0323062219097242
 50
200.2506378239806111
 51
231.1652332110068926
  0
ARC
  5
3022
  8
0
 10
725.0580520777145921
 20
44.5394043606148102
 30
0.0
 40
0.0159360803450625
 50
65.4250833563631176
 51
101.8619089542040967
  0
LINE
  5
3023
  8
0
 10
725.0913432641026475
 20
44.9437057013954302
 30
0.0
 11
725.0519044809274192
 21
44.935142919314778
 31
0.0
  0
LINE
  5
3024
  8
0
 10
725.0699396085333319
 20
45.0699924583197387
 30
0.0
 11
725.027894223786916
 21
45.0608637418856901
 31
0.0
  0
ARC
  5
3025
  8
0
 10
725.0445891894468105
 20
45.0295370866927271
 30
0.0
 40
0.0354976225113896
 50
118.0545653389807939
 51
183.3245551863043943
  0
ARC
  5
3026
  8
0
 10
725.1893072795763828
 20
45.0268565932671834
 30
0.0
 40
0.1801570455534471
 50
179.8022090284617036
 51
206.9299190247344029
  0
ARC
  5
3027
  8
0
 10
725.0480449648285912
 20
44.9579821342247712
 30
0.0
 40
0.0231630223032936
 50
213.3050277859323103
 51
279.5915906210365165
  0
ARC
  5
3028
  8
0
 10
724.9687716658413592
 20
44.9845319162130295
 30
0.0
 40
0.0584154995861384
 50
346.2887696444274752
 51
34.2036139279627704
  0
ARC
  5
3029
  8
0
 10
725.0765903200598359
 20
45.0040213043634765
 30
0.0
 40
0.0609850955094532
 50
167.3571046296337101
 51
213.1352787510151074
  0
ARC
  5
302A
  8
0
 10
725.0662827771358252
 20
45.0858889735189123
 30
0.0
 40
0.0163117016692706
 50
282.9549310501192849
 51
314.8297879098411158
  0
ARC
  5
302B
  8
0
 10
725.135020556062841
 20
45.0700032946716007
 30
0.0
 40
0.0574005737389064
 50
161.8707525490262071
 51
175.6864585698558017
  0
ARC
  5
302C
  8
0
 10
725.0876545816771568
 20
45.0853339823547117
 30
0.0
 40
0.0076175378204607
 50
108.0913854822384934
 51
160.6006672084315881
  0
ARC
  5
302D
  8
0
 10
725.0844476513434529
 20
45.0842673913107888
 30
0.0
 40
0.0083500397209128
 50
33.4757468564751122
 51
84.2165150971167691
  0
ARC
  5
302E
  8
0
 10
724.844504134177896
 20
44.9619648775419591
 30
0.0
 40
0.2776139192285062
 50
356.4461055592308867
 51
27.2026719843895393
  0
ARC
  5
302F
  8
0
 10
725.0883969815472483
 20
44.9467115894537415
 30
0.0
 40
0.0332447506627287
 50
328.9722808826559231
 51
356.6282285645032175
  0
ARC
  5
3030
  8
0
 10
725.1135572597794408
 20
44.9322177110940117
 30
0.0
 40
0.0042491439307343
 50
237.8692708559520099
 51
321.5505693148473938
  0
ARC
  5
3031
  8
0
 10
725.1315558161413719
 20
44.9537845567872125
 30
0.0
 40
0.0323062219097242
 50
200.2506378239806111
 51
231.1652332110068926
  0
ARC
  5
3032
  8
0
 10
725.0946189829985542
 20
44.9281099223998126
 30
0.0
 40
0.0159360803450625
 50
65.4250833563631176
 51
101.8619089542040967
  0
LINE
  5
3033
  8
0
 10
725.0323545024585883
 20
44.866354211960072
 30
0.0
 11
724.9929157192832463
 21
44.8577914298794269
 31
0.0
  0
LINE
  5
3034
  8
0
 10
725.010950846889159
 20
44.9926409688843805
 30
0.0
 11
724.9689054621428568
 21
44.9835122524503319
 31
0.0
  0
ARC
  5
3035
  8
0
 10
724.9856004278026376
 20
44.952185597257369
 30
0.0
 40
0.0354976225113896
 50
118.0545653389807939
 51
183.3245551863043943
  0
ARC
  5
3036
  8
0
 10
725.1303185179322099
 20
44.9495051038318323
 30
0.0
 40
0.1801570455534471
 50
179.8022090284617036
 51
206.9299190247344029
  0
ARC
  5
3037
  8
0
 10
724.9890562031843046
 20
44.8806306447894201
 30
0.0
 40
0.0231630223032936
 50
213.3050277859323103
 51
279.5915906210365165
  0
ARC
  5
3038
  8
0
 10
724.9097829041971863
 20
44.9071804267776713
 30
0.0
 40
0.0584154995861384
 50
346.2887696444274752
 51
34.2036139279627704
  0
ARC
  5
3039
  8
0
 10
725.0176015584155493
 20
44.9266698149281183
 30
0.0
 40
0.0609850955094532
 50
167.3571046296337101
 51
213.1352787510151074
  0
ARC
  5
303A
  8
0
 10
725.0072940154916523
 20
45.008537484083547
 30
0.0
 40
0.0163117016692706
 50
282.9549310501192849
 51
288.072716439486328
  0
ARC
  5
303B
  8
0
 10
724.7855153725338369
 20
44.884613388106601
 30
0.0
 40
0.2776139192285062
 50
356.4461055592308867
 51
10.7756542224832206
  0
ARC
  5
303C
  8
0
 10
725.0294082199029617
 20
44.8693601000183833
 30
0.0
 40
0.0332447506627287
 50
328.9722808826559231
 51
356.6282285645032175
  0
ARC
  5
303D
  8
0
 10
725.0545684981352679
 20
44.8548662216586465
 30
0.0
 40
0.0042491439307343
 50
237.8692708559520099
 51
321.5505693148473938
  0
ARC
  5
303E
  8
0
 10
725.0725670544973127
 20
44.8764330673518472
 30
0.0
 40
0.0323062219097242
 50
200.2506378239806111
 51
231.1652332110068926
  0
ARC
  5
303F
  8
0
 10
725.0356302213543813
 20
44.8507584329644473
 30
0.0
 40
0.0159360803450625
 50
65.4250833563631176
 51
101.8619089542040967
  0
LINE
  5
3040
  8
0
 10
725.0043401752622003
 20
45.2799688071082684
 30
0.0
 11
724.9645614122944153
 21
45.2731578694301788
 31
0.0
  0
LINE
  5
3041
  8
0
 10
724.9885402125568135
 20
45.4070782978031104
 30
0.0
 11
724.9461323779556778
 21
45.3998172092721504
 31
0.0
  0
ARC
  5
3042
  8
0
 10
724.9614261625716836
 20
45.3677831437156627
 30
0.0
 40
0.0354976225113896
 50
115.5208606742001933
 51
180.7908505215245896
  0
ARC
  5
3043
  8
0
 10
725.1058842779679026
 20
45.358707706976837
 30
0.0
 40
0.1801570455534471
 50
177.2685043636816999
 51
204.3962143599545982
  0
ARC
  5
3044
  8
0
 10
724.9617153242380709
 20
45.2961453744056826
 30
0.0
 40
0.0231630223032936
 50
210.7713231211504876
 51
277.0578859562581897
  0
ARC
  5
3045
  8
0
 10
724.8836932119401126
 20
45.3261736418964674
 30
0.0
 40
0.0584154995861384
 50
343.7550649796480116
 51
31.6699092631816193
  0
ARC
  5
3046
  8
0
 10
724.9922680303760671
 20
45.340877629434587
 30
0.0
 40
0.0609850955094532
 50
164.8233999648541044
 51
210.601574086234308
  0
ARC
  5
3047
  8
0
 10
724.9855896945924769
 20
45.4231209302270429
 30
0.0
 40
0.0163117016692706
 50
280.4212263853382865
 51
312.2960832450611974
  0
ARC
  5
3048
  8
0
 10
725.0535580152987905
 20
45.4042120850851632
 30
0.0
 40
0.0574005737389064
 50
159.3370478842454929
 51
173.1527539050763949
  0
ARC
  5
3049
  8
0
 10
725.0069160712916982
 20
45.4216216966134425
 30
0.0
 40
0.0076175378204607
 50
105.5576808174589019
 51
158.0669625436507886
  0
ARC
  5
304A
  8
0
 10
725.0036651252146385
 20
45.4206979172973888
 30
0.0
 40
0.0083500397209128
 50
30.9420421916941812
 51
81.6828104323338948
  0
ARC
  5
304B
  8
0
 10
724.7585495427232445
 20
45.3091221693779929
 30
0.0
 40
0.2776139192285062
 50
353.9124008944522188
 51
24.6689673196089316
  0
ARC
  5
304C
  8
0
 10
725.0015296545498131
 20
45.2831020031188132
 30
0.0
 40
0.0332447506627287
 50
326.4385762178749815
 51
354.0945238997223896
  0
ARC
  5
304D
  8
0
 10
725.0260246038242258
 20
45.2675100317658234
 30
0.0
 40
0.0042491439307343
 50
235.3355661911708978
 51
319.0168646500677028
  0
ARC
  5
304E
  8
0
 10
725.0449589718189145
 20
45.2882601299080818
 30
0.0
 40
0.0323062219097242
 50
197.7169331592004937
 51
228.6315285462248994
  0
ARC
  5
304F
  8
0
 10
725.0069232479731909
 20
45.2642434647547702
 30
0.0
 40
0.0159360803450625
 50
62.8913786915842792
 51
99.3282042894275747
  0
LINE
  5
3050
  8
0
 10
724.9519998337184461
 20
45.2016829106815408
 30
0.0
 11
724.9122210707505474
 21
45.1948719730034369
 31
0.0
  0
LINE
  5
3051
  8
0
 10
724.9284566736481565
 20
45.327466607637831
 30
0.0
 11
724.8937920364119236
 21
45.3215313128454227
 31
0.0
  0
ARC
  5
3052
  8
0
 10
724.9090858210281567
 20
45.2894972472889066
 30
0.0
 40
0.0354976225113896
 50
115.5208606742001933
 51
180.7908505215245896
  0
ARC
  5
3053
  8
0
 10
725.0535439364241483
 20
45.2804218105501093
 30
0.0
 40
0.1801570455534471
 50
177.2685043636816999
 51
204.3962143599545982
  0
ARC
  5
3054
  8
0
 10
724.909374982694203
 20
45.2178594779789407
 30
0.0
 40
0.0231630223032936
 50
210.7713231211504876
 51
277.0578859562581897
  0
ARC
  5
3055
  8
0
 10
724.8313528703962447
 20
45.247887745469761
 30
0.0
 40
0.0584154995861384
 50
343.7550649796480116
 51
31.6699092631816193
  0
ARC
  5
3056
  8
0
 10
724.9399276888324266
 20
45.2625917330078593
 30
0.0
 40
0.0609850955094532
 50
164.8233999648541044
 51
210.601574086234308
  0
ARC
  5
3057
  8
0
 10
724.7062092011794903
 20
45.2308362729512368
 30
0.0
 40
0.2776139192285062
 50
353.9124008944522188
 51
9.3267176561851741
  0
ARC
  5
3058
  8
0
 10
724.9491893130059452
 20
45.2048161066920713
 30
0.0
 40
0.0332447506627287
 50
326.4385762178749815
 51
354.0945238997223896
  0
ARC
  5
3059
  8
0
 10
724.9736842622802442
 20
45.1892241353390887
 30
0.0
 40
0.0042491439307343
 50
235.3355661911708978
 51
319.0168646500677028
  0
ARC
  5
305A
  8
0
 10
724.9926186302750466
 20
45.2099742334813399
 30
0.0
 40
0.0323062219097242
 50
197.7169331592004937
 51
228.6315285462248994
  0
ARC
  5
305B
  8
0
 10
724.9545829064294367
 20
45.1859575683280283
 30
0.0
 40
0.0159360803450625
 50
62.8913786915842792
 51
99.3282042894275747
  0
LINE
  5
305C
  8
0
 10
724.9103640707859313
 20
45.3802966613478702
 30
0.0
 11
724.8705853078180326
 21
45.3734857236698019
 31
0.0
  0
LINE
  5
305D
  8
0
 10
724.8945641080804307
 20
45.507406152042698
 30
0.0
 11
724.8521562734794088
 21
45.5001450635117521
 31
0.0
  0
ARC
  5
305E
  8
0
 10
724.8674500580955282
 20
45.4681109979552502
 30
0.0
 40
0.0354976225113896
 50
115.5208606742001933
 51
180.7908505215245896
  0
ARC
  5
305F
  8
0
 10
725.0119081734915198
 20
45.4590355612164316
 30
0.0
 40
0.1801570455534471
 50
177.2685043636816999
 51
204.3962143599545982
  0
ARC
  5
3060
  8
0
 10
724.8677392197616882
 20
45.3964732286452701
 30
0.0
 40
0.0231630223032936
 50
210.7713231211504876
 51
277.0578859562581897
  0
ARC
  5
3061
  8
0
 10
724.7897171074637299
 20
45.4265014961360905
 30
0.0
 40
0.0584154995861384
 50
343.7550649796480116
 51
31.6699092631816193
  0
ARC
  5
3062
  8
0
 10
724.8982919258997981
 20
45.4412054836742172
 30
0.0
 40
0.0609850955094532
 50
164.8233999648541044
 51
210.601574086234308
  0
ARC
  5
3063
  8
0
 10
724.8916135901159805
 20
45.5234487844666731
 30
0.0
 40
0.0163117016692706
 50
280.4212263853382865
 51
312.2960832450611974
  0
ARC
  5
3064
  8
0
 10
724.9595819108226351
 20
45.5045399393247507
 30
0.0
 40
0.0574005737389064
 50
159.3370478842454929
 51
173.1527539050763949
  0
ARC
  5
3065
  8
0
 10
724.9129399668154292
 20
45.5219495508530372
 30
0.0
 40
0.0076175378204607
 50
105.5576808174589019
 51
158.0669625436507886
  0
ARC
  5
3066
  8
0
 10
724.9096890207383694
 20
45.5210257715370119
 30
0.0
 40
0.0083500397209128
 50
30.9420421916941812
 51
81.6828104323338948
  0
ARC
  5
3067
  8
0
 10
724.6645734382467481
 20
45.4094500236175804
 30
0.0
 40
0.2776139192285062
 50
357.5217814906446279
 51
24.6689673196089316
  0
ARC
  5
3068
  8
0
 10
724.9509828673425318
 20
45.3885879841476694
 30
0.0
 40
0.0323062219097242
 50
197.7169331592004937
 51
219.1537603862109904
  0
ARC
  5
3069
  8
0
 10
724.9129471434968082
 20
45.3645713189943933
 30
0.0
 40
0.0159360803450625
 50
62.8913786915842792
 51
99.3282042894275747
  0
LINE
  5
306A
  8
0
 10
724.9344800819152397
 20
45.5455239599158404
 30
0.0
 11
724.894701318947341
 21
45.5387130222377721
 31
0.0
  0
LINE
  5
306B
  8
0
 10
724.9186801192097391
 20
45.6726334506106681
 30
0.0
 11
724.8762722846087172
 21
45.6653723620797223
 31
0.0
  0
ARC
  5
306C
  8
0
 10
724.8915660692248366
 20
45.6333382965232204
 30
0.0
 40
0.0354976225113896
 50
115.5208606742001933
 51
180.7908505215245896
  0
ARC
  5
306D
  8
0
 10
725.0360241846208282
 20
45.6242628597844089
 30
0.0
 40
0.1801570455534471
 50
177.2685043636816999
 51
204.3962143599545982
  0
ARC
  5
306E
  8
0
 10
724.8918552308909966
 20
45.5617005272132403
 30
0.0
 40
0.0231630223032936
 50
210.7713231211504876
 51
277.0578859562581897
  0
ARC
  5
306F
  8
0
 10
724.8138331185930383
 20
45.5917287947040606
 30
0.0
 40
0.0584154995861384
 50
343.7550649796480116
 51
31.6699092631816193
  0
ARC
  5
3070
  8
0
 10
724.9224079370292202
 20
45.6064327822421873
 30
0.0
 40
0.0609850955094532
 50
164.8233999648541044
 51
210.601574086234308
  0
ARC
  5
3071
  8
0
 10
724.9157296012452889
 20
45.688676083034629
 30
0.0
 40
0.0163117016692706
 50
280.4212263853382865
 51
312.2960832450611974
  0
ARC
  5
3072
  8
0
 10
724.9836979219519435
 20
45.669767237892728
 30
0.0
 40
0.0574005737389064
 50
159.3370478842454929
 51
173.1527539050763949
  0
ARC
  5
3073
  8
0
 10
724.9370559779447376
 20
45.6871768494210002
 30
0.0
 40
0.0076175378204607
 50
105.5576808174589019
 51
158.0669625436507886
  0
ARC
  5
3074
  8
0
 10
724.9338050318676778
 20
45.686253070104982
 30
0.0
 40
0.0083500397209128
 50
30.9420421916941812
 51
81.6828104323338948
  0
ARC
  5
3075
  8
0
 10
724.6886894493760565
 20
45.5746773221855506
 30
0.0
 40
0.2776139192285062
 50
353.9124008944522188
 51
24.6689673196089316
  0
ARC
  5
3076
  8
0
 10
724.9316695612027388
 20
45.5486571559263993
 30
0.0
 40
0.0332447506627287
 50
326.4385762178749815
 51
354.0945238997223896
  0
ARC
  5
3077
  8
0
 10
724.9561645104771515
 20
45.5330651845733883
 30
0.0
 40
0.0042491439307343
 50
235.3355661911708978
 51
319.0168646500677028
  0
ARC
  5
3078
  8
0
 10
724.9750988784718402
 20
45.5538152827156395
 30
0.0
 40
0.0323062219097242
 50
197.7169331592004937
 51
228.6315285462248994
  0
ARC
  5
3079
  8
0
 10
724.9370631546261166
 20
45.5297986175623635
 30
0.0
 40
0.0159360803450625
 50
62.8913786915842792
 51
99.3282042894275747
  0
LINE
  5
307A
  8
0
 10
724.895069413743613
 20
45.7320207272402897
 30
0.0
 11
724.8552906507756006
 21
45.7252097895622001
 31
0.0
  0
LINE
  5
307B
  8
0
 10
724.8792694510382262
 20
45.8591302179351317
 30
0.0
 11
724.8368616164370906
 21
45.8518691294041716
 31
0.0
  0
ARC
  5
307C
  8
0
 10
724.8521554010530963
 20
45.8198350638476768
 30
0.0
 40
0.0354976225113896
 50
115.5208606742001933
 51
180.7908505215245896
  0
ARC
  5
307D
  8
0
 10
724.9966135164490879
 20
45.8107596271088582
 30
0.0
 40
0.1801570455534471
 50
177.2685043636816999
 51
204.3962143599545982
  0
ARC
  5
307E
  8
0
 10
724.8524445627194837
 20
45.7481972945376967
 30
0.0
 40
0.0231630223032936
 50
210.7713231211504876
 51
277.0578859562581897
  0
ARC
  5
307F
  8
0
 10
724.7744224504215254
 20
45.778225562028517
 30
0.0
 40
0.0584154995861384
 50
343.7550649796480116
 51
31.6699092631816193
  0
ARC
  5
3080
  8
0
 10
724.8829972688574799
 20
45.7929295495666508
 30
0.0
 40
0.0609850955094532
 50
164.8233999648541044
 51
210.601574086234308
  0
ARC
  5
3081
  8
0
 10
724.876318933073776
 20
45.875172850359057
 30
0.0
 40
0.0163117016692706
 50
280.4212263853382865
 51
312.2960832450611974
  0
ARC
  5
3082
  8
0
 10
724.9442872537803169
 20
45.8562640052171773
 30
0.0
 40
0.0574005737389064
 50
159.3370478842454929
 51
173.1527539050763949
  0
ARC
  5
3083
  8
0
 10
724.897645309773111
 20
45.8736736167454566
 30
0.0
 40
0.0076175378204607
 50
105.5576808174589019
 51
158.0669625436507886
  0
ARC
  5
3084
  8
0
 10
724.8943943636960512
 20
45.8727498374294314
 30
0.0
 40
0.0083500397209128
 50
30.9420421916941812
 51
81.6828104323338948
  0
ARC
  5
3085
  8
0
 10
724.6492787812045435
 20
45.761174089510007
 30
0.0
 40
0.2776139192285062
 50
353.9124008944522188
 51
24.6689673196089316
  0
ARC
  5
3086
  8
0
 10
724.8922588930312259
 20
45.7351539232508628
 30
0.0
 40
0.0332447506627287
 50
326.4385762178749815
 51
354.0945238997223896
  0
ARC
  5
3087
  8
0
 10
724.9167538423055248
 20
45.7195619518978376
 30
0.0
 40
0.0042491439307343
 50
235.3355661911708978
 51
319.0168646500677028
  0
ARC
  5
3088
  8
0
 10
724.9356882103000999
 20
45.740312050040103
 30
0.0
 40
0.0323062219097242
 50
197.7169331592004937
 51
228.6315285462248994
  0
ARC
  5
3089
  8
0
 10
724.8976524864546036
 20
45.7162953848868128
 30
0.0
 40
0.0159360803450625
 50
62.8913786915842792
 51
99.3282042894275747
  0
LINE
  5
308A
  8
0
 10
724.8501935646451102
 20
45.9511247529577176
 30
0.0
 11
724.8077857300439746
 21
45.9438636644267717
 31
0.0
  0
ARC
  5
308B
  8
0
 10
724.823079514660094
 20
45.9118295988702698
 30
0.0
 40
0.0354976225113896
 50
115.5208606742001933
 51
180.7908505215245896
  0
ARC
  5
308C
  8
0
 10
724.9675376300560856
 20
45.9027541621314512
 30
0.0
 40
0.1801570455534471
 50
177.2685043636816999
 51
204.3962143599545982
  0
ARC
  5
308D
  8
0
 10
724.823368676326254
 20
45.8401918295602897
 30
0.0
 40
0.0231630223032936
 50
210.7713231211504876
 51
253.0184177577812932
  0
ARC
  5
308E
  8
0
 10
724.745346564028182
 20
45.8702200970510816
 30
0.0
 40
0.0584154995861384
 50
343.7550649796480116
 51
31.6699092631816193
  0
ARC
  5
308F
  8
0
 10
724.8539213824644776
 20
45.8849240845892083
 30
0.0
 40
0.0609850955094532
 50
164.8233999648541044
 51
210.601574086234308
  0
ARC
  5
3090
  8
0
 10
724.84724304668066
 20
45.96716738538165
 30
0.0
 40
0.0163117016692706
 50
280.4212263853382865
 51
312.2960832450611974
  0
ARC
  5
3091
  8
0
 10
724.9152113673872009
 20
45.9482585402397703
 30
0.0
 40
0.0574005737389064
 50
159.3370478842454929
 51
173.1527539050763949
  0
ARC
  5
3092
  8
0
 10
724.868569423379995
 20
45.9656681517680568
 30
0.0
 40
0.0076175378204607
 50
105.5576808174589019
 51
158.0669625436507886
  0
ARC
  5
3093
  8
0
 10
724.8653184773029352
 20
45.9647443724520031
 30
0.0
 40
0.0083500397209128
 50
30.9420421916941812
 51
81.6828104323338948
  0
ARC
  5
3094
  8
0
 10
724.6202028948114275
 20
45.8531686245326
 30
0.0
 40
0.2776139192285062
 50
5.7219599714438569
 51
24.6689673196089316
  0
ARC
  5
3095
  8
0
 10
724.8606673327102499
 20
46.3008817984958796
 30
0.0
 40
0.0103391922787956
 50
115.0937054011830014
 51
187.135899790831786
  0
ARC
  5
3096
  8
0
 10
741.0223970024344453
 20
47.0805223616591419
 30
0.0
 40
16.1908327387391004
 50
182.7645933982238091
 51
183.9261134290570965
  0
ARC
  5
3097
  8
0
 10
741.0207989171649388
 20
47.0804208179999577
 30
0.0
 40
16.1892314512025699
 50
184.7820433081523106
 51
185.0040963684523945
  0
ARC
  5
3098
  8
0
 10
741.0207989171649388
 20
47.0804208179999577
 30
0.0
 40
16.1892314512025699
 50
185.4583296705625912
 51
185.5104080849224886
  0
ARC
  5
3099
  8
0
 10
741.0207989171649388
 20
47.0804208179999577
 30
0.0
 40
16.1892314512025699
 50
186.0466427580824984
 51
186.2171388864989865
  0
ARC
  5
309A
  8
0
 10
741.0207989171649388
 20
47.0804208179999577
 30
0.0
 40
16.1892314512025699
 50
186.6707208313584943
 51
187.3426104604571947
  0
ARC
  5
309B
  8
0
 10
741.0207989171649388
 20
47.0804208179999577
 30
0.0
 40
16.1892314512025699
 50
188.2564889315310097
 51
188.5395794540881127
  0
ARC
  5
309C
  8
0
 10
741.0207989171649388
 20
47.0804208179999577
 30
0.0
 40
16.1892314512025699
 50
188.9932600963097968
 51
189.4989568951511103
  0
ARC
  5
309D
  8
0
 10
741.0207989171649388
 20
47.0804208179999577
 30
0.0
 40
16.1892314512025699
 50
189.9445446732281084
 51
191.187482170006092
  0
LINE
  5
309E
  8
0
 10
724.9547204678926846
 20
45.0873482547350193
 30
0.0
 11
724.8975597256102219
 21
45.0749377556848572
 31
0.0
  0
ARC
  5
309F
  8
0
 10
724.914254691269889
 20
45.04361110049188
 30
0.0
 40
0.0354976225113896
 50
118.0545653389807939
 51
183.3245551863043943
  0
ARC
  5
30A0
  8
0
 10
725.177335970194008
 20
45.0690546218368269
 30
0.0
 40
0.2997833461917963
 50
185.2637103729996113
 51
201.4684176801929993
  0
ARC
  5
30A1
  8
0
 10
724.9177104666516698
 20
44.9720561480239596
 30
0.0
 40
0.0231630223032936
 50
213.3050277859323103
 51
251.5608398276654896
  0
LINE
  5
30A2
  8
0
 10
725.1199470639726314
 20
44.2933446324998883
 30
0.0
 11
725.0804907921882432
 21
44.2848628006108171
 31
0.0
  0
LINE
  5
30A3
  8
0
 10
725.092031623036064
 20
44.418219501880877
 30
0.0
 11
725.056738576777434
 21
44.4106326298185081
 31
0.0
  0
ARC
  5
30A4
  8
0
 10
725.0733692219869226
 20
44.3792717809161203
 30
0.0
 40
0.0354976225113896
 50
117.9369888266822954
 51
183.2069786740051995
  0
ARC
  5
30A5
  8
0
 10
725.2180815067758886
 20
44.3762943177463285
 30
0.0
 40
0.1801570455534471
 50
179.6846325161625941
 51
206.8123425124339008
  0
ARC
  5
30A6
  8
0
 10
725.0766781524733915
 20
44.3077098875285387
 30
0.0
 40
0.0231630223032936
 50
213.1874512736312113
 51
279.4740141087397092
  0
ARC
  5
30A7
  8
0
 10
724.997459503096934
 20
44.3344222900205622
 30
0.0
 40
0.0584154995861384
 50
346.17119313212919
 51
34.0860374156636894
  0
ARC
  5
30A8
  8
0
 10
725.1053179243897375
 20
44.3536903829252012
 30
0.0
 40
0.0609850955094532
 50
167.2395281173349986
 51
213.0177022387142074
  0
ARC
  5
30A9
  8
0
 10
724.873145923359175
 20
44.312110307748128
 30
0.0
 40
0.2776139192285062
 50
356.3285290469319193
 51
22.2582277285788201
  0
ARC
  5
30AA
  8
0
 10
725.1170069559908598
 20
44.2963565602832574
 30
0.0
 40
0.0332447506627287
 50
328.8547043703551935
 51
356.5106520522040228
  0
ARC
  5
30AB
  8
0
 10
725.1421374384196952
 20
44.2818110811393169
 30
0.0
 40
0.0042491439307343
 50
237.751694343650513
 51
321.4329928025483127
  0
ARC
  5
30AC
  8
0
 10
725.1601802141187818
 20
44.3033409466600787
 30
0.0
 40
0.0323062219097242
 50
200.1330613116807911
 51
231.0476566987059073
  0
ARC
  5
30AD
  8
0
 10
725.1231907719384253
 20
44.2777421642529418
 30
0.0
 40
0.0159360803450625
 50
65.3075068440639654
 51
101.7443324419063941
  0
ARC
  5
30AE
  8
0
 10
725.5455993716541343
 20
44.0386719697616726
 30
0.0
 40
0.4182870093394076
 50
181.4020265796347076
 51
188.7122040715962044
  0
ARC
  5
30AF
  8
0
 10
725.5556862388662012
 20
44.0424227274778772
 30
0.0
 40
0.4290402800066748
 50
193.8958145821140135
 51
202.6298305782547118
  0
ARC
  5
30B0
  8
0
 10
725.2271295371838278
 20
43.9857976370600383
 30
0.0
 40
0.1084280602304241
 50
124.3727422647122012
 51
156.8428112956123925
  0
ARC
  5
30B1
  8
0
 10
725.1460690317038598
 20
44.1169653833786128
 30
0.0
 40
0.0461569937498896
 50
295.4638353444229892
 51
328.1590101355076854
  0
ARC
  5
30B2
  8
0
 10
725.2165706396285714
 20
44.0977267499717271
 30
0.0
 40
0.0317053756553727
 50
160.0300870148984131
 51
189.2787774802818888
  0
ARC
  5
30B3
  8
0
 10
725.1893484104725758
 20
44.1078614484944111
 30
0.0
 40
0.0026684683168574
 50
59.6617015456337327
 51
164.9359334604893945
  0
ARC
  5
30B4
  8
0
 10
724.4852365122437732
 20
43.7758962699624234
 30
0.0
 40
0.7806463402294771
 50
3.6033335824394901
 51
9.1298620951039222
  0
ARC
  5
30B5
  8
0
 10
724.4852365122437732
 20
43.7758962699624234
 30
0.0
 40
0.7806463402294771
 50
18.5332519003921696
 51
25.3530129296056792
  0
ARC
  5
30B6
  8
0
 10
725.2312908552219142
 20
43.8247300867025729
 30
0.0
 40
0.0330495081027435
 50
338.3548720017275855
 51
0.396489566004095
  0
ARC
  5
30B7
  8
0
 10
725.259491324378132
 20
43.8136138966793212
 30
0.0
 40
0.0027381623172814
 50
239.9459425387611873
 51
336.8985951127585281
  0
ARC
  5
30B8
  8
0
 10
725.2686778006716395
 20
43.8265084916798671
 30
0.0
 40
0.0185600552813875
 50
211.9012705175859139
 51
235.3302786158141942
  0
ARC
  5
30B9
  8
0
 10
725.3995026472455265
 20
43.9053102040036194
 30
0.0
 40
0.1712830353620395
 50
207.5158591401736032
 51
211.1533439942662937
  0
ARC
  5
30BA
  8
0
 10
725.2351391035649613
 20
43.8089206353800478
 30
0.0
 40
0.0212831496819456
 50
54.1807748929778867
 51
84.5789631670191966
  0
ARC
  5
30BB
  8
0
 10
725.2367316140896492
 20
43.9205275244264897
 30
0.0
 40
0.0904198986273647
 50
229.1667160855955956
 51
270.2649928548008234
  0
ARC
  5
30BC
  8
0
 10
725.2339231720053476
 20
43.9111340730913682
 30
0.0
 40
0.0815753094749005
 50
204.4745231671006991
 51
226.344101529200799
  0
ARC
  5
30BD
  8
0
 10
724.885200752882497
 20
43.8707552289432101
 30
0.0
 40
0.2732496100776788
 50
2.0971473230025111
 51
26.4349392161634213
  0
ARC
  5
30BE
  8
0
 10
725.3285299927250662
 20
44.9392194541232399
 30
0.0
 40
0.4182870093394076
 50
178.5118686522565099
 51
198.2773132620474996
  0
ARC
  5
30BF
  8
0
 10
724.9907671854771252
 20
44.931749195796499
 30
0.0
 40
0.0824472556988815
 50
117.4318128226563971
 51
167.1522105063860124
  0
ARC
  5
30C0
  8
0
 10
724.9362026242404227
 20
45.0480017463144691
 30
0.0
 40
0.0461569937498896
 50
291.0538976168014074
 51
323.7490724078891731
  0
ARC
  5
30C1
  8
0
 10
725.0050162109969278
 20
45.0233990632697214
 30
0.0
 40
0.0317053756553727
 50
155.6201492872795882
 51
184.8688397526622111
  0
ARC
  5
30C2
  8
0
 10
724.9786538519914529
 20
45.0355969279199471
 30
0.0
 40
0.0026684683168574
 50
55.2517638180148367
 51
160.5259957328688074
  0
ARC
  5
30C3
  8
0
 10
724.2511010720480726
 20
44.7587551005492514
 30
0.0
 40
0.7806463402294771
 50
359.1933958548190731
 51
7.7966391346354751
  0
ARC
  5
30C4
  8
0
 10
724.2511010720480726
 20
44.7587551005492514
 30
0.0
 40
0.7806463402294771
 50
17.1984035505999309
 51
20.9430752019858097
  0
ARC
  5
30C5
  8
0
 10
724.9987015973532607
 20
44.7500787593079394
 30
0.0
 40
0.0330495081027435
 50
333.9449342741090163
 51
355.9865518383858216
  0
ARC
  5
30C6
  8
0
 10
725.0259638314047379
 20
44.7368270901380001
 30
0.0
 40
0.0027381623172814
 50
235.5360048111421065
 51
332.4886573851392768
  0
ARC
  5
30C7
  8
0
 10
725.0361146012046447
 20
44.7489771436106878
 30
0.0
 40
0.0185600552813875
 50
207.4913327899650994
 51
230.9203408881934081
  0
ARC
  5
30C8
  8
0
 10
725.1726113500008069
 20
44.8174861788856376
 30
0.0
 40
0.1712830353620395
 50
203.1059214125550909
 51
206.743406266647213
  0
ARC
  5
30C9
  8
0
 10
725.001322832962046
 20
44.7340202135981926
 30
0.0
 40
0.0212831496819456
 50
49.7708371653567312
 51
80.1690254393969468
  0
ARC
  5
30CA
  8
0
 10
725.0114923014035639
 20
44.8451742314473734
 30
0.0
 40
0.0904198986273647
 50
224.7567783579787886
 51
265.8550551271824816
  0
ARC
  5
30CB
  8
0
 10
725.0079698930053382
 20
44.8360245366982895
 30
0.0
 40
0.0815753094749005
 50
200.0645854394811067
 51
221.9341638015798992
  0
ARC
  5
30CC
  8
0
 10
724.6571750822563445
 20
44.8225791878674897
 30
0.0
 40
0.2732496100776788
 50
357.6872095953830808
 51
22.0250014885430403
  0
LINE
  5
30CD
  8
0
 10
725.3829412259109404
 20
43.8434652872415072
 30
0.0
 11
725.3439184383703378
 21
43.8331715557569623
 31
0.0
  0
LINE
  5
30CE
  8
0
 10
725.4212610264619343
 20
43.7212439538666473
 30
0.0
 11
725.3796591314644502
 21
43.7102698855770413
 31
0.0
  0
ARC
  5
30CF
  8
0
 10
725.3802957230210495
 20
43.7457617995174175
 30
0.0
 40
0.0354976225113896
 50
203.7024493692273097
 51
268.9724392165505833
  0
ARC
  5
30D0
  8
0
 10
725.507991461171855
 20
43.8139109676259508
 30
0.0
 40
0.1801570455534471
 50
180.0970855307973011
 51
207.2247955270696025
  0
ARC
  5
30D1
  8
0
 10
725.3508587872804583
 20
43.8110727512818912
 30
0.0
 40
0.0231630223032936
 50
107.4354139344930985
 51
173.7219767696005874
  0
ARC
  5
30D2
  8
0
 10
725.2923072279403414
 20
43.7513997946368534
 30
0.0
 40
0.0584154995861384
 50
352.8233906275689264
 51
40.738234911102829
  0
ARC
  5
30D3
  8
0
 10
725.3972074518196678
 20
43.7830327122703125
 30
0.0
 40
0.0609850955094532
 50
173.8917258045185861
 51
219.6698999258983918
  0
ARC
  5
30D4
  8
0
 10
725.4252270904416946
 20
43.7054217559202129
 30
0.0
 40
0.0163117016692706
 50
72.1972166456908724
 51
104.0720735054124049
  0
ARC
  5
30D5
  8
0
 10
725.4792395673860028
 20
43.7508077601350678
 30
0.0
 40
0.0574005737389064
 50
211.3405459856745097
 51
225.1562520065074864
  0
ARC
  5
30D6
  8
0
 10
725.4440127388392057
 20
43.7156277080475988
 30
0.0
 40
0.0076175378204607
 50
226.4263373471002012
 51
278.9356190732910932
  0
ARC
  5
30D7
  8
0
 10
725.4406713594468101
 20
43.7151205568115984
 30
0.0
 40
0.0083500397209128
 50
302.8104894584167823
 51
353.551257699058624
  0
ARC
  5
30D8
  8
0
 10
725.1713559518077545
 20
43.715033883923212
 30
0.0
 40
0.2776139192285062
 50
359.82433257114252
 51
30.5808989963008813
  0
ARC
  5
30D9
  8
0
 10
725.381682606437721
 20
43.8394488434242291
 30
0.0
 40
0.0332447506627287
 50
30.3987759910296305
 51
58.0547236728764275
  0
ARC
  5
30DA
  8
0
 10
725.3975090233351466
 20
43.8637929728769791
 30
0.0
 40
0.0042491439307343
 50
65.4764352406849497
 51
149.1577336995810015
  0
ARC
  5
30DB
  8
0
 10
725.4233422003892429
 20
43.8527601206815518
 30
0.0
 40
0.0323062219097242
 50
155.8617713445260051
 51
186.7763667315518035
  0
ARC
  5
30DC
  8
0
 10
725.3787723274492691
 20
43.8588464101648015
 30
0.0
 40
0.0159360803450625
 50
285.1650956013270957
 51
321.601921199170306
  0
LINE
  5
30DD
  8
0
 10
725.4807484993162916
 20
43.4231638461660623
 30
0.0
 11
725.4422485332370343
 21
43.4110604802208613
 31
0.0
  0
LINE
  5
30DE
  8
0
 10
725.5247295442907216
 20
43.3028636835345822
 30
0.0
 11
725.4836850252485192
 21
43.2899603778029416
 31
0.0
  0
ARC
  5
30DF
  8
0
 10
725.4826648312727002
 20
43.3254433372090091
 30
0.0
 40
0.0354976225113896
 50
206.3769052042121075
 51
271.6468950515380811
  0
ARC
  5
30E0
  8
0
 10
725.6070415643971501
 20
43.399476700722083
 30
0.0
 40
0.1801570455534471
 50
182.7715413657842873
 51
209.8992513620578109
  0
ARC
  5
30E1
  8
0
 10
725.4502124773332525
 20
43.3893095906607797
 30
0.0
 40
0.0231630223032936
 50
110.1098697694816053
 51
176.3964326045866926
  0
ARC
  5
30E2
  8
0
 10
725.3945091001542096
 20
43.3269695503432786
 30
0.0
 40
0.0584154995861384
 50
355.497846462554719
 51
43.4126907460892184
  0
ARC
  5
30E3
  8
0
 10
725.4978190372256677
 20
43.3634627736897968
 30
0.0
 40
0.0609850955094532
 50
176.5661816395052028
 51
222.3443557608829906
  0
ARC
  5
30E4
  8
0
 10
725.5294295696803601
 20
43.2872437804400718
 30
0.0
 40
0.0163117016692706
 50
74.8716724806773755
 51
106.7465293404002011
  0
ARC
  5
30E5
  8
0
 10
725.5812654536116497
 20
43.3351006313740683
 30
0.0
 40
0.0574005737389064
 50
214.0150018206635991
 51
227.8307078414900957
  0
ARC
  5
30E6
  8
0
 10
725.5477185352534661
 20
43.2983151752397006
 30
0.0
 40
0.0076175378204607
 50
229.1007931820855958
 51
281.6100749082797847
  0
ARC
  5
30E7
  8
0
 10
725.5444044596081312
 20
43.2976526639291066
 30
0.0
 40
0.0083500397209128
 50
305.4849452934010969
 51
356.2257135340440755
  0
ARC
  5
30E8
  8
0
 10
725.2753864407187621
 20
43.2849995292669973
 30
0.0
 40
0.2776139192285062
 50
2.4987884061276029
 51
33.2553548312866596
  0
ARC
  5
30E9
  8
0
 10
725.4796786624916649
 20
43.41909304856798
 30
0.0
 40
0.0332447506627287
 50
33.0732318260159417
 51
60.729179507863229
  0
ARC
  5
30EA
  8
0
 10
725.4943519167632076
 20
43.4441491400371333
 30
0.0
 40
0.0042491439307343
 50
68.1508910756726181
 51
151.832189534566993
  0
ARC
  5
30EB
  8
0
 10
725.5206717608732561
 20
43.4343337098232425
 30
0.0
 40
0.0323062219097242
 50
158.5362271795127072
 51
189.4508225665371128
  0
ARC
  5
30EC
  8
0
 10
725.4758664414273426
 20
43.4383336901841375
 30
0.0
 40
0.0159360803450625
 50
287.8395514363127745
 51
324.2763770341546206
  0
LINE
  5
30ED
  8
0
 10
725.374993187163227
 20
43.52274961201217
 30
0.0
 11
725.336493221083856
 21
43.5106462460669832
 31
0.0
  0
LINE
  5
30EE
  8
0
 10
725.4189742321376571
 20
43.4024494493806969
 30
0.0
 11
725.3779297130954546
 21
43.3895461436490493
 31
0.0
  0
ARC
  5
30EF
  8
0
 10
725.3769095191196357
 20
43.4250291030551168
 30
0.0
 40
0.0354976225113896
 50
206.3769052042121075
 51
271.6468950515380811
  0
ARC
  5
30F0
  8
0
 10
725.5012862522439718
 20
43.499062466568212
 30
0.0
 40
0.1801570455534471
 50
182.7715413657842873
 51
209.8992513620578109
  0
ARC
  5
30F1
  8
0
 10
725.344457165180188
 20
43.4888953565069016
 30
0.0
 40
0.0231630223032936
 50
110.1098697694816053
 51
176.3964326045866926
  0
ARC
  5
30F2
  8
0
 10
725.288753788001145
 20
43.4265553161893934
 30
0.0
 40
0.0584154995861384
 50
355.497846462554719
 51
43.4126907460892184
  0
ARC
  5
30F3
  8
0
 10
725.3920637250727168
 20
43.4630485395359187
 30
0.0
 40
0.0609850955094532
 50
176.5661816395052028
 51
222.3443557608829906
  0
ARC
  5
30F4
  8
0
 10
725.4236742575272956
 20
43.3868295462861511
 30
0.0
 40
0.0163117016692706
 50
74.8716724806773755
 51
106.7465293404002011
  0
ARC
  5
30F5
  8
0
 10
725.4755101414585852
 20
43.4346863972201902
 30
0.0
 40
0.0574005737389064
 50
214.0150018206635991
 51
217.0686806366389021
  0
ARC
  5
30F6
  8
0
 10
725.1696311285655838
 20
43.3845852951131121
 30
0.0
 40
0.2776139192285062
 50
5.7084238519335679
 51
33.2553548312866596
  0
ARC
  5
30F7
  8
0
 10
725.3739233503384867
 20
43.5186788144141019
 30
0.0
 40
0.0332447506627287
 50
33.0732318260159417
 51
60.729179507863229
  0
ARC
  5
30F8
  8
0
 10
725.3885966046100293
 20
43.543734905883241
 30
0.0
 40
0.0042491439307343
 50
68.1508910756726181
 51
151.832189534566993
  0
ARC
  5
30F9
  8
0
 10
725.4149164487203052
 20
43.5339194756693573
 30
0.0
 40
0.0323062219097242
 50
158.5362271795127072
 51
189.4508225665371128
  0
ARC
  5
30FA
  8
0
 10
725.3701111292741643
 20
43.5379194560302309
 30
0.0
 40
0.0159360803450625
 50
287.8395514363127745
 51
324.2763770341546206
  0
LINE
  5
30FB
  8
0
 10
725.3581237564014828
 20
43.3596059530837792
 30
0.0
 11
725.3196237903221117
 21
43.3475025871385924
 31
0.0
  0
LINE
  5
30FC
  8
0
 10
725.4021048013757991
 20
43.2393057904523275
 30
0.0
 11
725.3610602823337103
 21
43.2264024847206869
 31
0.0
  0
ARC
  5
30FD
  8
0
 10
725.360040088357664
 20
43.2618854441267473
 30
0.0
 40
0.0354976225113896
 50
206.3769052042121075
 51
271.6468950515380811
  0
ARC
  5
30FE
  8
0
 10
725.4844168214822275
 20
43.335918807639807
 30
0.0
 40
0.1801570455534471
 50
182.7715413657842873
 51
209.8992513620578109
  0
ARC
  5
30FF
  8
0
 10
725.32758773441833
 20
43.3257516975785393
 30
0.0
 40
0.0231630223032936
 50
110.1098697694816053
 51
176.3964326045866926
  0
ARC
  5
3100
  8
0
 10
725.2718843572392871
 20
43.263411657261031
 30
0.0
 40
0.0584154995861384
 50
355.497846462554719
 51
43.4126907460892184
  0
ARC
  5
3101
  8
0
 10
725.3751942943108588
 20
43.2999048806075493
 30
0.0
 40
0.0609850955094532
 50
176.5661816395052028
 51
222.3443557608829906
  0
ARC
  5
3102
  8
0
 10
725.4068048267655513
 20
43.2236858873577887
 30
0.0
 40
0.0163117016692706
 50
74.8716724806773755
 51
106.7465293404002011
  0
ARC
  5
3103
  8
0
 10
725.4586407106968409
 20
43.2715427382918207
 30
0.0
 40
0.0574005737389064
 50
214.0150018206635991
 51
227.8307078414900957
  0
ARC
  5
3104
  8
0
 10
725.4250937923386573
 20
43.2347572821574602
 30
0.0
 40
0.0076175378204607
 50
229.1007931820855958
 51
281.6100749082797847
  0
ARC
  5
3105
  8
0
 10
725.4217797166932087
 20
43.2340947708468306
 30
0.0
 40
0.0083500397209128
 50
305.4849452934010969
 51
356.2257135340440755
  0
ARC
  5
3106
  8
0
 10
725.1527616978039532
 20
43.2214416361847213
 30
0.0
 40
0.2776139192285062
 50
2.4987884061276029
 51
33.2553548312866596
  0
ARC
  5
3107
  8
0
 10
725.3570539195768561
 20
43.3555351554856969
 30
0.0
 40
0.0332447506627287
 50
33.0732318260159417
 51
60.729179507863229
  0
ARC
  5
3108
  8
0
 10
725.371727173848285
 20
43.3805912469548787
 30
0.0
 40
0.0042491439307343
 50
68.1508910756726181
 51
151.832189534566993
  0
ARC
  5
3109
  8
0
 10
725.3980470179584472
 20
43.3707758167409665
 30
0.0
 40
0.0323062219097242
 50
158.5362271795127072
 51
189.4508225665371128
  0
ARC
  5
310A
  8
0
 10
725.35324169851242
 20
43.3747757971018828
 30
0.0
 40
0.0159360803450625
 50
287.8395514363127745
 51
324.2763770341546206
  0
LINE
  5
310B
  8
0
 10
725.5381082752537623
 20
43.0340941231733609
 30
0.0
 11
725.4996083091745049
 21
43.0219907572281883
 31
0.0
  0
LINE
  5
310C
  8
0
 10
725.582089320228306
 20
42.9137939605419092
 30
0.0
 11
725.5410448011859899
 21
42.9008906548102615
 31
0.0
  0
ARC
  5
310D
  8
0
 10
725.5400246072101709
 20
42.936373614216329
 30
0.0
 40
0.0354976225113896
 50
206.3769052042121075
 51
271.6468950515380811
  0
ARC
  5
310E
  8
0
 10
725.6644013403347344
 20
43.0104069777294171
 30
0.0
 40
0.1801570455534471
 50
182.7715413657842873
 51
209.8992513620578109
  0
ARC
  5
310F
  8
0
 10
725.5075722532708369
 20
43.0002398676681068
 30
0.0
 40
0.0231630223032936
 50
110.1098697694816053
 51
176.3964326045866926
  0
ARC
  5
3110
  8
0
 10
725.4518688760916802
 20
42.9378998273505985
 30
0.0
 40
0.0584154995861384
 50
355.497846462554719
 51
43.4126907460892184
  0
ARC
  5
3111
  8
0
 10
725.555178813163252
 20
42.974393050697131
 30
0.0
 40
0.0609850955094532
 50
176.5661816395052028
 51
222.3443557608829906
  0
ARC
  5
3112
  8
0
 10
725.5867893456179445
 20
42.8981740574473633
 30
0.0
 40
0.0163117016692706
 50
74.8716724806773755
 51
106.7465293404002011
  0
ARC
  5
3113
  8
0
 10
725.6386252295492341
 20
42.9460309083814025
 30
0.0
 40
0.0574005737389064
 50
214.0150018206635991
 51
227.8307078414900957
  0
ARC
  5
3114
  8
0
 10
725.6050783111910505
 20
42.9092454522470419
 30
0.0
 40
0.0076175378204607
 50
229.1007931820855958
 51
281.6100749082797847
  0
ARC
  5
3115
  8
0
 10
725.6017642355457156
 20
42.9085829409364123
 30
0.0
 40
0.0083500397209128
 50
305.4849452934010969
 51
356.2257135340440755
  0
ARC
  5
3116
  8
0
 10
725.3327462166563464
 20
42.8959298062742889
 30
0.0
 40
0.2776139192285062
 50
2.4987884061276029
 51
33.2553548312866596
  0
ARC
  5
3117
  8
0
 10
725.5370384384292493
 20
43.0300233255753071
 30
0.0
 40
0.0332447506627287
 50
33.0732318260159417
 51
60.729179507863229
  0
ARC
  5
3118
  8
0
 10
725.5517116927005645
 20
43.0550794170444533
 30
0.0
 40
0.0042491439307343
 50
68.1508910756726181
 51
151.832189534566993
  0
ARC
  5
3119
  8
0
 10
725.5780315368109541
 20
43.0452639868305766
 30
0.0
 40
0.0323062219097242
 50
158.5362271795127072
 51
189.4508225665371128
  0
ARC
  5
311A
  8
0
 10
725.5332262173649269
 20
43.0492639671914503
 30
0.0
 40
0.0159360803450625
 50
287.8395514363127745
 51
324.2763770341546206
  0
LINE
  5
311B
  8
0
 10
725.4485433443281863
 20
43.072055288414532
 30
0.0
 11
725.410043378248929
 21
43.0599519224693594
 31
0.0
  0
LINE
  5
311C
  8
0
 10
725.4925243893026163
 20
42.9517551257830803
 30
0.0
 11
725.4514798702605276
 21
42.9388518200514326
 31
0.0
  0
ARC
  5
311D
  8
0
 10
725.4504596762845949
 20
42.9743347794575072
 30
0.0
 40
0.0354976225113896
 50
206.3769052042121075
 51
271.6468950515380811
  0
ARC
  5
311E
  8
0
 10
725.5748364094090448
 20
43.0483681429705598
 30
0.0
 40
0.1801570455534471
 50
182.7715413657842873
 51
209.8992513620578109
  0
ARC
  5
311F
  8
0
 10
725.4180073223451473
 20
43.0382010329092779
 30
0.0
 40
0.0231630223032936
 50
110.1098697694816053
 51
176.3964326045866926
  0
ARC
  5
3120
  8
0
 10
725.3623039451659906
 20
42.9758609925917696
 30
0.0
 40
0.0584154995861384
 50
355.497846462554719
 51
43.4126907460892184
  0
ARC
  5
3121
  8
0
 10
725.4656138822375624
 20
43.0123542159383021
 30
0.0
 40
0.0609850955094532
 50
176.5661816395052028
 51
222.3443557608829906
  0
ARC
  5
3122
  8
0
 10
725.4972244146922549
 20
42.9361352226885273
 30
0.0
 40
0.0163117016692706
 50
101.6287439510331012
 51
106.7465293404002011
  0
ARC
  5
3123
  8
0
 10
725.2431812857307705
 20
42.9338909715154884
 30
0.0
 40
0.2776139192285062
 50
18.9258061680345087
 51
33.2553548312866596
  0
ARC
  5
3124
  8
0
 10
725.4474735075034459
 20
43.0679844908164569
 30
0.0
 40
0.0332447506627287
 50
33.0732318260159417
 51
60.729179507863229
  0
ARC
  5
3125
  8
0
 10
725.4621467617749886
 20
43.0930405822856173
 30
0.0
 40
0.0042491439307343
 50
68.1508910756726181
 51
151.832189534566993
  0
ARC
  5
3126
  8
0
 10
725.4884666058852645
 20
43.0832251520717477
 30
0.0
 40
0.0323062219097242
 50
158.5362271795127072
 51
189.4508225665371128
  0
ARC
  5
3127
  8
0
 10
725.4436612864392373
 20
43.0872251324326214
 30
0.0
 40
0.0159360803450625
 50
287.8395514363127745
 51
324.2763770341546206
  0
LINE
  5
3128
  8
0
 10
725.5733600295970973
 20
42.6896089446993301
 30
0.0
 11
725.53543275593006
 21
42.6758154401589707
 31
0.0
  0
LINE
  5
3129
  8
0
 10
725.6226161968160113
 20
42.5713706622477375
 30
0.0
 11
725.5821822207683454
 21
42.556665512701187
 31
0.0
  0
ARC
  5
312A
  8
0
 10
725.5795944262168859
 20
42.5920686837924904
 30
0.0
 40
0.0354976225113896
 50
208.9106098689933049
 51
274.1805997163153847
  0
ARC
  5
312B
  8
0
 10
725.700576768694873
 20
42.6715280033485769
 30
0.0
 40
0.1801570455534471
 50
185.3052460305636941
 51
212.4329560268350008
  0
ARC
  5
312C
  8
0
 10
725.5443504576447822
 20
42.6544378771933097
 30
0.0
 40
0.0231630223032936
 50
112.6435744342598042
 51
178.9301372693664121
  0
ARC
  5
312D
  8
0
 10
725.4914574076625513
 20
42.5896962976673592
 30
0.0
 40
0.0584154995861384
 50
358.0315511273346942
 51
45.9463954108706076
  0
ARC
  5
312E
  8
0
 10
725.593053089089949
 20
42.6307208752187918
 30
0.0
 40
0.0609850955094532
 50
179.0998863042840981
 51
224.8780604256637901
  0
ARC
  5
312F
  8
0
 10
725.6280021376736613
 20
42.5559738037231909
 30
0.0
 40
0.0163117016692706
 50
77.4053771454559438
 51
109.2802340051786985
  0
ARC
  5
3130
  8
0
 10
725.677671734782848
 20
42.6060753822137599
 30
0.0
 40
0.0574005737389064
 50
216.5487064854430059
 51
230.364412506270213
  0
ARC
  5
3131
  8
0
 10
725.6457837897529544
 20
42.5678428767230628
 30
0.0
 40
0.0076175378204607
 50
231.6344978468679017
 51
284.143779573057202
  0
ARC
  5
3132
  8
0
 10
725.6425022416719912
 20
42.567034507492437
 30
0.0
 40
0.0083500397209128
 50
308.0186499581831754
 51
358.7594181988247897
  0
ARC
  5
3133
  8
0
 10
725.3743065757785189
 20
42.5425012423228495
 30
0.0
 40
0.2776139192285062
 50
5.0324930709089344
 51
35.7890594960668622
  0
ARC
  5
3134
  8
0
 10
725.5724711967203575
 20
42.6854948323974028
 30
0.0
 40
0.0332447506627287
 50
35.606936490796862
 51
63.2628841726448101
  0
ARC
  5
3135
  8
0
 10
725.5860224496898354
 20
42.7111750904487266
 30
0.0
 40
0.0042491439307343
 50
70.684595740451698
 51
154.3658941993469114
  0
ARC
  5
3136
  8
0
 10
725.6127504747206558
 20
42.7025327792866776
 30
0.0
 40
0.0323062219097242
 50
161.0699318442920003
 51
191.9845272313181113
  0
ARC
  5
3137
  8
0
 10
725.5678121299936265
 20
42.70454813700524
 30
0.0
 40
0.0159360803450625
 50
290.3732561010908171
 51
326.8100816989364148
  0
LINE
  5
3138
  8
0
 10
725.4891070611985242
 20
42.7316759180665997
 30
0.0
 11
725.4511797875314869
 21
42.7178824135262403
 31
0.0
  0
LINE
  5
3139
  8
0
 10
725.5309804355979395
 20
42.6107526394040121
 30
0.0
 11
725.4979292523697723
 21
42.5987324860684282
 31
0.0
  0
ARC
  5
313A
  8
0
 10
725.4953414578181992
 20
42.6341356571597316
 30
0.0
 40
0.0354976225113896
 50
208.9106098689933049
 51
274.1805997163153847
  0
ARC
  5
313B
  8
0
 10
725.6163238002962999
 20
42.7135949767158465
 30
0.0
 40
0.1801570455534471
 50
185.3052460305636941
 51
212.4329560268350008
  0
ARC
  5
313C
  8
0
 10
725.4600974892460954
 20
42.696504850560558
 30
0.0
 40
0.0231630223032936
 50
112.6435744342598042
 51
178.9301372693664121
  0
ARC
  5
313D
  8
0
 10
725.4072044392640919
 20
42.6317632710346288
 30
0.0
 40
0.0584154995861384
 50
358.0315511273346942
 51
45.9463954108706076
  0
ARC
  5
313E
  8
0
 10
725.5088001206913759
 20
42.6727878485860614
 30
0.0
 40
0.0609850955094532
 50
179.0998863042840981
 51
224.8780604256637901
  0
ARC
  5
313F
  8
0
 10
725.2900536073799458
 20
42.5845682156901191
 30
0.0
 40
0.2776139192285062
 50
20.3747427343338288
 51
35.7890594960668622
  0
ARC
  5
3140
  8
0
 10
725.4882182283217844
 20
42.7275618057646511
 30
0.0
 40
0.0332447506627287
 50
35.606936490796862
 51
63.2628841726448101
  0
ARC
  5
3141
  8
0
 10
725.5017694812911486
 20
42.7532420638159678
 30
0.0
 40
0.0042491439307343
 50
70.684595740451698
 51
154.3658941993469114
  0
ARC
  5
3142
  8
0
 10
725.528497506321969
 20
42.7445997526539472
 30
0.0
 40
0.0323062219097242
 50
161.0699318442920003
 51
191.9845272313181113
  0
ARC
  5
3143
  8
0
 10
725.4835591615949397
 20
42.7466151103724883
 30
0.0
 40
0.0159360803450625
 50
290.3732561010908171
 51
326.8100816989364148
  0
LINE
  5
3144
  8
0
 10
725.5414411367871708
 20
42.5558989195304704
 30
0.0
 11
725.5035138631201335
 21
42.5421054149901181
 31
0.0
  0
LINE
  5
3145
  8
0
 10
725.5906973040058574
 20
42.4376606370788565
 30
0.0
 11
725.5502633279584188
 21
42.4229554875322989
 31
0.0
  0
ARC
  5
3146
  8
0
 10
725.5476755334068457
 20
42.4583586586236308
 30
0.0
 40
0.0354976225113896
 50
208.9106098689933049
 51
274.1805997163153847
  0
ARC
  5
3147
  8
0
 10
725.6686578758848327
 20
42.5378179781797314
 30
0.0
 40
0.1801570455534471
 50
185.3052460305636941
 51
212.4329560268350008
  0
ARC
  5
3148
  8
0
 10
725.5124315648348556
 20
42.5207278520244287
 30
0.0
 40
0.0231630223032936
 50
112.6435744342598042
 51
178.9301372693664121
  0
ARC
  5
3149
  8
0
 10
725.4595385148527384
 20
42.4559862724984995
 30
0.0
 40
0.0584154995861384
 50
358.0315511273346942
 51
45.9463954108706076
  0
ARC
  5
314A
  8
0
 10
725.5611341962799088
 20
42.4970108500499393
 30
0.0
 40
0.0609850955094532
 50
179.0998863042840981
 51
224.8780604256637901
  0
ARC
  5
314B
  8
0
 10
725.5960832448636211
 20
42.4222637785543313
 30
0.0
 40
0.0163117016692706
 50
77.4053771454559438
 51
109.2802340051786985
  0
ARC
  5
314C
  8
0
 10
725.6457528419730352
 20
42.4723653570449002
 30
0.0
 40
0.0574005737389064
 50
216.5487064854430059
 51
230.364412506270213
  0
ARC
  5
314D
  8
0
 10
725.6138648969429141
 20
42.4341328515541818
 30
0.0
 40
0.0076175378204607
 50
231.6344978468679017
 51
284.143779573057202
  0
ARC
  5
314E
  8
0
 10
725.6105833488620647
 20
42.4333244823235987
 30
0.0
 40
0.0083500397209128
 50
308.0186499581831754
 51
358.7594181988247897
  0
ARC
  5
314F
  8
0
 10
725.3423876829684787
 20
42.4087912171539969
 30
0.0
 40
0.2776139192285062
 50
5.0324930709089344
 51
32.1796788998737568
  0
ARC
  5
3150
  8
0
 10
725.5808315819106156
 20
42.5688227541178321
 30
0.0
 40
0.0323062219097242
 50
170.5477000043067903
 51
191.9845272313181113
  0
ARC
  5
3151
  8
0
 10
725.5358932371834726
 20
42.5708381118363874
 30
0.0
 40
0.0159360803450625
 50
290.3732561010908171
 51
326.8100816989364148
  0
LINE
  5
3152
  8
0
 10
725.6442557149788399
 20
42.4243283882701405
 30
0.0
 11
725.6063284413118026
 21
42.4105348837297811
 31
0.0
  0
LINE
  5
3153
  8
0
 10
725.6935118821976403
 20
42.3060901058185479
 30
0.0
 11
725.653077906150088
 21
42.2913849562719903
 31
0.0
  0
ARC
  5
3154
  8
0
 10
725.6504901115986286
 20
42.3267881273633009
 30
0.0
 40
0.0354976225113896
 50
208.9106098689933049
 51
274.1805997163153847
  0
ARC
  5
3155
  8
0
 10
725.7714724540765019
 20
42.4062474469193873
 30
0.0
 40
0.1801570455534471
 50
185.3052460305636941
 51
212.4329560268350008
  0
ARC
  5
3156
  8
0
 10
725.6152461430265248
 20
42.3891573207641272
 30
0.0
 40
0.0231630223032936
 50
112.6435744342598042
 51
178.9301372693664121
  0
ARC
  5
3157
  8
0
 10
725.5623530930444076
 20
42.3244157412381696
 30
0.0
 40
0.0584154995861384
 50
358.0315511273346942
 51
45.9463954108706076
  0
ARC
  5
3158
  8
0
 10
725.6639487744716916
 20
42.3654403187896307
 30
0.0
 40
0.0609850955094532
 50
179.0998863042840981
 51
224.8780604256637901
  0
ARC
  5
3159
  8
0
 10
725.6988978230554039
 20
42.2906932472940298
 30
0.0
 40
0.0163117016692706
 50
77.4053771454559438
 51
109.2802340051786985
  0
ARC
  5
315A
  8
0
 10
725.7485674201647043
 20
42.3407948257845703
 30
0.0
 40
0.0574005737389064
 50
216.5487064854430059
 51
230.364412506270213
  0
ARC
  5
315B
  8
0
 10
725.716679475134697
 20
42.3025623202938732
 30
0.0
 40
0.0076175378204607
 50
231.6344978468679017
 51
284.143779573057202
  0
ARC
  5
315C
  8
0
 10
725.7133979270536202
 20
42.3017539510632901
 30
0.0
 40
0.0083500397209128
 50
308.0186499581831754
 51
358.7594181988247897
  0
ARC
  5
315D
  8
0
 10
725.4452022611601478
 20
42.277220685893667
 30
0.0
 40
0.2776139192285062
 50
5.0324930709089344
 51
35.7890594960668622
  0
ARC
  5
315E
  8
0
 10
725.6433668821021001
 20
42.4202142759682204
 30
0.0
 40
0.0332447506627287
 50
35.606936490796862
 51
63.2628841726448101
  0
ARC
  5
315F
  8
0
 10
725.6569181350713507
 20
42.445894534019537
 30
0.0
 40
0.0042491439307343
 50
70.684595740451698
 51
154.3658941993469114
  0
ARC
  5
3160
  8
0
 10
725.6836461601022847
 20
42.4372522228575235
 30
0.0
 40
0.0323062219097242
 50
161.0699318442920003
 51
191.9845272313181113
  0
ARC
  5
3161
  8
0
 10
725.6387078153752554
 20
42.4392675805760575
 30
0.0
 40
0.0159360803450625
 50
290.3732561010908171
 51
326.8100816989364148
  0
ARC
  5
3162
  8
0
 10
740.3776479912055493
 20
49.0615502520539621
 30
0.0
 40
16.1892314512025699
 50
204.1910523055956048
 51
204.2431307199551043
  0
ARC
  5
3163
  8
0
 10
740.3776479912055493
 20
49.0615502520539621
 30
0.0
 40
16.1892314512025699
 50
203.4843215040203006
 51
203.6548176324357939
  0
LINE
  5
3164
  8
0
 10
725.4906072627253479
 20
42.8416295150426265
 30
0.0
 11
725.4348071983607724
 21
42.8240874580970328
 31
0.0
  0
ARC
  5
3165
  8
0
 10
725.4337870043849534
 20
42.8595704175031003
 30
0.0
 40
0.0354976225113896
 50
206.3769052042121075
 51
271.6468950515380811
  0
ARC
  5
3166
  8
0
 10
725.6749111482322405
 20
42.9678214191273469
 30
0.0
 40
0.2997833461917963
 50
188.2330427103246109
 51
204.4377500175179136
  0
ARC
  5
3167
  8
0
 10
725.4013346504456194
 20
42.923436670954878
 30
0.0
 40
0.0231630223032936
 50
138.1406205628522912
 51
176.3964326045866926
  0
LINE
  5
3168
  8
0
 10
725.2850869794760911
 20
43.6191757017600992
 30
0.0
 11
725.2466119317269886
 21
43.6069933556795988
 31
0.0
  0
LINE
  5
3169
  8
0
 10
725.3227122015202895
 20
43.4968754666346911
 30
0.0
 11
725.2882968455063519
 21
43.4859785398962515
 31
0.0
  0
ARC
  5
316A
  8
0
 10
725.2872038392457625
 20
43.5214593310553468
 30
0.0
 40
0.0354976225113896
 50
206.4944817165124107
 51
271.7644715638375033
  0
ARC
  5
316B
  8
0
 10
725.4114283869326982
 20
43.5957477716618698
 30
0.0
 40
0.1801570455534471
 50
182.8891178780833968
 51
210.0168278743553003
  0
ARC
  5
316C
  8
0
 10
725.254620493964353
 20
43.5852588546935635
 30
0.0
 40
0.0231630223032936
 50
110.2274462817781995
 51
176.5140091168854894
  0
ARC
  5
316D
  8
0
 10
725.1990451618080442
 20
43.5228046369685728
 30
0.0
 40
0.0584154995861384
 50
355.6154229748543116
 51
43.5302672583889176
  0
ARC
  5
316E
  8
0
 10
725.3022799937640457
 20
43.5595097853670268
 30
0.0
 40
0.0609850955094532
 50
176.6837581518034028
 51
222.4619322731848001
  0
ARC
  5
316F
  8
0
 10
725.0800088796963792
 20
43.4805902531504884
 30
0.0
 40
0.2776139192285062
 50
7.4432326619396427
 51
33.3729313435853499
  0
ARC
  5
3170
  8
0
 10
725.284025498570827
 20
43.6151027173256125
 30
0.0
 40
0.0332447506627287
 50
33.1908083383140919
 51
60.8467560201632693
  0
ARC
  5
3171
  8
0
 10
725.2986473044462628
 20
43.6401888669616866
 30
0.0
 40
0.0042491439307343
 50
68.2684675879713723
 51
151.949766046866614
  0
ARC
  5
3172
  8
0
 10
725.3249872353420642
 20
43.6304274682568121
 30
0.0
 40
0.0323062219097242
 50
158.6538036918103955
 51
189.5683990788371887
  0
ARC
  5
3173
  8
0
 10
725.2801738018930564
 20
43.634335495386722
 30
0.0
 40
0.0159360803450625
 50
287.957127948613504
 51
324.3939535464551795
  0
ARC
  5
3174
  8
0
 10
725.7419102977225975
 20
43.1555124343409204
 30
0.0
 40
0.4182870093394076
 50
191.4241471284711054
 51
211.189591738261214
  0
ARC
  5
3175
  8
0
 10
725.4448217748594061
 20
42.9946462529898881
 30
0.0
 40
0.0824472556988815
 50
222.5492498841329905
 51
272.2696475678624211
  0
ARC
  5
3176
  8
0
 10
725.4550268742048047
 20
42.8666313991945671
 30
0.0
 40
0.0461569937498896
 50
65.9523879826306683
 51
98.6475627737156202
  0
ARC
  5
3177
  8
0
 10
725.5026094979612026
 20
42.9220975659249788
 30
0.0
 40
0.0317053756553727
 50
204.8326206378571896
 51
234.0813111032404947
  0
ARC
  5
3178
  8
0
 10
725.4857544628989672
 20
42.8984402273720491
 30
0.0
 40
0.0026684683168574
 50
229.1754646576499965
 51
334.4496965725048767
  0
ARC
  5
3179
  8
0
 10
724.716618565521344
 20
42.7784218273220631
 30
0.0
 40
0.7806463402294771
 50
21.9048212558832986
 51
30.5080645357000613
  0
ARC
  5
317A
  8
0
 10
724.716618565521344
 20
42.7784218273220631
 30
0.0
 40
0.7806463402294771
 50
8.7583851885327562
 51
12.5030568399171607
  0
ARC
  5
317B
  8
0
 10
725.3616995401107488
 20
43.1563799738898695
 30
0.0
 40
0.0330495081027435
 50
33.7149085521336289
 51
55.75652611640907
  0
ARC
  5
317C
  8
0
 10
725.3788140837170886
 20
43.1813985377656309
 30
0.0
 40
0.0027381623172814
 50
57.212803005379449
 51
154.1654555793751058
  0
ARC
  5
317D
  8
0
 10
725.3936513523865415
 20
43.1758742834854772
 30
0.0
 40
0.0185600552813875
 50
158.7811195023236905
 51
182.210127600552795
  0
ARC
  5
317E
  8
0
 10
725.5461599184004626
 20
43.1839975610618012
 30
0.0
 40
0.1712830353620395
 50
182.9580541238698004
 51
186.5955389779634004
  0
ARC
  5
317F
  8
0
 10
725.3560196936525699
 20
43.1716275019072668
 30
0.0
 40
0.0212831496819456
 50
309.5324349511213882
 51
339.9306232251602182
  0
ARC
  5
3180
  8
0
 10
725.4199277686285541
 20
43.0801157992388184
 30
0.0
 40
0.0904198986273647
 50
123.846405263334205
 51
164.9446820325404985
  0
ARC
  5
3181
  8
0
 10
725.4123346400192531
 20
43.0863181111342826
 30
0.0
 40
0.0815753094749005
 50
167.7672965889373984
 51
189.636874951037413
  0
ARC
  5
3182
  8
0
 10
725.1009657301242441
 20
42.9241848986072796
 30
0.0
 40
0.2732496100776788
 50
7.6764589019746712
 51
32.0142507951368387
  0
LINE
  5
3183
  8
0
 10
725.2752586117023839
 20
43.9048983872781591
 30
0.0
 11
725.2362623350776403
 21
43.8945046745286618
 31
0.0
  0
LINE
  5
3184
  8
0
 10
725.2479855890776435
 20
44.0300488714286686
 30
0.0
 11
725.2064119571775791
 21
44.01896821382865
 31
0.0
  0
ARC
  5
3185
  8
0
 10
725.2245504748403846
 20
43.9884546859932968
 30
0.0
 40
0.0354976225113896
 50
120.7290211739673964
 51
185.999011021291409
  0
ARC
  5
3186
  8
0
 10
725.3692360095209324
 20
43.9925298191165481
 30
0.0
 40
0.1801570455534471
 50
182.4766648634484909
 51
209.6043748597205933
  0
ARC
  5
3187
  8
0
 10
725.2313413197056207
 20
43.9171389231340683
 30
0.0
 40
0.0231630223032936
 50
215.9794836209167954
 51
282.2660464560249238
  0
ARC
  5
3188
  8
0
 10
725.1509155246778846
 20
43.9399608062749891
 30
0.0
 40
0.0584154995861384
 50
348.9632254794137793
 51
36.8780697629507586
  0
ARC
  5
3189
  8
0
 10
725.2577073438469597
 20
43.9644599043508535
 30
0.0
 40
0.0609850955094532
 50
170.0315604646202132
 51
215.8097345859991947
  0
ARC
  5
318A
  8
0
 10
725.2435909917212484
 20
44.0457574399638077
 30
0.0
 40
0.0163117016692706
 50
285.6293868851035995
 51
317.5042437448274768
  0
ARC
  5
318B
  8
0
 10
725.3129951433154474
 20
44.0330964453060503
 30
0.0
 40
0.0574005737389064
 50
164.5452083840129092
 51
178.3609144048431006
  0
ARC
  5
318C
  8
0
 10
725.264965414109156
 20
44.0462002854565924
 30
0.0
 40
0.0076175378204607
 50
110.7658413172272986
 51
163.2751230434170111
  0
ARC
  5
318D
  8
0
 10
725.2618117451603439
 20
44.0449852172351299
 30
0.0
 40
0.0083500397209128
 50
36.1502026914603718
 51
86.8909709321027037
  0
ARC
  5
318E
  8
0
 10
725.0278363511501993
 20
43.9116198870264327
 30
0.0
 40
0.2776139192285062
 50
359.1205613942170771
 51
29.8771278193758612
  0
ARC
  5
318F
  8
0
 10
725.272175280228339
 20
43.9077635244365965
 30
0.0
 40
0.0332447506627287
 50
331.6467367176422272
 51
359.3026843994895216
  0
ARC
  5
3190
  8
0
 10
725.2979844537800318
 20
43.8944594396804391
 30
0.0
 40
0.0042491439307343
 50
240.5437266909370067
 51
324.2250251498339253
  0
ARC
  5
3191
  8
0
 10
725.314957072718471
 20
43.9168426269120573
 30
0.0
 40
0.0323062219097242
 50
202.9250936589670005
 51
233.8396890459937083
  0
ARC
  5
3192
  8
0
 10
725.2792584789881403
 20
43.8894724442450226
 30
0.0
 40
0.0159360803450625
 50
68.099539191349578
 51
104.5363647891945931
  0
ARC
  5
3193
  8
0
 10
724.5536248605311584
 20
40.8702052437988002
 30
0.0
 40
1.522255906390829
 50
5.5831899035019594
 51
27.0221548760963586
  0
ARC
  5
3194
  8
0
 10
770.6921094116919448
 20
57.3864524172495223
 30
0.0
 40
47.4962204453505876
 50
196.4929095572171889
 51
196.8698854904982909
  0
ARC
  5
3195
  8
0
 10
770.6921094116919448
 20
57.3864524172495223
 30
0.0
 40
47.4962204453505876
 50
197.0147765814232912
 51
197.1930197311843926
  0
ARC
  5
3196
  8
0
 10
770.6921094116919448
 20
57.3864524172495223
 30
0.0
 40
47.4962204453505876
 50
197.3450034251679881
 51
197.4252285594293141
  0
ARC
  5
3197
  8
0
 10
770.6921094116919448
 20
57.3864524172495223
 30
0.0
 40
47.4962204453505876
 50
197.7420992739909877
 51
197.9407348351261078
  0
ARC
  5
3198
  8
0
 10
770.6921094116919448
 20
57.3864524172495223
 30
0.0
 40
47.4962204453505876
 50
198.3590500200884037
 51
198.3742821188643859
  0
ARC
  5
3199
  8
0
 10
769.589569668056015
 20
57.0119404215959875
 30
0.0
 40
46.3318192507485307
 50
198.5228349259494109
 51
199.4793285637815075
  0
ARC
  5
319A
  8
0
 10
724.6840177269940568
 20
41.3762936383803321
 30
0.0
 40
1.293668012175579
 50
14.0395339394227499
 51
35.29242051886947
  0
ARC
  5
319B
  8
0
 10
725.7946824538170176
 20
41.647607824514921
 30
0.0
 40
0.1504908841273978
 50
351.0113486001581009
 51
16.4113724669363492
  0
ARC
  5
319C
  8
0
 10
725.9094340126938505
 20
41.6277052018505671
 30
0.0
 40
0.0340829034172357
 50
326.9699447172544069
 51
353.9201031769745782
  0
ARC
  5
319D
  8
0
 10
725.9300516162503527
 20
41.6160413389079622
 30
0.0
 40
0.0105412092319967
 50
231.4072123747641001
 51
319.0118610613221222
  0
ARC
  5
319E
  8
0
 10
726.1400441755951078
 20
41.7883545914209833
 30
0.0
 40
0.2819588622249778
 50
207.4205293718752898
 51
219.8178949429347995
  0
ARC
  5
319F
  8
0
 10
729.7799173891501141
 20
43.2673021367980581
 30
0.0
 40
4.2096934888939357
 50
196.2482286218688898
 51
202.4678100438239028
  0
ARC
  5
31A0
  8
0
 10
725.8841197829650582
 20
42.1255855365277512
 30
0.0
 40
0.1501711740741279
 50
184.3128581190225077
 51
193.9304636072791936
  0
ARC
  5
31A1
  8
0
 10
725.7498735765614128
 20
42.1154880997124508
 30
0.0
 40
0.0155457856001168
 50
148.5823752048237907
 51
184.4116618539327987
  0
ARC
  5
31A2
  8
0
 10
725.7383743110244723
 20
42.1206451709724305
 30
0.0
 40
0.0034359142744065
 50
63.1212112022951217
 51
120.9559143998971962
  0
ARC
  5
31A3
  8
0
 10
724.9042474076803728
 20
14.6843169959699598
 30
0.0
 40
0.0118163004262896
 50
180.2217246581498102
 51
246.164736808409998
  0
ARC
  5
31A4
  8
0
 10
725.5877862459409471
 20
14.6843163610917298
 30
0.0
 40
0.0118207483699312
 50
295.0013766432970215
 51
359.6725210925944793
  0
LINE
  5
31A5
  8
0
 10
727.7610118017335026
 20
12.7531883093655498
 30
0.0
 11
728.1140316750303327
 21
12.7531883093655498
 31
0.0
  0
ARC
  5
31A6
  8
0
 10
743.5120228988334929
 20
14.4289297292655494
 30
0.0
 40
15.8399001125000005
 50
186.0728233740996131
 51
186.802681168900591
  0
ARC
  5
31A7
  8
0
 10
727.8533280934133245
 20
12.57984239930434
 30
0.0
 40
0.0747956585690032
 50
201.2885731247403953
 51
256.8195266811279112
  0
ARC
  5
31A8
  8
0
 10
727.9661888152774054
 20
13.1004038719144908
 30
0.0
 40
0.6074420994888021
 50
257.6505739026532069
 51
267.2950661651004793
  0
ARC
  5
31A9
  8
0
 10
712.3630213497333443
 20
14.4289297292655494
 30
0.0
 40
15.8399001125000005
 50
353.1973188310993237
 51
353.9271766259004153
  0
ARC
  5
31AA
  8
0
 10
728.0217161551536265
 20
12.57984239930434
 30
0.0
 40
0.0747956585690032
 50
283.1804733188719752
 51
338.7114268752595763
  0
ARC
  5
31AB
  8
0
 10
727.9088554332895455
 20
13.1004038719144908
 30
0.0
 40
0.6074420994888021
 50
272.7049338348995207
 51
282.3494260973437235
  0
ARC
  5
31AC
  8
0
 10
100.5974064522170011
 20
36.1152000129880335
 30
0.0
 40
625.9477855729279554
 50
358.3575080474179231
 51
359.9744312688404762
  0
ARC
  5
31AD
  8
0
 10
123.7022417632900044
 20
35.791640763285443
 30
0.0
 40
603.3940706571280543
 50
358.3281277244029752
 51
0.0041993937919884
  0
ARC
  5
31AE
  8
0
 10
876.612401144250839
 20
14.4934933402498398
 30
0.0
 40
150.3694322847113085
 50
178.5975859547062043
 51
181.8184445369136881
  0
ARC
  5
31AF
  8
0
 10
884.0566168278028272
 20
14.5294602372651092
 30
0.0
 40
157.2597132613155964
 50
178.6671892078433928
 51
181.7437435037799105
  0
ARC
  5
31B0
  8
0
 10
745.6966936374328725
 20
10.3004076680524594
 30
0.0
 40
19.3866318921662391
 50
181.7100122913282974
 51
191.5798132996758909
  0
ARC
  5
31B1
  8
0
 10
745.5159864877539349
 20
10.2974215116119794
 30
0.0
 40
18.6544656523720391
 50
181.6995911693200867
 51
191.8821252928570118
  0
ARC
  5
31B2
  8
0
 10
728.6022659470003191
 20
6.7676622680838809
 30
0.0
 40
1.9312300289847839
 50
190.7067083482326098
 51
211.8171105996248968
  0
ARC
  5
31B3
  8
0
 10
727.2731025958212285
 20
5.9565117438224311
 30
0.0
 40
0.3743229152242085
 50
213.575252029828107
 51
333.858135086597315
  0
ARC
  5
31B4
  8
0
 10
719.8117552777878245
 20
8.4071237365786544
 30
0.0
 40
8.2243635360450593
 50
341.4565927847561966
 51
355.9965779285662961
  0
ARC
  5
31B5
  8
0
 10
691.9311627351451079
 20
11.8001696149792394
 30
0.0
 40
35.7318939435374929
 50
351.3991872421768221
 51
0.4549591152105108
  0
ARC
  5
31B6
  8
0
 10
682.8637852087373403
 20
12.05609325904868
 30
0.0
 40
45.3493346161338167
 50
354.6565814346603247
 51
0.0351280884161237
  0
LINE
  5
31B8
  8
0
 10
728.5600010654319476
 20
36.2288364475655484
 30
0.0
 11
728.5600010654319476
 21
36.2323243263578618
 31
0.0
  0
LINE
  5
31B9
  8
0
 10
728.3135324991451398
 20
36.2288364475655484
 30
0.0
 11
728.5600010654319476
 21
36.2288364475655484
 31
0.0
  0
ARC
  5
31BA
  8
0
 10
728.4444396288128019
 20
35.6883839418433411
 30
0.0
 40
0.5560805584978262
 50
77.105878595184123
 51
104.6553634161036967
  0
ENDSEC
  0
EOF
