  0
SECTION
  2
HEADER
  9
$ACADVER
  1
AC1009
  9
$INSBASE
 10
8669.030913283369955
 20
2166.9372788589380434
 30
0.0
  9
$EXTMIN
 10
8646.5855436777637806
 20
2137.2751836367028773
 30
-0.0000000000112498
  9
$EXTMAX
 10
8669.6157220097647951
 20
2194.2776554227998531
 30
0.0000000000002956
  9
$LIMMIN
 10
0.0
 20
0.0
  9
$LIMMAX
 10
11.6929133858000007
 20
8.2677165353999982
  9
$ORTHOMODE
 70
     0
  9
$REGENMODE
 70
     1
  9
$FILLMODE
 70
     1
  9
$QTEXTMODE
 70
     0
  9
$MIRRTEXT
 70
     0
  9
$DRAGMODE
 70
     2
  9
$LTSCALE
 40
0.6431102362
  9
$OSMODE
 70
  4095
  9
$ATTMODE
 70
     1
  9
$TEXTSIZE
 40
0.2
  9
$TRACEWID
 40
0.05
  9
$TEXTSTYLE
  7
STANDARD
  9
$CLAYER
  8
0
  9
$CELTYPE
  6
BYLAYER
  9
$CECOLOR
 62
   256
  9
$DIMSCALE
 40
1.0
  9
$DIMASZ
 40
0.1875
  9
$DIMEXO
 40
0.0625
  9
$DIMDLI
 40
0.4443307087
  9
$DIMRND
 40
0.0
  9
$DIMDLE
 40
0.0
  9
$DIMEXE
 40
0.125
  9
$DIMTP
 40
0.01
  9
$DIMTM
 40
0.01
  9
$DIMTXT
 40
2.0
  9
$DIMCEN
 40
0.1052362205
  9
$DIMTSZ
 40
0.0
  9
$DIMTOL
 70
     1
  9
$DIMLIM
 70
     0
  9
$DIMTIH
 70
     1
  9
$DIMTOH
 70
     1
  9
$DIMSE1
 70
     0
  9
$DIMSE2
 70
     0
  9
$DIMTAD
 70
     0
  9
$DIMZIN
 70
     0
  9
$DIMBLK
  1

  9
$DIMASO
 70
     1
  9
$DIMSHO
 70
     1
  9
$DIMPOST
  1
\X
  9
$DIMAPOST
  1

  9
$DIMALT
 70
     1
  9
$DIMALTD
 70
     2
  9
$DIMALTF
 40
25.3999999999999986
  9
$DIMLFAC
 40
1.0
  9
$DIMTOFL
 70
     0
  9
$DIMTVP
 40
0.0
  9
$DIMTIX
 70
     0
  9
$DIMSOXD
 70
     0
  9
$DIMSAH
 70
     0
  9
$DIMBLK1
  1

  9
$DIMBLK2
  1

  9
$DIMSTYLE
  2
STANDARD
  9
$DIMCLRD
 70
     0
  9
$DIMCLRE
 70
     0
  9
$DIMCLRT
 70
     0
  9
$DIMTFAC
 40
1.0
  9
$DIMGAP
 40
0.09
  9
$LUNITS
 70
     2
  9
$LUPREC
 70
     4
  9
$SKETCHINC
 40
0.1
  9
$FILLETRAD
 40
0.0
  9
$AUNITS
 70
     0
  9
$AUPREC
 70
     0
  9
$MENU
  1
.
  9
$ELEVATION
 40
0.0
  9
$PELEVATION
 40
0.0
  9
$THICKNESS
 40
0.0
  9
$LIMCHECK
 70
     0
  9
$BLIPMODE
 70
     0
  9
$CHAMFERA
 40
0.0
  9
$CHAMFERB
 40
0.0
  9
$SKPOLY
 70
     0
  9
$TDCREATE
 40
2458060.468368056230247
  9
$TDUPDATE
 40
2460104.5492129628546536
  9
$TDINDWG
 40
0.4883403935
  9
$TDUSRTIMER
 40
0.4883403935
  9
$USRTIMER
 70
     1
  9
$ANGBASE
 50
0.0
  9
$ANGDIR
 70
     0
  9
$PDMODE
 70
     0
  9
$PDSIZE
 40
0.3125
  9
$PLINEWID
 40
0.0
  9
$COORDS
 70
     1
  9
$SPLFRAME
 70
     0
  9
$SPLINETYPE
 70
     6
  9
$SPLINESEGS
 70
     8
  9
$ATTDIA
 70
     1
  9
$ATTREQ
 70
     1
  9
$HANDLING
 70
     1
  9
$HANDSEED
  5
16012
  9
$SURFTAB1
 70
     6
  9
$SURFTAB2
 70
     6
  9
$SURFTYPE
 70
     6
  9
$SURFU
 70
     6
  9
$SURFV
 70
     6
  9
$UCSNAME
  2

  9
$UCSORG
 10
0.0
 20
0.0
 30
0.0
  9
$UCSXDIR
 10
1.0
 20
0.0
 30
0.0
  9
$UCSYDIR
 10
0.0
 20
1.0
 30
0.0
  9
$PUCSNAME
  2

  9
$PUCSORG
 10
0.0
 20
0.0
 30
0.0
  9
$PUCSXDIR
 10
1.0
 20
0.0
 30
0.0
  9
$PUCSYDIR
 10
0.0
 20
1.0
 30
0.0
  9
$USERI1
 70
     0
  9
$USERI2
 70
     0
  9
$USERI3
 70
     0
  9
$USERI4
 70
     0
  9
$USERI5
 70
     0
  9
$USERR1
 40
0.0
  9
$USERR2
 40
0.0
  9
$USERR3
 40
0.0
  9
$USERR4
 40
0.0
  9
$USERR5
 40
0.0
  9
$WORLDVIEW
 70
     1
  9
$SHADEDGE
 70
     3
  9
$SHADEDIF
 70
    70
  9
$TILEMODE
 70
     1
  9
$MAXACTVP
 70
    64
  9
$PLIMCHECK
 70
     0
  9
$PEXTMIN
 10
1.0000000000000000E+20
 20
1.0000000000000000E+20
 30
1.0000000000000000E+20
  9
$PEXTMAX
 10
-1.0000000000000000E+20
 20
-1.0000000000000000E+20
 30
-1.0000000000000000E+20
  9
$PLIMMIN
 10
0.0
 20
0.0
  9
$PLIMMAX
 10
12.0
 20
9.0
  9
$UNITMODE
 70
     0
  9
$VISRETAIN
 70
     1
  9
$PLINEGEN
 70
     0
  9
$PSLTSCALE
 70
     1
  0
ENDSEC
  0
SECTION
  2
TABLES
  0
TABLE
  2
VPORT
 70
     1
  0
VPORT
  2
*ACTIVE
 70
     0
 10
0.0
 20
0.0
 11
1.0
 21
1.0
 12
3842.8022930000129236
 22
1917.9677952621730128
 13
0.0
 23
0.0
 14
1.0
 24
1.0
 15
0.0
 25
0.0
 16
0.0
 26
0.0
 36
9.5192988075487186
 17
4815.2983398437490905
 27
247.8086242675780966
 37
0.0
 40
57.5137047169132529
 41
2.8398203592814371
 42
50.0
 43
0.0
 44
0.0
 50
0.0
 51
0.0
 71
     0
 72
   100
 73
     1
 74
     1
 75
     0
 76
     0
 77
     0
 78
     0
  0
ENDTAB
  0
TABLE
  2
LTYPE
 70
     2
  0
LTYPE
  2
CONTINUOUS
 70
     0
  3
Solid line
 72
    65
 73
     0
 40
0.0
  0
LTYPE
  2
PHANTOM2
 70
     0
  3
___ _ _ ___ _ _ ___ _ _ ___ _ _
 72
    65
 73
     6
 40
1.25
 49
0.625
 49
-0.125
 49
0.125
 49
-0.125
 49
0.125
 49
-0.125
  0
ENDTAB
  0
TABLE
  2
LAYER
 70
     2
  0
LAYER
  2
0
 70
     0
 62
   255
  6
CONTINUOUS
  0
LAYER
  2
DEFPOINTS
 70
     0
 62
     7
  6
CONTINUOUS
  0
ENDTAB
  0
TABLE
  2
STYLE
 70
     1
  0
STYLE
  2
STANDARD
 70
     0
 40
0.0
 41
0.8
 50
0.0
 71
     0
 42
0.2
  3
txt
  4

  0
ENDTAB
  0
TABLE
  2
VIEW
 70
     0
  0
ENDTAB
  0
TABLE
  2
UCS
 70
     0
  0
ENDTAB
  0
TABLE
  2
APPID
 70
    10
  0
APPID
  2
ACAD
 70
     0
  0
APPID
  2
ACAD_MLEADERVER
 70
     0
  0
APPID
  2
ACAD_EXEMPT_FROM_CAD_STANDARDS
 70
     0
  0
APPID
  2
ACAD_NAV_VCDISPLAY
 70
     0
  0
APPID
  2
ACAECLAYERSTANDARD
 70
     0
  0
APPID
  2
ACCMTRANSPARENCY
 70
     0
  0
APPID
  2
ACAD_DSTYLE_DIMJAG
 70
     0
  0
APPID
  2
ACAD_DSTYLE_DIMTALN
 70
     0
  0
APPID
  2
ACDBATTR
 70
     0
  0
APPID
  2
ACADANNOTATIVE
 70
     0
  0
ENDTAB
  0
TABLE
  2
DIMSTYLE
 70
     2
  0
DIMSTYLE
  2
STANDARD
 70
     0
  3

  4

  5

  6

  7

 40
1.0
 41
0.1875
 42
0.0625
 43
0.38
 44
0.125
 45
0.0
 46
0.0
 47
0.01
 48
0.01
140
0.15625
141
0.09
142
0.0
143
25.3999999999999986
144
1.0
145
0.0
146
1.0
147
0.09
 71
     1
 72
     0
 73
     1
 74
     1
 75
     0
 76
     0
 77
     0
 78
     4
170
     0
171
     2
172
     0
173
     0
174
     0
175
     0
176
     0
177
     0
178
     0
  0
DIMSTYLE
  2
ANNOTATIVE
 70
     0
  3

  4

  5

  6

  7

 40
0.0
 41
0.18
 42
0.0625
 43
0.38
 44
0.18
 45
0.0
 46
0.0
 47
0.0
 48
0.0
140
0.18
141
0.09
142
0.0
143
25.3999999999999986
144
1.0
145
0.0
146
1.0
147
0.09
 71
     0
 72
     0
 73
     1
 74
     1
 75
     0
 76
     0
 77
     0
 78
     0
170
     0
171
     2
172
     0
173
     0
174
     0
175
     0
176
     0
177
     0
178
     0
  0
ENDTAB
  0
ENDSEC
  0
SECTION
  2
BLOCKS
  0
BLOCK
  8
0
  2
$MODEL_SPACE
 70
     0
 10
0.0
 20
0.0
 30
0.0
  3
$MODEL_SPACE
  1

  0
ENDBLK
  5
21
  8
0
  0
BLOCK
 67
     1
  8
0
  2
$PAPER_SPACE
 70
     0
 10
0.0
 20
0.0
 30
0.0
  3
$PAPER_SPACE
  1

  0
ENDBLK
  5
1D
 67
     1
  8
0
  0
BLOCK
  8
0
  2
_FILLED
 70
     0
 10
0.0
 20
0.0
 30
0.0
  3
_FILLED
  1

  0
SOLID
  5
D8EA
  8
0
  6
BYBLOCK
 62
     0
 10
0.0
 20
0.0
 30
0.0
 11
-1.0
 21
0.1666666667
 31
0.0
 12
-1.0
 22
-0.1666666667
 32
0.0
 13
-1.0
 23
-0.1666666667
 33
0.0
  0
ENDBLK
  5
D8EB
  8
0
  6
BYBLOCK
 62
     0
  0
ENDSEC
  0
SECTION
  2
ENTITIES
  0
ATTDEF
  5
3930
  8
DEFPOINTS
 10
8669.0206398949521827
 20
2166.9351361957601512
 30
0.0
 40
0.001
  1
K-23751T-9
  3

  2
MODELNUMBER
 70
     0
1001
ACDBATTR
1070
     0
1070
     1
  0
ATTDEF
  5
3931
  8
DEFPOINTS
 10
8669.0206398949521827
 20
2166.933469529093145
 30
0.0
 40
0.001
  1
URBANITY
  3

  2
TRADENAME
 70
     0
1001
ACDBATTR
1070
     0
1070
     1
  0
ATTDEF
  5
3932
  8
DEFPOINTS
 10
8669.0206398949521827
 20
2166.9318028624261387
 30
0.0
 40
0.001
  1
SHOWER COLUMN
  3

  2
PRODUCT
 70
     0
1001
ACDBATTR
1070
     0
1070
     1
  0
LINE
  5
15707
  8
0
 10
8651.3143778502690111
 20
2194.2227119297890567
 30
0.0
 11
8664.8973621022687439
 21
2194.2227119297890567
 31
0.0
  0
LINE
  5
15708
  8
0
 10
8652.1017794250692532
 20
2193.4353103549879052
 30
0.0
 11
8664.8969605274687638
 21
2193.4353103549879052
 31
0.0
  0
LINE
  5
15709
  8
0
 10
8651.3143778502690111
 20
2194.2227119297890567
 30
0.0
 11
8651.3143778502690111
 21
2192.6085387014891239
 31
0.0
  0
LINE
  5
1570A
  8
0
 10
8651.3143778502690111
 20
2193.4392473628881817
 30
0.0
 11
8652.1017794250692532
 21
2193.4392473628881817
 31
0.0
  0
LINE
  5
1570B
  8
0
 10
8652.1017794250692532
 20
2193.4392473628881817
 30
0.0
 11
8652.1017794250692532
 21
2192.6085387014891239
 31
0.0
  0
LINE
  5
1570C
  8
0
 10
8649.4028495510192442
 20
2192.6085387014891239
 30
0.0
 11
8654.0133076847196207
 21
2192.6085387014891239
 31
0.0
  0
LINE
  5
1570D
  8
0
 10
8651.3143778502690111
 20
2193.3959402762889113
 30
0.0
 11
8652.1017794250692532
 21
2193.3959402762889113
 31
0.0
  0
LINE
  5
1570E
  8
0
 10
8651.3143778502690111
 20
2193.3998772841891878
 30
0.0
 11
8652.1017794250692532
 21
2193.3998772841891878
 31
0.0
  0
LINE
  5
1570F
  8
0
 10
8647.1897517122488352
 20
2190.8762552368880279
 30
0.0
 11
8656.2264055234900297
 21
2190.8762552368880279
 31
0.0
  0
LINE
  5
15710
  8
0
 10
8647.1418166123385163
 20
2191.4668064179891189
 30
0.0
 11
8656.2743406234021677
 21
2191.4668064179891189
 31
0.0
  0
LINE
  5
15711
  8
0
 10
8649.3438854922278551
 20
2192.5515977717941496
 30
0.0
 11
8649.3099805855708837
 21
2191.5806882773767938
 31
0.0
  0
LINE
  5
15712
  8
0
 10
8654.0722717435146478
 20
2192.5515977717941496
 30
0.0
 11
8654.1061766501679813
 21
2191.5806882773767938
 31
0.0
  0
ARC
  5
15713
  8
0
 10
8654.0133076847196207
 20
2192.549538701488018
 30
0.0
 40
0.059
 50
2.000000000186227
 51
90.0
  0
ARC
  5
15714
  8
0
 10
8649.4028495510192442
 20
2192.549538701488018
 30
0.0
 40
0.059
 50
90.0
 51
177.9999999997876898
  0
ARC
  5
15715
  8
0
 10
8649.1920524679826485
 20
2191.5848064179890571
 30
0.0
 40
0.118
 50
270.0
 51
357.999999999813781
  0
ARC
  5
15716
  8
0
 10
8654.2241047677562165
 20
2191.5848064179890571
 30
0.0
 40
0.118
 50
182.0000000001861906
 51
270.0
  0
LINE
  5
15717
  8
0
 10
8647.1218196584322868
 20
2191.4464573698578533
 30
0.0
 11
8647.1307606982354628
 21
2190.9342255449041659
 31
0.0
  0
LINE
  5
15718
  8
0
 10
8656.2943375773065782
 20
2191.4464573698578533
 30
0.0
 11
8656.2853965375034022
 21
2190.9342255449041659
 31
0.0
  0
ARC
  5
15719
  8
0
 10
8647.1418166123385163
 20
2191.4468064179891371
 30
0.0
 40
0.02
 50
90.0
 51
181.000000004457803
  0
ARC
  5
1571A
  8
0
 10
8656.2743406234021677
 20
2191.4468064179891371
 30
0.0
 40
0.02
 50
358.9999999955422254
 51
90.0
  0
ARC
  5
1571B
  8
0
 10
8647.1897517122488352
 20
2190.9352552368891338
 30
0.0
 40
0.059
 50
181.000000004457803
 51
270.0
  0
ARC
  5
1571C
  8
0
 10
8656.2264055234900297
 20
2190.9352552368891338
 30
0.0
 40
0.059
 50
270.0
 51
358.9999999955682028
  0
LINE
  5
1571D
  8
0
 10
8647.8610259651632077
 20
2190.8285720873100217
 30
0.0
 11
8647.8585269971699745
 21
2190.8762552368880279
 31
0.0
  0
LINE
  5
1571E
  8
0
 10
8647.996076192077453
 20
2190.8285720873100217
 30
0.0
 11
8647.9985751600706863
 21
2190.8762552368880279
 31
0.0
  0
LINE
  5
1571F
  8
0
 10
8647.8730095195824106
 20
2190.8172001187890601
 30
0.0
 11
8647.9840926376582502
 21
2190.8172001187890601
 31
0.0
  0
ARC
  5
15720
  8
0
 10
8647.8730095195824106
 20
2190.8292001187887763
 30
0.0
 40
0.012
 50
183.0000000184016073
 51
270.0
  0
ARC
  5
15721
  8
0
 10
8647.9840926376582502
 20
2190.8292001187887763
 30
0.0
 40
0.012
 50
270.0
 51
356.9999999815722731
  0
LINE
  5
15722
  8
0
 10
8648.6169314769631455
 20
2190.8285720873100217
 30
0.0
 11
8648.6144325089680933
 21
2190.8762552368880279
 31
0.0
  0
LINE
  5
15723
  8
0
 10
8648.7519817038755718
 20
2190.8285720873100217
 30
0.0
 11
8648.7544806718688051
 21
2190.8762552368880279
 31
0.0
  0
LINE
  5
15724
  8
0
 10
8648.6289150313805294
 20
2190.8172001187890601
 30
0.0
 11
8648.739998149458188
 21
2190.8172001187890601
 31
0.0
  0
ARC
  5
15725
  8
0
 10
8648.6289150313805294
 20
2190.8292001187887763
 30
0.0
 40
0.012
 50
183.0000000184016073
 51
270.0
  0
ARC
  5
15726
  8
0
 10
8648.739998149458188
 20
2190.8292001187887763
 30
0.0
 40
0.012
 50
270.0
 51
356.9999999815722731
  0
LINE
  5
15727
  8
0
 10
8649.372836988815834
 20
2190.8285720873100217
 30
0.0
 11
8649.3703380208189628
 21
2190.8762552368880279
 31
0.0
  0
LINE
  5
15728
  8
0
 10
8649.5078872157246224
 20
2190.8285720873100217
 30
0.0
 11
8649.5103861837196746
 21
2190.8762552368880279
 31
0.0
  0
LINE
  5
15729
  8
0
 10
8649.3848205432313989
 20
2190.8172001187890601
 30
0.0
 11
8649.4959036613090575
 21
2190.8172001187890601
 31
0.0
  0
ARC
  5
1572A
  8
0
 10
8649.3848205432313989
 20
2190.8292001187887763
 30
0.0
 40
0.012
 50
183.0000000184016073
 51
270.0
  0
ARC
  5
1572B
  8
0
 10
8649.4959036613090575
 20
2190.8292001187887763
 30
0.0
 40
0.012
 50
270.0
 51
356.9999999815722731
  0
LINE
  5
1572C
  8
0
 10
8650.1287425006648846
 20
2190.8285720873100217
 30
0.0
 11
8650.1262435326698323
 21
2190.8762552368880279
 31
0.0
  0
LINE
  5
1572D
  8
0
 10
8650.2637927275754919
 20
2190.8285720873100217
 30
0.0
 11
8650.2662916955687251
 21
2190.8762552368880279
 31
0.0
  0
LINE
  5
1572E
  8
0
 10
8650.1407260550804494
 20
2190.8172001187890601
 30
0.0
 11
8650.251809173158108
 21
2190.8172001187890601
 31
0.0
  0
ARC
  5
1572F
  8
0
 10
8650.1407260550804494
 20
2190.8292001187887763
 30
0.0
 40
0.012
 50
183.0000000184016073
 51
270.0
  0
ARC
  5
15730
  8
0
 10
8650.251809173158108
 20
2190.8292001187887763
 30
0.0
 40
0.012
 50
270.0
 51
356.9999999815722731
  0
LINE
  5
15731
  8
0
 10
8650.8846480124611844
 20
2190.8285720873100217
 30
0.0
 11
8650.8821490444697702
 21
2190.8762552368880279
 31
0.0
  0
LINE
  5
15732
  8
0
 10
8651.0196982393754297
 20
2190.8285720873100217
 30
0.0
 11
8651.0221972073686629
 21
2190.8762552368880279
 31
0.0
  0
LINE
  5
15733
  8
0
 10
8650.8966315668803873
 20
2190.8172001187890601
 30
0.0
 11
8651.0077146849580458
 21
2190.8172001187890601
 31
0.0
  0
ARC
  5
15734
  8
0
 10
8650.8966315668803873
 20
2190.8292001187887763
 30
0.0
 40
0.012
 50
183.0000000184016073
 51
270.0
  0
ARC
  5
15735
  8
0
 10
8651.0077146849580458
 20
2190.8292001187887763
 30
0.0
 40
0.012
 50
270.0
 51
356.9999999815722731
  0
LINE
  5
15736
  8
0
 10
8655.5551312705756573
 20
2190.8285720873100217
 30
0.0
 11
8655.5576302385688905
 21
2190.8762552368880279
 31
0.0
  0
LINE
  5
15737
  8
0
 10
8655.420081043663231
 20
2190.8285720873100217
 30
0.0
 11
8655.4175820756681787
 21
2190.8762552368880279
 31
0.0
  0
LINE
  5
15738
  8
0
 10
8655.5431477161582734
 20
2190.8172001187890601
 30
0.0
 11
8655.4320645980806148
 21
2190.8172001187890601
 31
0.0
  0
ARC
  5
15739
  8
0
 10
8655.5431477161582734
 20
2190.8292001187887763
 30
0.0
 40
0.012
 50
270.0
 51
356.9999999815984211
  0
ARC
  5
1573A
  8
0
 10
8655.4320645980806148
 20
2190.8292001187887763
 30
0.0
 40
0.012
 50
183.0000000184276132
 51
270.0
  0
LINE
  5
1573B
  8
0
 10
8654.7992257587775384
 20
2190.8285720873100217
 30
0.0
 11
8654.8017247267707717
 21
2190.8762552368880279
 31
0.0
  0
LINE
  5
1573C
  8
0
 10
8654.6641755318632931
 20
2190.8285720873100217
 30
0.0
 11
8654.6616765638700599
 21
2190.8762552368880279
 31
0.0
  0
LINE
  5
1573D
  8
0
 10
8654.7872422043583356
 20
2190.8172001187890601
 30
0.0
 11
8654.676159086282496
 21
2190.8172001187890601
 31
0.0
  0
ARC
  5
1573E
  8
0
 10
8654.7872422043583356
 20
2190.8292001187887763
 30
0.0
 40
0.012
 50
270.0
 51
356.9999999815984211
  0
ARC
  5
1573F
  8
0
 10
8654.676159086282496
 20
2190.8292001187887763
 30
0.0
 40
0.012
 50
183.0000000184276132
 51
270.0
  0
LINE
  5
15740
  8
0
 10
8654.0433202469248499
 20
2190.8285720873100217
 30
0.0
 11
8654.0458192149199022
 21
2190.8762552368880279
 31
0.0
  0
LINE
  5
15741
  8
0
 10
8653.9082700200142426
 20
2190.8285720873100217
 30
0.0
 11
8653.9057710520191904
 21
2190.8762552368880279
 31
0.0
  0
LINE
  5
15742
  8
0
 10
8654.0313366925092851
 20
2190.8172001187890601
 30
0.0
 11
8653.9202535744298075
 21
2190.8172001187890601
 31
0.0
  0
ARC
  5
15743
  8
0
 10
8654.0313366925092851
 20
2190.8292001187887763
 30
0.0
 40
0.012
 50
270.0
 51
356.9999999815984211
  0
ARC
  5
15744
  8
0
 10
8653.9202535744298075
 20
2190.8292001187887763
 30
0.0
 40
0.012
 50
183.0000000184276132
 51
270.0
  0
LINE
  5
15745
  8
0
 10
8653.2874147350757994
 20
2190.8285720873100217
 30
0.0
 11
8653.2899137030690326
 21
2190.8762552368880279
 31
0.0
  0
LINE
  5
15746
  8
0
 10
8653.1523645081633731
 20
2190.8285720873100217
 30
0.0
 11
8653.1498655401701399
 21
2190.8762552368880279
 31
0.0
  0
LINE
  5
15747
  8
0
 10
8653.2754311806584155
 20
2190.8172001187890601
 30
0.0
 11
8653.164348062578938
 21
2190.8172001187890601
 31
0.0
  0
ARC
  5
15748
  8
0
 10
8653.2754311806584155
 20
2190.8292001187887763
 30
0.0
 40
0.012
 50
270.0
 51
356.9999999815984211
  0
ARC
  5
15749
  8
0
 10
8653.164348062578938
 20
2190.8292001187887763
 30
0.0
 40
0.012
 50
183.0000000184276132
 51
270.0
  0
LINE
  5
1574A
  8
0
 10
8652.5315092232758616
 20
2190.8285720873100217
 30
0.0
 11
8652.5340081912690948
 21
2190.8762552368880279
 31
0.0
  0
LINE
  5
1574B
  8
0
 10
8652.3964589963634353
 20
2190.8285720873100217
 30
0.0
 11
8652.3939600283683831
 21
2190.8762552368880279
 31
0.0
  0
LINE
  5
1574C
  8
0
 10
8652.5195256688584777
 20
2190.8172001187890601
 30
0.0
 11
8652.4084425507808191
 21
2190.8172001187890601
 31
0.0
  0
ARC
  5
1574D
  8
0
 10
8652.5195256688584777
 20
2190.8292001187887763
 30
0.0
 40
0.012
 50
270.0
 51
356.9999999815984211
  0
ARC
  5
1574E
  8
0
 10
8652.4084425507808191
 20
2190.8292001187887763
 30
0.0
 40
0.012
 50
183.0000000184276132
 51
270.0
  0
LINE
  5
1574F
  8
0
 10
8651.7756037313247361
 20
2190.8285720873100217
 30
0.0
 11
8651.7781026993216074
 21
2190.8762552368880279
 31
0.0
  0
LINE
  5
15750
  8
0
 10
8651.6405535044141288
 20
2190.8285720873100217
 30
0.0
 11
8651.6380545364172576
 21
2190.8762552368880279
 31
0.0
  0
LINE
  5
15751
  8
0
 10
8651.7636201769091713
 20
2190.8172001187890601
 30
0.0
 11
8651.6525370588296937
 21
2190.8172001187890601
 31
0.0
  0
ARC
  5
15752
  8
0
 10
8651.7636201769091713
 20
2190.8292001187887763
 30
0.0
 40
0.012
 50
270.0
 51
356.9999999815984211
  0
ARC
  5
15753
  8
0
 10
8651.6525370588296937
 20
2190.8292001187887763
 30
0.0
 40
0.012
 50
183.0000000184276132
 51
270.0
  0
LINE
  5
15754
  8
0
 10
8667.6529605274681671
 20
2190.6793103549889565
 30
0.0
 11
8667.6529605274681671
 21
2185.388066260488813
 31
0.0
  0
LINE
  5
15755
  8
0
 10
8667.6529605274681671
 20
2184.4038142919889651
 30
0.0
 11
8667.6529605274681671
 21
2176.4510583864889668
 31
0.0
  0
LINE
  5
15756
  8
0
 10
8667.6529605274681671
 20
2175.2699560242890584
 30
0.0
 11
8667.6529605274681671
 21
2150.1872788589889751
 31
0.0
  0
LINE
  5
15757
  8
0
 10
8667.6529605274681671
 20
2150.1832788589890697
 30
0.0
 11
8667.6529605274681671
 21
2150.1282237407890534
 31
0.0
  0
LINE
  5
15758
  8
0
 10
8668.4403621022720472
 20
2190.6797119297889367
 30
0.0
 11
8668.4403621022720472
 21
2185.388066260488813
 31
0.0
  0
LINE
  5
15759
  8
0
 10
8668.4403621022720472
 20
2184.4038142919889651
 30
0.0
 11
8668.4403621022720472
 21
2176.4510583864889668
 31
0.0
  0
LINE
  5
1575A
  8
0
 10
8668.4403621022720472
 20
2175.2699560242890584
 30
0.0
 11
8668.4403621022720472
 21
2150.1872788589889751
 31
0.0
  0
LINE
  5
1575B
  8
0
 10
8668.4403621022720472
 20
2150.1832788589890697
 30
0.0
 11
8668.4403621022720472
 21
2150.1282237407890534
 31
0.0
  0
ARC
  5
1575C
  8
0
 10
8664.8969605274687638
 20
2190.6793103549889565
 30
0.0
 40
2.7559999999999989
 50
0.0
 51
90.0
  0
ARC
  5
1575D
  8
0
 10
8664.8973621022687439
 20
2190.6797119297889367
 30
0.0
 40
3.5430000000000001
 50
0.0
 51
90.0
  0
LINE
  5
1575E
  8
0
 10
8667.5545045184189803
 20
2185.388066260488813
 30
0.0
 11
8669.030913283369955
 21
2185.388066260488813
 31
0.0
  0
ARC
  5
1575F
  8
0
 10
8668.8351555814988387
 20
2185.3680662604888312
 30
0.0
 40
0.02
 50
90.0
 51
179.7205955491548934
  0
LINE
  5
15760
  8
0
 10
8667.5176698272298381
 20
2184.4038142919889651
 30
0.0
 11
8669.030913283369955
 21
2184.4038142919889651
 31
0.0
  0
LINE
  5
15761
  8
0
 10
8667.5345075647182966
 20
2185.3684153203039386
 30
0.0
 11
8667.5176698272298381
 21
2184.4038142919889651
 31
0.0
  0
LINE
  5
15762
  8
0
 10
8669.030913283369955
 20
2185.388066260488813
 30
0.0
 11
8669.030913283369955
 21
2184.4038142919889651
 31
0.0
  0
ARC
  5
15763
  8
0
 10
8667.5545045184189803
 20
2185.3680662604888312
 30
0.0
 40
0.02
 50
90.0
 51
178.9999665148185102
  0
LINE
  5
15764
  8
0
 10
8668.8104531050685182
 20
2184.4038142919889651
 30
0.0
 11
8668.8151558193039818
 21
2185.3681637906538526
 31
0.0
  0
LINE
  5
15765
  8
0
 10
8666.4476140094793664
 20
2176.4510583864889668
 30
0.0
 11
8666.6209915931958676
 21
2176.4510583864889668
 31
0.0
  0
LINE
  5
15766
  8
0
 10
8667.4123702033793961
 20
2176.4510583864889668
 30
0.0
 11
8668.6848891795289092
 21
2176.4510583864889668
 31
0.0
  0
LINE
  5
15767
  8
0
 10
8666.4320013430096878
 20
2175.2699560242890584
 30
0.0
 11
8666.7427526959454553
 21
2175.2699560242890584
 31
0.0
  0
LINE
  5
15768
  8
0
 10
8667.3347584061357338
 20
2175.2699560242890584
 30
0.0
 11
8668.7005023575438827
 21
2175.2699560242890584
 31
0.0
  0
LINE
  5
15769
  8
0
 10
8666.4161170799743559
 20
2176.4199981951069276
 30
0.0
 11
8666.4005044134992204
 21
2175.3018958329071211
 31
0.0
  0
LINE
  5
1576A
  8
0
 10
8668.7163861088374688
 20
2176.4199982095137784
 30
0.0
 11
8668.7319992868488043
 21
2175.3018958473148814
 31
0.0
  0
ARC
  5
1576B
  8
0
 10
8668.6848891795289092
 20
2176.4195583864889159
 30
0.0
 40
0.0315
 50
0.8000260951157828
 51
90.0
  0
ARC
  5
1576C
  8
0
 10
8666.4476140094793664
 20
2176.4195583864889159
 30
0.0
 40
0.0315
 50
90.0
 51
179.2000001131686986
  0
ARC
  5
1576D
  8
0
 10
8666.4320013430096878
 20
2175.3014560242891093
 30
0.0
 40
0.0315
 50
179.2000001131426927
 51
270.0
  0
ARC
  5
1576E
  8
0
 10
8668.7005023575438827
 20
2175.3014560242891093
 30
0.0
 40
0.0315
 50
270.0
 51
0.8000260951157828
  0
LINE
  5
1576F
  8
0
 10
8666.6524885225990147
 20
2176.4199982025052122
 30
0.0
 11
8666.668101451739858
 21
2175.301895840304951
 31
0.0
  0
ARC
  5
15770
  8
0
 10
8666.6209915931958676
 20
2176.4195583864889159
 30
0.0
 40
0.0315
 50
0.8000133443798046
 51
90.0
  0
ARC
  5
15771
  8
0
 10
8666.6366045223367109
 20
2175.3014560242891093
 30
0.0
 40
0.0315
 50
270.0
 51
0.8000133443537523
  0
LINE
  5
15772
  8
0
 10
8667.3808732738725666
 20
2176.4199981951669542
 30
0.0
 11
8667.3652606052655756
 21
2175.3018958329671477
 31
0.0
  0
ARC
  5
15773
  8
0
 10
8667.4123702033793961
 20
2176.4195583864889159
 30
0.0
 40
0.0315
 50
90.0
 51
179.2000000036480003
  0
ARC
  5
15774
  8
0
 10
8667.3967575347705861
 20
2175.3014560242891093
 30
0.0
 40
0.0315
 50
179.2000000036480003
 51
270.0
  0
LINE
  5
15775
  8
0
 10
8666.5507027352687146
 20
2176.5010583864891487
 30
0.0
 11
8667.5337556000686163
 21
2176.5010583864891487
 31
0.0
  0
LINE
  5
15776
  8
0
 10
8666.5507027352687146
 20
2176.5010583864891487
 30
0.0
 11
8666.5556150698703277
 21
2176.4510583864889668
 31
0.0
  0
LINE
  5
15777
  8
0
 10
8667.5337556000704353
 20
2176.5010583864891487
 30
0.0
 11
8667.5288432653687778
 21
2176.4510583864889668
 31
0.0
  0
LINE
  5
15778
  8
0
 10
8666.6646725819718995
 20
2175.547450492788812
 30
0.0
 11
8667.3686894179190858
 21
2175.547450492788812
 31
0.0
  0
LINE
  5
15779
  8
0
 10
8667.6529605274681671
 20
2150.1872788589889751
 30
0.0
 11
8668.4403621022720472
 21
2150.1872788589889751
 31
0.0
  0
ARC
  5
1577A
  8
0
 10
8668.4363621022694133
 20
2150.1832788589890697
 30
0.0
 40
0.004
 50
0.0
 51
89.9999999998957776
  0
ARC
  5
1577B
  8
0
 10
8667.656960527470801
 20
2150.1832788589890697
 30
0.0
 40
0.004
 50
90.0000000002084306
 51
179.999999999947903
  0
LINE
  5
1577C
  8
0
 10
8663.1844565904684714
 20
2150.1282237407890534
 30
0.0
 11
8666.1266317551162501
 21
2150.1282237407890534
 31
0.0
  0
LINE
  5
1577D
  8
0
 10
8666.7169521162195451
 20
2150.1282237407890534
 30
0.0
 11
8668.9915432046673232
 21
2150.1282237407890534
 31
0.0
  0
LINE
  5
1577E
  8
0
 10
8663.1844565904684714
 20
2150.1282237407890534
 30
0.0
 11
8663.1254014723690489
 21
2150.0691686226891761
 31
0.0
  0
LINE
  5
1577F
  8
0
 10
8663.1254014723690489
 20
2150.0691686226891761
 30
0.0
 11
8663.1254014723690489
 21
2149.9707434258889407
 31
0.0
  0
LINE
  5
15780
  8
0
 10
8663.1254014723690489
 20
2149.9707434258889407
 30
0.0
 11
8666.124474431409908
 21
2149.9707434258889407
 31
0.0
  0
LINE
  5
15781
  8
0
 10
8666.7147803722073149
 20
2149.9707434258889407
 30
0.0
 11
8668.9915432046673232
 21
2149.9707434258889407
 31
0.0
  0
LINE
  5
15782
  8
0
 10
8668.9915432046673232
 20
2150.1282237407890534
 30
0.0
 11
8668.9915432046673232
 21
2147.8053890951891844
 31
0.0
  0
LINE
  5
15783
  8
0
 10
8668.9915432046673232
 20
2150.1124757093889457
 30
0.0
 11
8669.030913283369955
 21
2150.1124757093889457
 31
0.0
  0
LINE
  5
15784
  8
0
 10
8663.1647715510698617
 20
2149.9587434258892245
 30
0.0
 11
8663.1647715510698617
 21
2148.2307749219889956
 31
0.0
  0
ARC
  5
15785
  8
0
 10
8663.1767715510704875
 20
2149.9587434258892245
 30
0.0
 40
0.012
 50
90.0
 51
180.0
  0
LINE
  5
15786
  8
0
 10
8663.1767715510704875
 20
2148.2187749219888246
 30
0.0
 11
8665.1269107579355477
 21
2148.2187749219888246
 31
0.0
  0
LINE
  5
15787
  8
0
 10
8665.5333410056045977
 20
2148.2187749219888246
 30
0.0
 11
8666.107511330557827
 21
2148.2187749219888246
 31
0.0
  0
LINE
  5
15788
  8
0
 10
8666.6978397365546698
 20
2148.2187749219888246
 30
0.0
 11
8668.9915432046673232
 21
2148.2187749219888246
 31
0.0
  0
ARC
  5
15789
  8
0
 10
8663.1767715510704875
 20
2148.2307749219889956
 30
0.0
 40
0.012
 50
179.9999999999739089
 51
270.0
  0
LINE
  5
1578A
  8
0
 10
8663.0339841494696884
 20
2148.3762552368880279
 30
0.0
 11
8663.1647715510698617
 21
2148.3762552368880279
 31
0.0
  0
LINE
  5
1578B
  8
0
 10
8663.0339841494696884
 20
2149.8329361794390024
 30
0.0
 11
8663.1647715510698617
 21
2149.8329361794390024
 31
0.0
  0
LINE
  5
1578C
  8
0
 10
8663.0139841494692519
 20
2149.8129361794390206
 30
0.0
 11
8663.0139841494692519
 21
2148.3962552368889192
 31
0.0
  0
ARC
  5
1578D
  8
0
 10
8663.0339841494696884
 20
2149.8129361794390206
 30
0.0
 40
0.02
 50
90.0
 51
180.0
  0
ARC
  5
1578E
  8
0
 10
8663.0339841494696884
 20
2148.3962552368889192
 30
0.0
 40
0.02
 50
180.0
 51
270.0
  0
LINE
  5
1578F
  8
0
 10
8668.9915432046673232
 20
2147.8447591738890878
 30
0.0
 11
8669.030913283369955
 21
2147.8447591738890878
 31
0.0
  0
LINE
  5
15790
  8
0
 10
8668.9915432046673232
 20
2147.8053890951891844
 30
0.0
 11
8666.6964387735588389
 21
2147.9554536156770155
 31
0.0
  0
LINE
  5
15791
  8
0
 10
8666.1061380619885313
 20
2147.9940502006620591
 30
0.0
 11
8663.8918601199202385
 21
2148.1388299122531862
 31
0.0
  0
LINE
  5
15792
  8
0
 10
8663.8807088007451966
 20
2148.1495500017567792
 30
0.0
 11
8663.8745623826380324
 21
2148.2080292635509977
 31
0.0
  0
ARC
  5
15793
  8
0
 10
8663.8926430634892313
 20
2148.1508043433200328
 30
0.0
 40
0.012
 50
186.0000000170950045
 51
266.259062450083718
  0
ARC
  5
15794
  8
0
 10
8663.8626281198921788
 20
2148.2067749219891084
 30
0.0
 40
0.012
 50
6.000000017095048
 51
90.0
  0
LINE
  5
15795
  8
0
 10
8667.4332921400637133
 20
2147.9072747417158098
 30
0.0
 11
8667.5939774270700582
 21
2146.5797985439889999
 31
0.0
  0
LINE
  5
15796
  8
0
 10
8668.6007121726706828
 20
2147.8309434318948661
 30
0.0
 11
8668.4492664624704048
 21
2146.5797985439889999
 31
0.0
  0
LINE
  5
15797
  8
0
 10
8667.5939774270700582
 20
2146.5797985439889999
 30
0.0
 11
8668.4492664624704048
 21
2146.5797985439889999
 31
0.0
  0
LINE
  5
15798
  8
0
 10
8667.7263463542694808
 20
2146.5797985439889999
 30
0.0
 11
8667.7263463542694808
 21
2143.7534911153388748
 31
0.0
  0
LINE
  5
15799
  8
0
 10
8668.3168975353692076
 20
2146.5797985439889999
 30
0.0
 11
8668.3168975353692076
 21
2143.4022797603188337
 31
0.0
  0
ARC
  5
1579A
  8
0
 10
8227.1477636670097127
 20
2181.1153932192078173
 30
0.0
 40
439.6338516485595846
 50
358.9786233469392869
 51
359.274332159075982
  0
ARC
  5
1579B
  8
0
 10
8554.5691540435254865
 20
2176.1297821644161559
 30
0.0
 40
112.7688823579280069
 50
358.5450674501847175
 51
359.7041267532960092
  0
ARC
  5
1579C
  8
0
 10
9387564.274625001475215
 20
-241671.4245822417142335
 30
0.0
 40
9382066.9222712460905313
 50
178.5106857691318964
 51
178.5108102790001965
  0
ARC
  5
1579D
  8
0
 10
8900.190508725347172
 20
2146.8430264582020754
 30
0.0
 40
234.086930484214605
 50
178.5179553697024915
 51
179.566173848474989
  0
ARC
  5
1579E
  8
0
 10
9015.2145749427854753
 20
2145.9730526991138504
 30
0.0
 40
349.1142866344094955
 50
179.5663330379969125
 51
180.237334087751691
  0
ARC
  5
1579F
  8
0
 10
8711.0946481990067696
 20
2144.2976527039008943
 30
0.0
 40
44.9919490058686691
 50
179.7080161654488109
 51
185.7254626035827982
  0
ARC
  5
157A0
  8
0
 10
8675.2088351671554847
 20
2140.5555893534710776
 30
0.0
 40
8.9129957503051962
 50
184.8038764165901
 51
197.5400786504511075
  0
ARC
  5
157A1
  8
0
 10
8667.4269829219156236
 20
2138.0972152982408261
 30
0.0
 40
0.7520637377811936
 50
197.6287349932441089
 51
238.4211579106361114
  0
ARC
  5
157A2
  8
0
 10
8667.2120639485110587
 20
2137.8477523052461038
 30
0.0
 40
0.4302044024704018
 50
245.4249823444808101
 51
329.906417878417983
  0
ARC
  5
157A3
  8
0
 10
8665.8758823474599922
 20
2138.6781172950309156
 30
0.0
 40
2.0032215429126241
 50
328.5202910477905789
 51
347.8876631630707834
  0
ARC
  5
157A4
  8
0
 10
8657.7946851705382869
 20
2140.6815801669758912
 30
0.0
 40
10.3282545063338898
 50
346.4274547309320837
 51
353.0322510694489893
  0
ARC
  5
157A5
  8
0
 10
8636.437313212594745
 20
2143.335064947569208
 30
0.0
 40
31.8498185414738089
 50
352.9548762689145178
 51
357.4995017273255939
  0
ARC
  5
157A6
  8
0
 10
8430.2869915609862801
 20
2152.491465105313182
 30
0.0
 40
238.2033782892463023
 50
357.4625221760397835
 51
357.8132198713415164
  0
ARC
  5
157A7
  8
0
 10
-197027.016705990099581
 20
7505.5398070580131389
 30
0.0
 40
205763.4218100004945882
 50
358.5093594515674909
 51
358.5150375192146726
  0
ARC
  5
157A8
  8
0
 10
8898.406331659438365
 20
2146.8543389619771915
 30
0.0
 40
231.7125091890077897
 50
178.5093594515674909
 51
180.0185343605556056
  0
ARC
  5
157A9
  8
0
 10
5185.1650505345733109
 20
2145.653158774889107
 30
0.0
 40
3481.5289662181148742
 50
359.9814656394443091
 51
0.0185343605556729
  0
ARC
  5
157AA
  8
0
 10
8713.3482415699309058
 20
2144.5118422202572219
 30
0.0
 40
46.6544094169861197
 50
179.9814656394443091
 51
186.3507244428251113
  0
ARC
  5
157AB
  8
0
 10
8674.5194015597407997
 20
2140.299668823599859
 30
0.0
 40
7.5986969612423083
 50
187.170352214941488
 51
195.863343613150505
  0
ARC
  5
157AC
  8
0
 10
8652.8938472506633843
 20
2141.6892607799450161
 30
0.0
 40
14.7299855960909891
 50
346.387956977370493
 51
357.1919043953158734
  0
ARC
  5
157AD
  8
0
 10
8614.9662432553122926
 20
2144.6343895574150338
 30
0.0
 40
52.7674564582936512
 50
356.0153556666084
 51
359.043461426590909
  0
ARC
  5
157AE
  8
0
 10
8665.3301258817718917
 20
2149.065231614888944
 30
0.0
 40
0.8402736485000001
 50
294.894525176874879
 51
338.4002866226504125
  0
ARC
  5
157AF
  8
0
 10
8665.3301258817718917
 20
2149.065231614888944
 30
0.0
 40
0.8402736485000001
 50
20.5155017637571291
 51
245.1054748231250926
  0
ARC
  5
157B0
  8
0
 10
8665.3301258817718917
 20
2149.0619532890141272
 30
0.0
 40
0.7897035813999996
 50
6.3771048038599201
 51
352.5402829791528916
  0
ARC
  5
157B1
  8
0
 10
8665.3301258817718917
 20
2149.065231614888944
 30
0.0
 40
0.8277025974513319
 50
18.1348164086880992
 51
340.7809719777202986
  0
LINE
  5
157B2
  8
0
 10
8664.9765318536647101
 20
2148.2804133087738592
 30
0.0
 11
8664.9763405439771304
 21
2148.3169485637699836
 31
0.0
  0
ARC
  5
157B3
  8
0
 10
8665.330126077242312
 20
2149.020184055748814
 30
0.0
 40
0.8267726807756512
 50
245.2126811507064872
 51
269.999986453534575
  0
ARC
  5
157B4
  8
0
 10
8664.9885316891522962
 20
2148.2804761435540968
 30
0.0
 40
0.012
 50
180.3000153513168868
 51
245.2126811512889049
  0
LINE
  5
157B5
  8
0
 10
8665.6837199098772544
 20
2148.2804133087738592
 30
0.0
 11
8665.683911219561196
 21
2148.3169485637699836
 31
0.0
  0
ARC
  5
157B6
  8
0
 10
8665.3301256862960145
 20
2149.020184055748814
 30
0.0
 40
0.8267726807756512
 50
270.000013546465425
 51
294.7873188492933991
  0
ARC
  5
157B7
  8
0
 10
8665.6717200743842113
 20
2148.2804761435540968
 30
0.0
 40
0.012
 50
294.7873188487110951
 51
359.6999846486830279
  0
LINE
  5
157B8
  8
0
 10
8669.030913283369955
 20
2148.2581450006891828
 30
0.0
 11
8668.9915432046673232
 21
2148.2581450006891828
 31
0.0
  0
LINE
  5
157B9
  8
0
 10
8666.8795301827358344
 20
2180.8761770900268857
 30
0.0
 11
8665.6092540942918276
 21
2185.6421929235621064
 31
0.0
  0
ARC
  5
157BA
  8
0
 10
8657.0828413632661977
 20
2180.486307806232162
 30
0.0
 40
9.9942181358480102
 50
24.1519019010621214
 51
30.9251956675997413
  0
ARC
  5
157BB
  8
0
 10
8653.4755146201587195
 20
2178.8687493917018401
 30
0.0
 40
13.9476092695435891
 50
10.6554310950186402
 51
24.1519019010621214
  0
ARC
  5
157BC
  8
0
 10
8648.2635731922437117
 20
2177.6037284815788553
 30
0.0
 40
19.3056094429154683
 50
7.211081883808184
 51
11.4849941792675398
  0
ARC
  5
157BD
  8
0
 10
8647.9435042320583307
 20
2177.5804195204659663
 30
0.0
 40
19.6260800669220608
 50
2.969635265321779
 51
7.1613005039995832
  0
ARC
  5
157BE
  8
0
 10
8649.1258285737203551
 20
2177.6303586886988342
 30
0.0
 40
18.4427597593848915
 50
356.8878481697652205
 51
3.0049900124909481
  0
ARC
  5
157BF
  8
0
 10
8664.3769029563281947
 20
2176.7505167374210941
 30
0.0
 40
3.1668144000526959
 50
355.6749266700858811
 51
357.802547380981423
  0
ARC
  5
157C0
  8
0
 10
8667.5232317354621046
 20
2176.5125583864878536
 30
0.0
 40
0.0115
 50
270.0
 51
355.6749266700858811
  0
ARC
  5
157C1
  8
0
 10
8656.411927502729668
 20
2178.3190853070641424
 30
0.0
 40
10.7754083102663802
 50
8.7758713657878094
 51
13.7277171281280594
  0
ARC
  5
157C2
  8
0
 10
8667.0581214313097007
 20
2179.8699289263449828
 30
0.0
 40
0.0932070829957141
 50
69.2043842676265513
 51
88.1163847528871287
  0
ARC
  5
157C3
  8
0
 10
8650.95158014698427
 20
2177.3514803911830313
 30
0.0
 40
16.3486030506462292
 50
357.0565258940175113
 51
9.1707090086158285
  0
ARC
  5
157C4
  8
0
 10
8667.267129354950157
 20
2176.5125583864878536
 30
0.0
 40
0.0115
 50
270.0
 51
357.0565258940436024
  0
ARC
  5
157C5
  8
0
 10
8671.340245156943638
 20
2161.1069743394100442
 30
0.0
 40
25.1956585453184587
 50
103.1475459441681011
 51
104.3440061470185043
  0
ARC
  5
157C6
  8
0
 10
8665.6130391044898715
 20
2185.5852146426532272
 30
0.0
 40
0.0571038597427459
 50
40.7923917727844128
 51
93.800517551947749
  0
LINE
  5
157C7
  8
0
 10
8665.0675432048701623
 20
2185.4772849986879919
 30
0.0
 11
8666.2508604054582975
 21
2181.0151234407098855
 31
0.0
  0
ARC
  5
157C8
  8
0
 10
8665.1069398759191245
 20
2185.478736179049065
 30
0.0
 40
0.0394233891792613
 50
102.8200611276937053
 51
182.1095420814878878
  0
ARC
  5
157C9
  8
0
 10
8636.3504735664701002
 20
2174.2544439655162023
 30
0.0
 40
30.6551777043833305
 50
10.4778202015501201
 51
12.7407260547991701
  0
ARC
  5
157CA
  8
0
 10
8656.5471096255769226
 20
2177.9510976880710587
 30
0.0
 40
10.1231290969894392
 50
1.698031903780882
 51
10.6920105400818208
  0
ARC
  5
157CB
  8
0
 10
8637.7922045839186467
 20
2177.340504724666971
 30
0.0
 40
28.8879430562823813
 50
359.0085677591812896
 51
1.8062872324492281
  0
ARC
  5
157CC
  8
0
 10
8998.3927481213086139
 20
2173.3817947742140859
 30
0.0
 40
331.7349577635717992
 50
179.4025894771673961
 51
179.4592417251959944
  0
ARC
  5
157CD
  8
0
 10
8666.6840645602278528
 20
2176.5125583864878536
 30
0.0
 40
0.0115
 50
179.4592417251699032
 51
270.0
  0
ARC
  5
157CE
  8
0
 10
8655.9202076043875422
 20
2177.8437010472630391
 30
0.0
 40
10.6204017999931999
 50
2.3448146610998601
 51
10.2654945115452101
  0
ARC
  5
157CF
  8
0
 10
8631.3268981536220963
 20
2177.0363497877087866
 30
0.0
 40
35.2267157094410308
 50
359.1483069932934882
 51
2.0202987451186609
  0
ARC
  5
157D0
  8
0
 10
8666.56122075181338
 20
2176.5125583864878536
 30
0.0
 40
0.0115
 50
179.1483069933456136
 51
270.0
  0
LINE
  5
157D1
  8
0
 10
8665.0703765574344288
 20
2185.4195927568598563
 30
0.0
 11
8666.1122125661295286
 21
2181.4861538467698665
 31
0.0
  0
ARC
  5
157D2
  8
0
 10
8554.7640514815993811
 20
2180.6199952972087885
 30
0.0
 40
110.4103869642242017
 50
2.4928095526737168
 51
2.5214298778646951
  0
ARC
  5
157D3
  8
0
 10
8665.0838504385283159
 20
2185.4231100311772025
 30
0.0
 40
0.0139253973507418
 50
183.8058781875650141
 51
194.6302251889661932
  0
ARC
  5
157D4
  8
0
 10
8668.6170770330372761
 20
2179.2088313186818596
 30
0.0
 40
2.3086191675331129
 50
164.8578806588614043
 51
166.6553882408842071
  0
ARC
  5
157D5
  8
0
 10
8666.3829036578354135
 20
2179.7385867909138142
 30
0.0
 40
0.0125
 50
165.6837205084634945
 51
190.2654945115451994
  0
ARC
  5
157D6
  8
0
 10
8665.0902802444488771
 20
2180.0945186498602197
 30
0.0
 40
1.328740111012414
 50
347.7184800117416899
 51
351.5402364994433242
  0
ARC
  5
157D7
  8
0
 10
8665.558910957452099
 20
2180.0310726326920303
 30
0.0
 40
0.8558968830277175
 50
351.1260710927625155
 51
3.8948541510782269
  0
ARC
  5
157D8
  8
0
 10
8665.6791953032734455
 20
2180.0390293091381864
 30
0.0
 40
0.7353499218480245
 50
3.912938315275555
 51
12.4548834427611297
  0
ARC
  5
157D9
  8
0
 10
8625.2476908522421581
 20
2171.4665686062248824
 30
0.0
 40
42.0656233697715933
 50
11.97927964531541
 51
12.7937248194016906
  0
ARC
  5
157DA
  8
0
 10
8634.7393561098433565
 20
2174.1354461553501096
 30
0.0
 40
32.2224925446717592
 50
11.9032574705953902
 51
13.1866193227793609
  0
ARC
  5
157DB
  8
0
 10
8640.4562220083753346
 20
2172.0675484697258071
 30
0.0
 40
27.0697790484963186
 50
18.4767324599874989
 51
19.9004662972434687
  0
ARC
  5
157DC
  8
0
 10
8665.9592862982772203
 20
2181.2058351631008009
 30
0.0
 40
0.0029544007172485
 50
107.5262596864079967
 51
136.4835298516273099
  0
ARC
  5
157DD
  8
0
 10
8665.9606034781918424
 20
2181.2045844862300328
 30
0.0
 40
0.0047707584911513
 50
136.483529851589509
 51
165.822604457182706
  0
ARC
  5
157DE
  8
0
 10
8665.9766490112815518
 20
2181.2005310771410223
 30
0.0
 40
0.0213203584077557
 50
165.822604457182706
 51
173.9118028779568874
  0
ARC
  5
157DF
  8
0
 10
8666.0184877947158384
 20
2181.2003932430911846
 30
0.0
 40
0.063084524636296
 50
177.8205609128197011
 51
190.0099884418899876
  0
ARC
  5
157E0
  8
0
 10
8666.2921642788332974
 20
2181.2470151847787747
 30
0.0
 40
0.3407028134778136
 50
189.7311339350005994
 51
196.2061436825192118
  0
ARC
  5
157E1
  8
0
 10
8667.420044849963233
 20
2181.5586816468489815
 30
0.0
 40
1.510829459361088
 50
195.6182155815058081
 51
198.1897170595088085
  0
ARC
  5
157E2
  8
0
 10
8672.7599461792324291
 20
2183.3132899802822067
 30
0.0
 40
7.1316120214343206
 50
198.1897170595088085
 51
199.0445216564012867
  0
ARC
  5
157E3
  8
0
 10
8672.6292950683255185
 20
2183.2681896056487858
 30
0.0
 40
6.9933956816853184
 50
199.0445216564012867
 51
199.6622065863919033
  0
ARC
  5
157E4
  8
0
 10
8669.9887253818797035
 20
2182.3108094946378515
 30
0.0
 40
4.1846772419197054
 50
199.4831947854451073
 51
200.9248338554093039
  0
ARC
  5
157E5
  8
0
 10
8667.0034285286292288
 20
2181.1639305323010376
 30
0.0
 40
0.9866747603408429
 50
200.6307387682581975
 51
206.0766572657751112
  0
ARC
  5
157E6
  8
0
 10
8666.2653027427495545
 20
2180.8026992560921826
 30
0.0
 40
0.164897594257185
 50
206.0766572657751112
 51
218.3268893355098896
  0
ARC
  5
157E7
  8
0
 10
8666.166093909256233
 20
2180.7242732134950529
 30
0.0
 40
0.0384340153086431
 50
218.3268893355098896
 51
237.1879993239105033
  0
ARC
  5
157E8
  8
0
 10
8666.1522453067664173
 20
2180.7027942701861321
 30
0.0
 40
0.0128776306540952
 50
237.1879993239105033
 51
259.8358798248888206
  0
ARC
  5
157E9
  8
0
 10
8666.1516219238237682
 20
2180.6993171613748927
 30
0.0
 40
0.0093450831341021
 50
259.8358798248888206
 51
295.2290728158914135
  0
ARC
  5
157EA
  8
0
 10
8666.1519266836803581
 20
2180.6986703657989892
 30
0.0
 40
0.0086300844718032
 50
295.229072815902498
 51
327.4764813970195974
  0
ARC
  5
157EB
  8
0
 10
8666.1324328257051093
 20
2180.7111005752990422
 30
0.0
 40
0.0317497861764768
 50
327.4764813970195974
 51
347.2592173334173822
  0
ARC
  5
157EC
  8
0
 10
8666.0875812109788967
 20
2180.7212418749932112
 30
0.0
 40
0.0777336235883209
 50
347.2592173334173822
 51
353.320408040461416
  0
ARC
  5
157ED
  8
0
 10
8666.0451304535235977
 20
2180.7262133644339883
 30
0.0
 40
0.1204744999938705
 50
353.320408040461416
 51
5.3216623510693246
  0
ARC
  5
157EE
  8
0
 10
8665.6131621238582738
 20
2180.6859761445070944
 30
0.0
 40
0.5543128013217974
 50
5.3216623510693246
 51
8.148808672722188
  0
ARC
  5
157EF
  8
0
 10
8665.7873400518146809
 20
2180.7109167357020851
 30
0.0
 40
0.3783583081260298
 50
8.148808672722188
 51
18.0312485406965983
  0
ARC
  5
157F0
  8
0
 10
8664.1472550842991041
 20
2180.1770317316959336
 30
0.0
 40
2.1031515995587711
 50
18.0312485406965983
 51
21.19266550424895
  0
ARC
  5
157F1
  8
0
 10
8664.8492493193753035
 20
2180.4492139733320073
 30
0.0
 40
1.350237873597157
 50
21.19266550424895
 51
31.5862630145873311
  0
ARC
  5
157F2
  8
0
 10
8665.3468218061079824
 20
2180.7551581873949544
 30
0.0
 40
0.7661315119882011
 50
31.5862630145873311
 51
35.0683716094071229
  0
ARC
  5
157F3
  8
0
 10
8665.9253756332745979
 20
2181.161295686873018
 30
0.0
 40
0.0592565588237902
 50
35.0683716094071229
 51
43.6021329143832617
  0
ARC
  5
157F4
  8
0
 10
8665.9248111049564613
 20
2181.1607580537479407
 30
0.0
 40
0.0600361366565177
 50
43.6021329143832617
 51
51.1126745833421481
  0
ARC
  5
157F5
  8
0
 10
8665.9587533655740117
 20
2181.2028422044049876
 30
0.0
 40
0.005969947663186
 50
51.1126745833421481
 51
78.9001246231376427
  0
ARC
  5
157F6
  8
0
 10
8665.9592543299604586
 20
2181.2053956706158715
 30
0.0
 40
0.0033678033534982
 50
78.9001246231376427
 51
104.7549103140099049
  0
ARC
  5
157F7
  8
0
 10
8615.8198410551995039
 20
2163.6962669255881337
 30
0.0
 40
53.0869777937277476
 50
19.3451508434526716
 51
19.6016478478035516
  0
ARC
  5
157F8
  8
0
 10
8665.9980202450351499
 20
2181.528039311665907
 30
0.0
 40
0.0793490106417048
 50
183.8352610302127914
 51
189.3633252406040128
  0
ARC
  5
157F9
  8
0
 10
8665.952351864281809
 20
2181.5249777907320095
 30
0.0
 40
0.0335781256700472
 50
177.4533188248825866
 51
183.8352610302127914
  0
ARC
  5
157FA
  8
0
 10
8665.9336076268555189
 20
2181.5258114831558487
 30
0.0
 40
0.0148153572247003
 50
163.4086285875889075
 51
177.4533188248825866
  0
ARC
  5
157FB
  8
0
 10
8665.9233222230632236
 20
2181.5288760086609727
 30
0.0
 40
0.0040831231727754
 50
131.4718064052065074
 51
163.4086285876138049
  0
ARC
  5
157FC
  8
0
 10
8665.9221425100822671
 20
2181.5302107544880528
 30
0.0
 40
0.0023017559643521
 50
107.8212311902602067
 51
131.4718064051546946
  0
ARC
  5
157FD
  8
0
 10
8665.9224992907420528
 20
2181.529100925954026
 30
0.0
 40
0.0034675225837568
 50
92.2833190315097767
 51
107.8212311904666052
  0
ARC
  5
157FE
  8
0
 10
8665.9225146344961104
 20
2181.5287161059331993
 30
0.0
 40
0.0038526483805377
 50
71.8066114792550252
 51
92.2833190315097767
  0
ARC
  5
157FF
  8
0
 10
8665.9208310482590605
 20
2181.523593457151037
 30
0.0
 40
0.0092448643593461
 50
57.9961529310801396
 51
71.8066114792550252
  0
ARC
  5
15800
  8
0
 10
8665.8948999973144964
 20
2181.492054507506964
 30
0.0
 40
0.0500120913458153
 50
35.034192536894821
 51
51.941690879693553
  0
ARC
  5
15801
  8
0
 10
8665.5975442436192679
 20
2181.2923687238389903
 30
0.0
 40
0.4081859454505551
 50
18.7115601552989688
 51
34.0239272960721166
  0
ARC
  5
15802
  8
0
 10
8665.7777143320072355
 20
2181.3533934533929823
 30
0.0
 40
0.2179616610752202
 50
11.7203555177267909
 51
18.7115601552989688
  0
ARC
  5
15803
  8
0
 10
8665.9392174396889459
 20
2181.3868989815841815
 30
0.0
 40
0.0530196281936331
 50
358.5600445101075024
 51
11.7203555177267909
  0
ARC
  5
15804
  8
0
 10
8665.9673359553999035
 20
2181.3861921592288127
 30
0.0
 40
0.0248922300985656
 50
347.8149463112641797
 51
358.5600445100814113
  0
ARC
  5
15805
  8
0
 10
8665.9874946221971186
 20
2181.3822646943722248
 30
0.0
 40
0.0044481912383033
 50
245.77848673460079
 51
309.3422134153527736
  0
ARC
  5
15806
  8
0
 10
8665.987745417154656
 20
2181.3819587429879903
 30
0.0
 40
0.0040525849181329
 50
309.342213415336289
 51
345.4138823881961002
  0
ARC
  5
15807
  8
0
 10
8665.9953809219805407
 20
2181.3983687681597985
 30
0.0
 40
0.0223776880753139
 50
216.9928042987245931
 51
244.280246071666312
  0
ARC
  5
15808
  8
0
 10
8665.9356673660895467
 20
2181.3533831329650639
 30
0.0
 40
0.0523847097646397
 50
36.9928042987245931
 51
42.7664098767485115
  0
ARC
  5
15809
  8
0
 10
8665.9702382314444549
 20
2181.3735550799569864
 30
0.0
 40
0.0158806925585714
 50
75.835086066604191
 51
104.9177449192364975
  0
LINE
  5
1580A
  8
0
 10
8665.9661500318143226
 20
2181.388900535960147
 30
0.0
 11
8665.9198104835322738
 21
2181.3765495474372074
 31
0.0
  0
ARC
  5
1580B
  8
0
 10
8665.9145323829034169
 20
2181.397083251300046
 30
0.0
 40
0.0212012108283542
 50
261.4330661456331768
 51
284.4155524687959087
  0
ARC
  5
1580C
  8
0
 10
8665.9145738873849041
 20
2181.3973586989877731
 30
0.0
 40
0.0214797679145736
 50
235.7389023422261118
 51
261.4330410330500172
  0
ARC
  5
1580D
  8
0
 10
8665.926585452794825
 20
2181.4149927027369813
 30
0.0
 40
0.0428160232522475
 50
211.5992814302296949
 51
235.7389023422261118
  0
ARC
  5
1580E
  8
0
 10
8666.160632065637401
 20
2181.5589750934768745
 30
0.0
 40
0.317604570733665
 50
204.9068405177750094
 51
211.5992814302296949
  0
ARC
  5
1580F
  8
0
 10
8666.0396933459651336
 20
2181.5028196579851283
 30
0.0
 40
0.1842643785499413
 50
193.6257039994499962
 51
204.9068405177750094
  0
ARC
  5
15810
  8
0
 10
8665.9371347982269072
 20
2181.4779594261472084
 30
0.0
 40
0.0787357718063529
 50
181.9741989282643999
 51
193.6257039994499962
  0
ARC
  5
15811
  8
0
 10
8665.8802286780846771
 20
2181.4759978770930502
 30
0.0
 40
0.0217958544880057
 50
149.9100914505218043
 51
181.9741989282383088
  0
ARC
  5
15812
  8
0
 10
8665.8798677657268854
 20
2181.4762070057518031
 30
0.0
 40
0.0213787303730571
 50
106.5494745621933959
 51
149.9100914505218043
  0
ARC
  5
15813
  8
0
 10
8665.8817569725797512
 20
2181.4698493149721799
 30
0.0
 40
0.0280111759695303
 50
103.2988345601685012
 51
106.5494745621933959
  0
LINE
  5
15814
  8
0
 10
8665.8753135633996862
 20
2181.497109330695821
 30
0.0
 11
8665.9088168545131339
 21
2181.506038993059974
 31
0.0
  0
ARC
  5
15815
  8
0
 10
8665.9043318662443198
 20
2181.5225163025547772
 30
0.0
 40
0.0170767926719674
 50
285.2265576772077793
 51
334.3702550413127028
  0
ARC
  5
15816
  8
0
 10
8665.8897520702867041
 20
2181.4148594880521159
 30
0.0
 40
0.0058830599626479
 50
223.7162454064136909
 51
240.8516135447964075
  0
ARC
  5
15817
  8
0
 10
8665.8876959437384357
 20
2181.4111726880391871
 30
0.0
 40
0.0016616679274788
 50
240.851613544783703
 51
258.2565684613873032
  0
ARC
  5
15818
  8
0
 10
8665.8876218553086801
 20
2181.4108162892398468
 30
0.0
 40
0.0012976497957425
 50
258.2565684612799259
 51
273.9167638869989787
  0
ARC
  5
15819
  8
0
 10
8665.8876611435753148
 20
2181.4102424623429215
 30
0.0
 40
0.0007224794938116
 50
273.9167638871030022
 51
302.4945898925627716
  0
ARC
  5
1581A
  8
0
 10
8665.8875094693685242
 20
2181.4104805927718189
 30
0.0
 40
0.0010048111542966
 50
302.4945898923029972
 51
326.0264401293234755
  0
ARC
  5
1581B
  8
0
 10
8665.8869742069964559
 20
2181.4108412725308881
 30
0.0
 40
0.0016502534045626
 50
326.0264401294464847
 51
342.5538806699273096
  0
ARC
  5
1581C
  8
0
 10
8665.8846839886773523
 20
2181.4115610084768377
 30
0.0
 40
0.0040509032704642
 50
342.5538806698959888
 51
357.404301723000799
  0
ARC
  5
1581D
  8
0
 10
8665.8762544942292152
 20
2181.4119431553967843
 30
0.0
 40
0.0124890554908465
 50
357.404301723000799
 51
3.3010513036249169
  0
ARC
  5
1581E
  8
0
 10
8665.870361601408149
 20
2181.4116032648480541
 30
0.0
 40
0.0183917422850321
 50
3.3010513036249169
 51
12.6760305223072294
  0
ARC
  5
1581F
  8
0
 10
8665.8088862998465629
 20
2181.3977762288600388
 30
0.0
 40
0.0814028494513043
 50
12.6760305223072294
 51
19.3599321843566514
  0
ARC
  5
15820
  8
0
 10
8665.7728993542805256
 20
2181.3851315050151243
 30
0.0
 40
0.1195466470119366
 50
19.3599321843566514
 51
24.7413082874506394
  0
ARC
  5
15821
  8
0
 10
8665.7754732694374979
 20
2181.3863176227459917
 30
0.0
 40
0.1167125837605211
 50
24.7413082874506394
 51
32.4703708655295102
  0
ARC
  5
15822
  8
0
 10
8665.8576775258497946
 20
2181.438627766513946
 30
0.0
 40
0.0192759843060343
 50
32.4703708655295102
 51
47.1022293409847777
  0
ARC
  5
15823
  8
0
 10
8665.8681955977317557
 20
2181.4499474431158887
 30
0.0
 40
0.0038239645526854
 50
47.1022293409847777
 51
68.8361970189006769
  0
ARC
  5
15824
  8
0
 10
8665.8692389092593658
 20
2181.4526423092488585
 30
0.0
 40
0.0009341890560208
 50
68.8361970187846737
 51
112.4473313172757969
  0
ARC
  5
15825
  8
0
 10
8665.8691107057147747
 20
2181.4529526265077948
 30
0.0
 40
0.0005984317766152
 50
112.4473313175182057
 51
130.1246705405528132
  0
ARC
  5
15826
  8
0
 10
8665.8695030766866694
 20
2181.4524870779978301
 30
0.0
 40
0.0012072752660685
 50
130.1246705405359876
 51
162.3868036273671009
  0
ARC
  5
15827
  8
0
 10
8665.8726683790537209
 20
2181.4514821824891442
 30
0.0
 40
0.0045282621773488
 50
162.3868036274234896
 51
179.1591020398944067
  0
ARC
  5
15828
  8
0
 10
8665.8825566529867501
 20
2181.4513370474278418
 30
0.0
 40
0.0144176011631306
 50
179.1591020398944067
 51
187.8613850910772953
  0
ARC
  5
15829
  8
0
 10
8665.9094490103707358
 20
2181.4550501988310316
 30
0.0
 40
0.0415650942138777
 50
187.8613850910772953
 51
198.5608921966384059
  0
ARC
  5
1582A
  8
0
 10
8666.0463841548971686
 20
2181.5010299380828656
 30
0.0
 40
0.1860135979375275
 50
198.5608921966384059
 51
203.1598118175413106
  0
ARC
  5
1582B
  8
0
 10
8665.9539187627833599
 20
2181.461475968133982
 30
0.0
 40
0.0854433971948292
 50
203.1598118175413106
 51
212.0178318340377928
  0
ARC
  5
1582C
  8
0
 10
8665.915589509970232
 20
2181.4375086027371253
 30
0.0
 40
0.0402375764956625
 50
212.0178318340377928
 51
221.6000787484493912
  0
ARC
  5
1582D
  8
0
 10
8665.9546583367355197
 20
2181.8011606436689362
 30
0.0
 40
0.0793490106417048
 50
183.8352610302127914
 51
189.3633252406040128
  0
ARC
  5
1582E
  8
0
 10
8665.9089899559803598
 20
2181.7980991227350387
 30
0.0
 40
0.0335781256700472
 50
177.4533188248825866
 51
183.8352610302127914
  0
ARC
  5
1582F
  8
0
 10
8665.8902457185558887
 20
2181.7989328151588779
 30
0.0
 40
0.0148153572247003
 50
163.4086285875889075
 51
177.4533188248825866
  0
ARC
  5
15830
  8
0
 10
8665.8799603147617745
 20
2181.8019973406649115
 30
0.0
 40
0.0040831231727754
 50
131.4718064052065074
 51
163.4086285876138049
  0
ARC
  5
15831
  8
0
 10
8665.8787806017826369
 20
2181.803332086491082
 30
0.0
 40
0.0023017559643521
 50
107.8212311902602067
 51
131.4718064051546946
  0
ARC
  5
15832
  8
0
 10
8665.8791373824406037
 20
2181.8022222579579648
 30
0.0
 40
0.0034675225837568
 50
92.2833190315097767
 51
107.8212311904666052
  0
ARC
  5
15833
  8
0
 10
8665.8791527261964802
 20
2181.801837437937138
 30
0.0
 40
0.0038526483805377
 50
71.8066114792550252
 51
92.2833190315097767
  0
ARC
  5
15834
  8
0
 10
8665.8774691399594303
 20
2181.7967147891540662
 30
0.0
 40
0.0092448643593461
 50
57.9961529310801396
 51
71.8066114792550252
  0
ARC
  5
15835
  8
0
 10
8665.8515380890130473
 20
2181.7651758395099932
 30
0.0
 40
0.0500120913458153
 50
35.034192536894821
 51
51.941690879693553
  0
ARC
  5
15836
  8
0
 10
8665.5541823353178188
 20
2181.5654900558420195
 30
0.0
 40
0.4081859454505551
 50
18.7115601552989688
 51
34.0239272960721166
  0
ARC
  5
15837
  8
0
 10
8665.7343524237021484
 20
2181.6265147853969211
 30
0.0
 40
0.2179616610752202
 50
11.7203555177267909
 51
18.7115601552989688
  0
ARC
  5
15838
  8
0
 10
8665.8958555313856778
 20
2181.6600203135881202
 30
0.0
 40
0.0530196281936331
 50
358.5600445101075024
 51
11.7203555177267909
  0
ARC
  5
15839
  8
0
 10
8665.9239740470984543
 20
2181.6593134912318419
 30
0.0
 40
0.0248922300985656
 50
347.8149463112641797
 51
358.5600445100814113
  0
ARC
  5
1583A
  8
0
 10
8665.9441327138956694
 20
2181.6553860263761635
 30
0.0
 40
0.0044481912383033
 50
245.77848673460079
 51
309.3422134153527736
  0
ARC
  5
1583B
  8
0
 10
8665.9443835088532069
 20
2181.6550800749910195
 30
0.0
 40
0.0040525849181329
 50
309.342213415336289
 51
345.4138823881961002
  0
ARC
  5
1583C
  8
0
 10
8665.9520190136772726
 20
2181.6714901001628277
 30
0.0
 40
0.0223776880753139
 50
216.9928042987245931
 51
244.280246071666312
  0
ARC
  5
1583D
  8
0
 10
8665.8923054577899165
 20
2181.6265044649680931
 30
0.0
 40
0.0523847097646397
 50
36.9928042987245931
 51
42.7664098767485115
  0
ARC
  5
1583E
  8
0
 10
8665.9268763231448247
 20
2181.6466764119609252
 30
0.0
 40
0.0158806925585714
 50
75.835086066604191
 51
104.9177449192364975
  0
LINE
  5
1583F
  8
0
 10
8665.9227881235128734
 20
2181.6620218679631762
 30
0.0
 11
8665.8764485752308246
 21
2181.6496708794411461
 31
0.0
  0
ARC
  5
15840
  8
0
 10
8665.8711704746019677
 20
2181.6702045833039847
 30
0.0
 40
0.0212012108283542
 50
261.4330661456331768
 51
284.4155524687959087
  0
ARC
  5
15841
  8
0
 10
8665.8712119790834549
 20
2181.6704800309908023
 30
0.0
 40
0.0214797679145736
 50
235.7389023422261118
 51
261.4330410330500172
  0
ARC
  5
15842
  8
0
 10
8665.8832235444933758
 20
2181.68811403474092
 30
0.0
 40
0.0428160232522475
 50
211.5992814302296949
 51
235.7389023422261118
  0
ARC
  5
15843
  8
0
 10
8666.1172701573377708
 20
2181.8320964254799037
 30
0.0
 40
0.317604570733665
 50
204.9068405177750094
 51
211.5992814302296949
  0
ARC
  5
15844
  8
0
 10
8665.9963314376636845
 20
2181.775940989989067
 30
0.0
 40
0.1842643785499413
 50
193.6257039994499962
 51
204.9068405177750094
  0
ARC
  5
15845
  8
0
 10
8665.893772889925458
 20
2181.7510807581497829
 30
0.0
 40
0.0787357718063529
 50
181.9741989282643999
 51
193.6257039994499962
  0
ARC
  5
15846
  8
0
 10
8665.8368667697832279
 20
2181.7491192090969889
 30
0.0
 40
0.0217958544880057
 50
149.9100914505218043
 51
181.9741989282383088
  0
ARC
  5
15847
  8
0
 10
8665.8365058574236173
 20
2181.7493283377548323
 30
0.0
 40
0.0213787303730571
 50
106.5494745621933959
 51
149.9100914505218043
  0
ARC
  5
15848
  8
0
 10
8665.838395064278302
 20
2181.7429706469752091
 30
0.0
 40
0.0280111759695303
 50
103.2988345601685012
 51
106.5494745621933959
  0
LINE
  5
15849
  8
0
 10
8665.8319516550964181
 20
2181.7702306626988502
 30
0.0
 11
8665.8654549462135037
 21
2181.7791603250630033
 31
0.0
  0
ARC
  5
1584A
  8
0
 10
8665.8609699579428707
 20
2181.795637634556897
 30
0.0
 40
0.0170767926719674
 50
285.2265576772077793
 51
334.3702550413127028
  0
ARC
  5
1584B
  8
0
 10
8665.846390161985255
 20
2181.6879808200551452
 30
0.0
 40
0.0058830599626479
 50
223.7162454064136909
 51
240.8516135447964075
  0
ARC
  5
1584C
  8
0
 10
8665.8443340354369866
 20
2181.6842940200431258
 30
0.0
 40
0.0016616679274788
 50
240.851613544783703
 51
258.2565684613873032
  0
ARC
  5
1584D
  8
0
 10
8665.844259947005412
 20
2181.683937621242876
 30
0.0
 40
0.0012976497957425
 50
258.2565684612799259
 51
273.9167638869989787
  0
ARC
  5
1584E
  8
0
 10
8665.8442992352756846
 20
2181.6833637943459507
 30
0.0
 40
0.0007224794938116
 50
273.9167638871030022
 51
302.4945898925627716
  0
ARC
  5
1584F
  8
0
 10
8665.844147561068894
 20
2181.6836019247762124
 30
0.0
 40
0.0010048111542966
 50
302.4945898923029972
 51
326.0264401293234755
  0
ARC
  5
15850
  8
0
 10
8665.8436122986950068
 20
2181.6839626045339173
 30
0.0
 40
0.0016502534045626
 50
326.0264401294464847
 51
342.5538806699273096
  0
ARC
  5
15851
  8
0
 10
8665.8413220803759032
 20
2181.684682340479867
 30
0.0
 40
0.0040509032704642
 50
342.5538806698959888
 51
357.404301723000799
  0
ARC
  5
15852
  8
0
 10
8665.832892585929585
 20
2181.6850644873998135
 30
0.0
 40
0.0124890554908465
 50
357.404301723000799
 51
3.3010513036249169
  0
ARC
  5
15853
  8
0
 10
8665.8269996931066999
 20
2181.6847245968510833
 30
0.0
 40
0.0183917422850321
 50
3.3010513036249169
 51
12.6760305223072294
  0
ARC
  5
15854
  8
0
 10
8665.7655243915451138
 20
2181.6708975608630681
 30
0.0
 40
0.0814028494513043
 50
12.6760305223072294
 51
19.3599321843566514
  0
ARC
  5
15855
  8
0
 10
8665.7295374459790764
 20
2181.658252837019063
 30
0.0
 40
0.1195466470119366
 50
19.3599321843566514
 51
24.7413082874506394
  0
ARC
  5
15856
  8
0
 10
8665.7321113611378678
 20
2181.6594389547490209
 30
0.0
 40
0.1167125837605211
 50
24.7413082874506394
 51
32.4703708655295102
  0
ARC
  5
15857
  8
0
 10
8665.8143156175483455
 20
2181.7117490985160657
 30
0.0
 40
0.0192759843060343
 50
32.4703708655295102
 51
47.1022293409847777
  0
ARC
  5
15858
  8
0
 10
8665.8248336894303065
 20
2181.723068775118918
 30
0.0
 40
0.0038239645526854
 50
47.1022293409847777
 51
68.8361970189006769
  0
ARC
  5
15859
  8
0
 10
8665.8258770009579166
 20
2181.7257636412518877
 30
0.0
 40
0.0009341890560208
 50
68.8361970187846737
 51
112.4473313172757969
  0
ARC
  5
1585A
  8
0
 10
8665.8257487974151445
 20
2181.726073958510824
 30
0.0
 40
0.0005984317766152
 50
112.4473313175182057
 51
130.1246705405528132
  0
ARC
  5
1585B
  8
0
 10
8665.8261411683852202
 20
2181.7256084100008593
 30
0.0
 40
0.0012072752660685
 50
130.1246705405359876
 51
162.3868036273671009
  0
ARC
  5
1585C
  8
0
 10
8665.8293064707522717
 20
2181.7246035144921734
 30
0.0
 40
0.0045282621773488
 50
162.3868036274234896
 51
179.1591020398944067
  0
ARC
  5
1585D
  8
0
 10
8665.83919474468712
 20
2181.724458379430871
 30
0.0
 40
0.0144176011631306
 50
179.1591020398944067
 51
187.8613850910772953
  0
ARC
  5
1585E
  8
0
 10
8665.8660871020692866
 20
2181.7281715308340608
 30
0.0
 40
0.0415650942138777
 50
187.8613850910772953
 51
198.5608921966384059
  0
ARC
  5
1585F
  8
0
 10
8666.0030222465975385
 20
2181.7741512700858948
 30
0.0
 40
0.1860135979375275
 50
198.5608921966384059
 51
203.1598118175413106
  0
ARC
  5
15860
  8
0
 10
8665.9105568544819107
 20
2181.7345973001370112
 30
0.0
 40
0.0854433971948292
 50
203.1598118175413106
 51
212.0178318340377928
  0
ARC
  5
15861
  8
0
 10
8665.8722276016706019
 20
2181.7106299347410641
 30
0.0
 40
0.0402375764956625
 50
212.0178318340377928
 51
221.6000787484493912
  0
ARC
  5
15862
  8
0
 10
8665.8343173731464049
 20
2181.8305637641169596
 30
0.0
 40
0.0793490106417048
 50
183.8352610302127914
 51
189.3633252406040128
  0
ARC
  5
15863
  8
0
 10
8665.788648992394883
 20
2181.8275022431839716
 30
0.0
 40
0.0335781256700472
 50
177.4533188248825866
 51
183.8352610302127914
  0
ARC
  5
15864
  8
0
 10
8665.7699047549667739
 20
2181.8283359356069013
 30
0.0
 40
0.0148153572247003
 50
163.4086285875889075
 51
177.4533188248825866
  0
ARC
  5
15865
  8
0
 10
8665.7596193511762976
 20
2181.8314004611129349
 30
0.0
 40
0.0040831231727754
 50
131.4718064052065074
 51
163.4086285876138049
  0
ARC
  5
15866
  8
0
 10
8665.7584396381971601
 20
2181.8327352069391054
 30
0.0
 40
0.0023017559643521
 50
107.8212311902602067
 51
131.4718064051546946
  0
ARC
  5
15867
  8
0
 10
8665.7587964188533078
 20
2181.8316253784059882
 30
0.0
 40
0.0034675225837568
 50
92.2833190315097767
 51
107.8212311904666052
  0
ARC
  5
15868
  8
0
 10
8665.7588117626073654
 20
2181.8312405583851614
 30
0.0
 40
0.0038526483805377
 50
71.8066114792550252
 51
92.2833190315097767
  0
ARC
  5
15869
  8
0
 10
8665.7571281763703155
 20
2181.8261179096029991
 30
0.0
 40
0.0092448643593461
 50
57.9961529310801396
 51
71.8066114792550252
  0
ARC
  5
1586A
  8
0
 10
8665.7311971254275704
 20
2181.7945789599589261
 30
0.0
 40
0.0500120913458153
 50
35.034192536894821
 51
51.941690879693553
  0
ARC
  5
1586B
  8
0
 10
8665.433841371730523
 20
2181.5948931762909524
 30
0.0
 40
0.4081859454505551
 50
20.5145805273082793
 51
34.0239272960721166
  0
ARC
  5
1586C
  8
0
 10
8665.6140114601166715
 20
2181.655917905844035
 30
0.0
 40
0.2179616610752202
 50
11.7203555177267909
 51
12.8650421256078502
  0
ARC
  5
1586D
  8
0
 10
8665.7755145678002009
 20
2181.6894234340361436
 30
0.0
 40
0.0530196281936331
 50
358.5600445101075024
 51
11.7203555177267909
  0
ARC
  5
1586E
  8
0
 10
8665.8036330835111585
 20
2181.6887166116807748
 30
0.0
 40
0.0248922300985656
 50
347.8149463112641797
 51
358.5600445100814113
  0
ARC
  5
1586F
  8
0
 10
8665.8237917503083736
 20
2181.6847891468241869
 30
0.0
 40
0.0044481912383033
 50
245.77848673460079
 51
309.3422134153527736
  0
ARC
  5
15870
  8
0
 10
8665.82404254526773
 20
2181.6844831954390429
 30
0.0
 40
0.0040525849181329
 50
309.342213415336289
 51
345.4138823881961002
  0
ARC
  5
15871
  8
0
 10
8665.8316780500936147
 20
2181.7008932206108511
 30
0.0
 40
0.0223776880753139
 50
216.9928042987245931
 51
244.280246071666312
  0
ARC
  5
15872
  8
0
 10
8665.7719644942026207
 20
2181.6559075854161165
 30
0.0
 40
0.0523847097646397
 50
36.9928042987245931
 51
42.7664098767485115
  0
ARC
  5
15873
  8
0
 10
8665.8065353595557099
 20
2181.6760795324089486
 30
0.0
 40
0.0158806925585714
 50
75.835086066604191
 51
104.9177449192364975
  0
LINE
  5
15874
  8
0
 10
8665.8024471599255776
 20
2181.6914249884121091
 30
0.0
 11
8665.7561076116435288
 21
2181.6790739998891695
 31
0.0
  0
ARC
  5
15875
  8
0
 10
8665.7508295110164909
 20
2181.6996077037520081
 30
0.0
 40
0.0212012108283542
 50
261.4330661456331768
 51
284.4155524687959087
  0
ARC
  5
15876
  8
0
 10
8665.7508710154943401
 20
2181.69988315144019
 30
0.0
 40
0.0214797679145736
 50
235.7389023422261118
 51
261.4330410330500172
  0
ARC
  5
15877
  8
0
 10
8665.762882580904261
 20
2181.7175171551889434
 30
0.0
 40
0.0428160232522475
 50
211.5992814302296949
 51
235.7389023422261118
  0
ARC
  5
15878
  8
0
 10
8665.996929193750475
 20
2181.8614995459288366
 30
0.0
 40
0.317604570733665
 50
204.9068405177750094
 51
211.5992814302296949
  0
ARC
  5
15879
  8
0
 10
8665.8759904740745696
 20
2181.8053441104370904
 30
0.0
 40
0.1842643785499413
 50
193.6257039994499962
 51
204.9068405177750094
  0
ARC
  5
1587A
  8
0
 10
8665.7734319263363432
 20
2181.7804838785978063
 30
0.0
 40
0.0787357718063529
 50
181.9741989282643999
 51
193.6257039994499962
  0
ARC
  5
1587B
  8
0
 10
8665.7165258061977511
 20
2181.7785223295441028
 30
0.0
 40
0.0217958544880057
 50
149.9100914505218043
 51
181.9741989282383088
  0
ARC
  5
1587C
  8
0
 10
8665.7161648938381404
 20
2181.7787314582028557
 30
0.0
 40
0.0213787303730571
 50
106.5494745621933959
 51
149.9100914505218043
  0
ARC
  5
1587D
  8
0
 10
8665.7180541006910062
 20
2181.7723737674227777
 30
0.0
 40
0.0280111759695303
 50
103.2988345601685012
 51
106.5494745621933959
  0
LINE
  5
1587E
  8
0
 10
8665.7116106915091223
 20
2181.7996337831477831
 30
0.0
 11
8665.7451139826262079
 21
2181.8085634455119362
 31
0.0
  0
ARC
  5
1587F
  8
0
 10
8665.7406289943537558
 20
2181.8250407550058299
 30
0.0
 40
0.0170767926719674
 50
285.2265576772077793
 51
334.3702550413127028
  0
ARC
  5
15880
  8
0
 10
8665.7260491983961401
 20
2181.7173839405040781
 30
0.0
 40
0.0058830599626479
 50
223.7162454064136909
 51
240.8516135447964075
  0
ARC
  5
15881
  8
0
 10
8665.7239930718515097
 20
2181.7136971404911492
 30
0.0
 40
0.0016616679274788
 50
240.851613544783703
 51
258.2565684613873032
  0
ARC
  5
15882
  8
0
 10
8665.7239189834181161
 20
2181.7133407416908994
 30
0.0
 40
0.0012976497957425
 50
258.2565684612799259
 51
273.9167638869989787
  0
ARC
  5
15883
  8
0
 10
8665.7239582716883888
 20
2181.7127669147939741
 30
0.0
 40
0.0007224794938116
 50
273.9167638871030022
 51
302.4945898925627716
  0
ARC
  5
15884
  8
0
 10
8665.7238065974834171
 20
2181.7130050452237811
 30
0.0
 40
0.0010048111542966
 50
302.4945898923029972
 51
326.0264401293234755
  0
ARC
  5
15885
  8
0
 10
8665.7232713351077109
 20
2181.7133657249819407
 30
0.0
 40
0.0016502534045626
 50
326.0264401294464847
 51
342.5538806699273096
  0
ARC
  5
15886
  8
0
 10
8665.7209811167886073
 20
2181.7140854609278904
 30
0.0
 40
0.0040509032704642
 50
342.5538806698959888
 51
357.404301723000799
  0
ARC
  5
15887
  8
0
 10
8665.7125516223422892
 20
2181.7144676078478369
 30
0.0
 40
0.0124890554908465
 50
357.404301723000799
 51
3.3010513036249169
  0
ARC
  5
15888
  8
0
 10
8665.706658729521223
 20
2181.7141277172991067
 30
0.0
 40
0.0183917422850321
 50
3.3010513036249169
 51
12.6760305223072294
  0
ARC
  5
15889
  8
0
 10
8665.6451834279596369
 20
2181.700300681312001
 30
0.0
 40
0.0814028494513043
 50
12.6760305223072294
 51
19.3599321843566514
  0
ARC
  5
1588A
  8
0
 10
8665.6091964823917806
 20
2181.6876559574670864
 30
0.0
 40
0.1195466470119366
 50
19.3599321843566514
 51
24.7413082874506394
  0
ARC
  5
1588B
  8
0
 10
8665.6117703975523909
 20
2181.6888420751979538
 30
0.0
 40
0.1167125837605211
 50
24.7413082874506394
 51
32.4703708655295102
  0
ARC
  5
1588C
  8
0
 10
8665.6939746539628686
 20
2181.7411522189649986
 30
0.0
 40
0.0192759843060343
 50
32.4703708655295102
 51
47.1022293409847777
  0
ARC
  5
1588D
  8
0
 10
8665.7044927258411917
 20
2181.7524718955669414
 30
0.0
 40
0.0038239645526854
 50
47.1022293409847777
 51
68.8361970189006769
  0
ARC
  5
1588E
  8
0
 10
8665.7055360373724398
 20
2181.7551667616999111
 30
0.0
 40
0.0009341890560208
 50
68.8361970187846737
 51
112.4473313172757969
  0
ARC
  5
1588F
  8
0
 10
8665.7054078338260297
 20
2181.7554770789602117
 30
0.0
 40
0.0005984317766152
 50
112.4473313175182057
 51
130.1246705405528132
  0
ARC
  5
15890
  8
0
 10
8665.7058002047961054
 20
2181.7550115304497922
 30
0.0
 40
0.0012072752660685
 50
130.1246705405359876
 51
162.3868036273671009
  0
ARC
  5
15891
  8
0
 10
8665.7089655071667949
 20
2181.7540066349401968
 30
0.0
 40
0.0045282621773488
 50
162.3868036274234896
 51
179.1591020398944067
  0
ARC
  5
15892
  8
0
 10
8665.7188537810998241
 20
2181.7538614998788944
 30
0.0
 40
0.0144176011631306
 50
179.1591020398944067
 51
187.8613850910772953
  0
ARC
  5
15893
  8
0
 10
8665.7457461384801718
 20
2181.7575746512820842
 30
0.0
 40
0.0415650942138777
 50
187.8613850910772953
 51
198.5608921966384059
  0
ARC
  5
15894
  8
0
 10
8665.8826812830084236
 20
2181.8035543905339182
 30
0.0
 40
0.1860135979375275
 50
198.5608921966384059
 51
203.1598118175413106
  0
ARC
  5
15895
  8
0
 10
8665.7902158908946149
 20
2181.7640004205850346
 30
0.0
 40
0.0854433971948292
 50
203.1598118175413106
 51
212.0178318340377928
  0
ARC
  5
15896
  8
0
 10
8665.751886638083306
 20
2181.7400330551890875
 30
0.0
 40
0.0402375764956625
 50
212.0178318340377928
 51
221.6000787484493912
  0
ARC
  5
15897
  8
0
 10
8665.8803994421141397
 20
2182.1390201688368506
 30
0.0
 40
0.0793490106417048
 50
183.8352610302127914
 51
189.3633252406040128
  0
ARC
  5
15898
  8
0
 10
8665.8347310613607988
 20
2182.1359586479029531
 30
0.0
 40
0.0335781256700472
 50
177.4533188248825866
 51
183.8352610302127914
  0
ARC
  5
15899
  8
0
 10
8665.8159868239345087
 20
2182.1367923403267923
 30
0.0
 40
0.0148153572247003
 50
163.4086285875889075
 51
177.4533188248825866
  0
ARC
  5
1589A
  8
0
 10
8665.8057014201422135
 20
2182.1398568658328259
 30
0.0
 40
0.0040831231727754
 50
131.4718064052065074
 51
163.4086285876138049
  0
ARC
  5
1589B
  8
0
 10
8665.8045217071648949
 20
2182.1411916116589964
 30
0.0
 40
0.0023017559643521
 50
107.8212311902602067
 51
131.4718064051546946
  0
ARC
  5
1589C
  8
0
 10
8665.8048784878246806
 20
2182.1400817831258792
 30
0.0
 40
0.0034675225837568
 50
92.2833190315097767
 51
107.8212311904666052
  0
ARC
  5
1589D
  8
0
 10
8665.8048938315769192
 20
2182.1396969631050524
 30
0.0
 40
0.0038526483805377
 50
71.8066114792550252
 51
92.2833190315097767
  0
ARC
  5
1589E
  8
0
 10
8665.8032102453416883
 20
2182.1345743143228901
 30
0.0
 40
0.0092448643593461
 50
57.9961529310801396
 51
71.8066114792550252
  0
ARC
  5
1589F
  8
0
 10
8665.7772791943953052
 20
2182.1030353646779076
 30
0.0
 40
0.0500120913458153
 50
35.034192536894821
 51
51.941690879693553
  0
ARC
  5
158A0
  8
0
 10
8665.4799234406964388
 20
2181.9033495810099339
 30
0.0
 40
0.4081859454505551
 50
18.7115601552989688
 51
34.0239272960721166
  0
ARC
  5
158A1
  8
0
 10
8665.6600935290825873
 20
2181.9643743105648355
 30
0.0
 40
0.2179616610752202
 50
11.7203555177267909
 51
18.7115601552989688
  0
ARC
  5
158A2
  8
0
 10
8665.8215966367715737
 20
2181.9978798387560346
 30
0.0
 40
0.0530196281936331
 50
358.5600445101075024
 51
11.7203555177267909
  0
ARC
  5
158A3
  8
0
 10
8665.8497151524788933
 20
2181.9971730164011205
 30
0.0
 40
0.0248922300985656
 50
347.8149463112641797
 51
358.5600445100814113
  0
ARC
  5
158A4
  8
0
 10
8665.8698738192779274
 20
2181.9932455515440779
 30
0.0
 40
0.0044481912383033
 50
245.77848673460079
 51
309.3422134153527736
  0
ARC
  5
158A5
  8
0
 10
8665.8701246142354648
 20
2181.9929396001598434
 30
0.0
 40
0.0040525849181329
 50
309.342213415336289
 51
345.4138823881961002
  0
ARC
  5
158A6
  8
0
 10
8665.8777601190595306
 20
2182.0093496253311969
 30
0.0
 40
0.0223776880753139
 50
216.9928042987245931
 51
244.280246071666312
  0
ARC
  5
158A7
  8
0
 10
8665.8180465631721745
 20
2181.9643639901360075
 30
0.0
 40
0.0523847097646397
 50
36.9928042987245931
 51
42.7664098767485115
  0
ARC
  5
158A8
  8
0
 10
8665.8526174285252637
 20
2181.9845359371288396
 30
0.0
 40
0.0158806925585714
 50
75.835086066604191
 51
104.9177449192364975
  0
LINE
  5
158A9
  8
0
 10
8665.8485292288933124
 20
2181.9998813931310906
 30
0.0
 11
8665.8021896806130826
 21
2181.9875304046090605
 31
0.0
  0
ARC
  5
158AA
  8
0
 10
8665.7969115799842257
 20
2182.0080641084718991
 30
0.0
 40
0.0212012108283542
 50
261.4330661456331768
 51
284.4155524687959087
  0
ARC
  5
158AB
  8
0
 10
8665.7969530844638939
 20
2182.0083395561591715
 30
0.0
 40
0.0214797679145736
 50
235.7389023422261118
 51
261.4330410330500172
  0
ARC
  5
158AC
  8
0
 10
8665.8089646498738148
 20
2182.0259735599088344
 30
0.0
 40
0.0428160232522475
 50
211.5992814302296949
 51
235.7389023422261118
  0
ARC
  5
158AD
  8
0
 10
8666.0430112627182098
 20
2182.1699559506478181
 30
0.0
 40
0.317604570733665
 50
204.9068405177750094
 51
211.5992814302296949
  0
ARC
  5
158AE
  8
0
 10
8665.9220725430441234
 20
2182.1138005151569814
 30
0.0
 40
0.1842643785499413
 50
193.6257039994499962
 51
204.9068405177750094
  0
ARC
  5
158AF
  8
0
 10
8665.819513995307716
 20
2182.0889402833181521
 30
0.0
 40
0.0787357718063529
 50
181.9741989282643999
 51
193.6257039994499962
  0
ARC
  5
158B0
  8
0
 10
8665.7626078751654859
 20
2182.0869787342649033
 30
0.0
 40
0.0217958544880057
 50
149.9100914505218043
 51
181.9741989282383088
  0
ARC
  5
158B1
  8
0
 10
8665.7622469628058752
 20
2182.0871878629232015
 30
0.0
 40
0.0213787303730571
 50
106.5494745621933959
 51
149.9100914505218043
  0
ARC
  5
158B2
  8
0
 10
8665.764136169658741
 20
2182.0808301721431235
 30
0.0
 40
0.0280111759695303
 50
103.2988345601685012
 51
106.5494745621933959
  0
LINE
  5
158B3
  8
0
 10
8665.7576927604768571
 20
2182.1080901878681289
 30
0.0
 11
8665.7911960515939427
 21
2182.1170198502309177
 31
0.0
  0
ARC
  5
158B4
  8
0
 10
8665.7867110633233096
 20
2182.1334971597261756
 30
0.0
 40
0.0170767926719674
 50
285.2265576772077793
 51
334.3702550413127028
  0
ARC
  5
158B5
  8
0
 10
8665.7721312673675129
 20
2182.0258403452230596
 30
0.0
 40
0.0058830599626479
 50
223.7162454064136909
 51
240.8516135447964075
  0
ARC
  5
158B6
  8
0
 10
8665.7700751408192446
 20
2182.0221535452110402
 30
0.0
 40
0.0016616679274788
 50
240.851613544783703
 51
258.2565684613873032
  0
ARC
  5
158B7
  8
0
 10
8665.7700010523858509
 20
2182.0217971464107904
 30
0.0
 40
0.0012976497957425
 50
258.2565684612799259
 51
273.9167638869989787
  0
ARC
  5
158B8
  8
0
 10
8665.7700403406561236
 20
2182.0212233195138651
 30
0.0
 40
0.0007224794938116
 50
273.9167638871030022
 51
302.4945898925627716
  0
ARC
  5
158B9
  8
0
 10
8665.7698886664511519
 20
2182.0214614499441268
 30
0.0
 40
0.0010048111542966
 50
302.4945898923029972
 51
326.0264401293234755
  0
ARC
  5
158BA
  8
0
 10
8665.7693534040754457
 20
2182.0218221297018317
 30
0.0
 40
0.0016502534045626
 50
326.0264401294464847
 51
342.5538806699273096
  0
ARC
  5
158BB
  8
0
 10
8665.7670631857563421
 20
2182.0225418656477814
 30
0.0
 40
0.0040509032704642
 50
342.5538806698959888
 51
357.404301723000799
  0
ARC
  5
158BC
  8
0
 10
8665.758633691308205
 20
2182.0229240125681827
 30
0.0
 40
0.0124890554908465
 50
357.404301723000799
 51
3.3010513036249169
  0
ARC
  5
158BD
  8
0
 10
8665.7527407984871388
 20
2182.0225841220189977
 30
0.0
 40
0.0183917422850321
 50
3.3010513036249169
 51
12.6760305223072294
  0
ARC
  5
158BE
  8
0
 10
8665.6912654969273717
 20
2182.0087570860309825
 30
0.0
 40
0.0814028494513043
 50
12.6760305223072294
 51
19.3599321843566514
  0
ARC
  5
158BF
  8
0
 10
8665.6552785513595154
 20
2181.9961123621869774
 30
0.0
 40
0.1195466470119366
 50
19.3599321843566514
 51
24.7413082874506394
  0
ARC
  5
158C0
  8
0
 10
8665.6578524665183068
 20
2181.9972984799178448
 30
0.0
 40
0.1167125837605211
 50
24.7413082874506394
 51
32.4703708655295102
  0
ARC
  5
158C1
  8
0
 10
8665.7400567229287844
 20
2182.0496086236848896
 30
0.0
 40
0.0192759843060343
 50
32.4703708655295102
 51
47.1022293409847777
  0
ARC
  5
158C2
  8
0
 10
8665.7505747948107455
 20
2182.0609283002868324
 30
0.0
 40
0.0038239645526854
 50
47.1022293409847777
 51
68.8361970189006769
  0
ARC
  5
158C3
  8
0
 10
8665.7516181063383556
 20
2182.0636231664198021
 30
0.0
 40
0.0009341890560208
 50
68.8361970187846737
 51
112.4473313172757969
  0
ARC
  5
158C4
  8
0
 10
8665.7514899027937645
 20
2182.0639334836791932
 30
0.0
 40
0.0005984317766152
 50
112.4473313175182057
 51
130.1246705405528132
  0
ARC
  5
158C5
  8
0
 10
8665.7518822737656592
 20
2182.0634679351687737
 30
0.0
 40
0.0012072752660685
 50
130.1246705405359876
 51
162.3868036273671009
  0
ARC
  5
158C6
  8
0
 10
8665.7550475761345297
 20
2182.0624630396600878
 30
0.0
 40
0.0045282621773488
 50
162.3868036274234896
 51
179.1591020398944067
  0
ARC
  5
158C7
  8
0
 10
8665.7649358500675589
 20
2182.0623179045987854
 30
0.0
 40
0.0144176011631306
 50
179.1591020398944067
 51
187.8613850910772953
  0
ARC
  5
158C8
  8
0
 10
8665.7918282074515446
 20
2182.0660310560019752
 30
0.0
 40
0.0415650942138777
 50
187.8613850910772953
 51
198.5608921966384059
  0
ARC
  5
158C9
  8
0
 10
8665.9287633519761584
 20
2182.1120107952538092
 30
0.0
 40
0.1860135979375275
 50
198.5608921966384059
 51
203.1598118175413106
  0
ARC
  5
158CA
  8
0
 10
8665.8362979598605307
 20
2182.0724568253049256
 30
0.0
 40
0.0854433971948292
 50
203.1598118175413106
 51
212.0178318340377928
  0
ARC
  5
158CB
  8
0
 10
8665.7979687070510408
 20
2182.0484894599089785
 30
0.0
 40
0.0402375764956625
 50
212.0178318340377928
 51
221.6000787484493912
  0
LINE
  5
158CC
  8
0
 10
8665.7754134016158787
 20
2181.4954324914601784
 30
0.0
 11
8665.8177232410143915
 21
2181.5067091533601342
 31
0.0
  0
ARC
  5
158CD
  8
0
 10
8665.822740855952361
 20
2181.4878831493479083
 30
0.0
 40
0.0194831949826448
 50
90.7703040305452049
 51
104.9238792920693015
  0
ARC
  5
158CE
  8
0
 10
8665.8227351030291175
 20
2181.4883110301370834
 30
0.0
 40
0.0190552755203177
 50
75.420167560923403
 51
90.7703040305452049
  0
ARC
  5
158CF
  8
0
 10
8665.8223078482296842
 20
2181.4866684036078368
 30
0.0
 40
0.0207525582244273
 50
67.3132949150146942
 51
75.420167560923403
  0
ARC
  5
158D0
  8
0
 10
8665.8232335943339422
 20
2181.4888829141282258
 30
0.0
 40
0.0183523368401977
 50
38.4875515369447001
 51
67.3132949150146942
  0
ARC
  5
158D1
  8
0
 10
8665.8965225290994567
 20
2181.5274009024478801
 30
0.0
 40
0.0648554616922561
 50
204.6956717303604023
 51
208.0035641617351985
  0
ARC
  5
158D2
  8
0
 10
8665.8605974430556671
 20
2181.5083787710350407
 30
0.0
 40
0.0242052575781004
 50
208.1758638292602086
 51
211.9318326058491095
  0
ARC
  5
158D3
  8
0
 10
8665.8474535658606328
 20
2181.5001872927259683
 30
0.0
 40
0.0087177844293609
 50
211.9318326058491095
 51
218.4426051362621024
  0
ARC
  5
158D4
  8
0
 10
8665.8424934967297304
 20
2181.4962499815328556
 30
0.0
 40
0.0023849568431202
 50
218.4426051361600116
 51
232.3403441253788912
  0
ARC
  5
158D5
  8
0
 10
8665.8413048747843277
 20
2181.4947098443540199
 30
0.0
 40
0.0004394891217431
 50
232.3403441255250925
 51
266.6789054856390067
  0
ARC
  5
158D6
  8
0
 10
8665.8412718157778727
 20
2181.4944801515598556
 30
0.0
 40
0.0002091962813681
 50
272.0816316849267764
 51
322.2599061297084972
  0
ARC
  5
158D7
  8
0
 10
8665.8408394482703443
 20
2181.4947796151900548
 30
0.0
 40
0.0007349334752789
 50
324.4300097666670126
 51
355.8352542025490948
  0
ARC
  5
158D8
  8
0
 10
8665.8367342076217028
 20
2181.4953092852188092
 30
0.0
 40
0.0048732374506735
 50
353.1285539571774734
 51
5.8655122718876909
  0
ARC
  5
158D9
  8
0
 10
8665.7985805268708646
 20
2181.4913896953012227
 30
0.0
 40
0.0432277227162627
 50
5.8655122718876909
 51
7.9813853973130886
  0
ARC
  5
158DA
  8
0
 10
8665.8052453113268712
 20
2181.4923241617088934
 30
0.0
 40
0.0364977465400307
 50
7.9813853973130886
 51
14.0953943838481202
  0
ARC
  5
158DB
  8
0
 10
8666.0920993737036042
 20
2181.5643524094048189
 30
0.0
 40
0.2592611443977273
 50
192.9402728907537039
 51
194.0953943838480882
  0
ARC
  5
158DC
  8
0
 10
8665.6168134818453836
 20
2181.455145752205226
 30
0.0
 40
0.2284096184937314
 50
12.9402728907537306
 51
19.5270778852094011
  0
ARC
  5
158DD
  8
0
 10
8669.0289223439303896
 20
2182.6652519468948412
 30
0.0
 40
3.3919279195211498
 50
198.4151234690114904
 51
199.527077885209394
  0
ARC
  5
158DE
  8
0
 10
8665.3746335767373239
 20
2181.4485604720812262
 30
0.0
 40
0.459586657748817
 50
18.4151234690115118
 51
24.8715079143567586
  0
ARC
  5
158DF
  8
0
 10
8665.5344360224589764
 20
2181.5226417308308555
 30
0.0
 40
0.2834479210759194
 50
24.8715079143567586
 51
26.7573892056031504
  0
ARC
  5
158E0
  8
0
 10
8665.7785346077107533
 20
2181.6457170273260999
 30
0.0
 40
0.0100770229748091
 50
26.7573892056264206
 51
38.8544723184243281
  0
ARC
  5
158E1
  8
0
 10
8665.7848389300306735
 20
2181.6507957084068039
 30
0.0
 40
0.0019815006666105
 50
38.8544723185505774
 51
56.6159721102817386
  0
ARC
  5
158E2
  8
0
 10
8665.7858031720297731
 20
2181.6521817305902005
 30
0.0
 40
0.0002966564413463
 50
64.8502380486939529
 51
86.8056939618935814
  0
ARC
  5
158E3
  8
0
 10
8665.7858141576562048
 20
2181.6523167288119112
 30
0.0
 40
0.0001612926403321
 50
88.0299583025522736
 51
120.544107824929398
  0
ARC
  5
158E4
  8
0
 10
8665.7858291980119247
 20
2181.6522912402410839
 30
0.0
 40
0.0001908879034855
 50
120.5441078257960044
 51
148.8522024933699868
  0
ARC
  5
158E5
  8
0
 10
8665.7861864003843948
 20
2181.6520753553668328
 30
0.0
 40
0.0006082604142928
 50
148.8522024935037962
 51
174.0500200828464017
  0
ARC
  5
158E6
  8
0
 10
8665.789743923689457
 20
2181.6517045843938831
 30
0.0
 40
0.0041850527174575
 50
174.0500200828722939
 51
182.4977350149378026
  0
ARC
  5
158E7
  8
0
 10
8665.79657717831833
 20
2181.6520026600910569
 30
0.0
 40
0.0110248054877802
 50
182.4977350149378026
 51
193.1158796352711988
  0
ARC
  5
158E8
  8
0
 10
8665.3298759884601168
 20
2181.5432615307440756
 30
0.0
 40
0.4681772748799255
 50
12.6771347160821399
 51
13.1158796352712006
  0
ARC
  5
158E9
  8
0
 10
8665.7706578070938122
 20
2181.6452661994858317
 30
0.0
 40
0.0159994495926462
 50
349.6724762880119215
 51
2.6511580438275559
  0
ARC
  5
158EA
  8
0
 10
8665.7671573556053772
 20
2181.6459040765671489
 30
0.0
 40
0.0195575456834896
 50
287.3998956477688012
 51
349.6724762880119215
  0
LINE
  5
158EB
  8
0
 10
8665.7730058255692711
 20
2181.6272414670970647
 30
0.0
 11
8665.7356706777136424
 21
2181.6172588050599188
 31
0.0
  0
ARC
  5
158EC
  8
0
 10
8665.7404915861607151
 20
2181.5992286114101262
 30
0.0
 40
0.0186635752556878
 50
104.9695539281993035
 51
126.7915541359932945
  0
ARC
  5
158ED
  8
0
 10
8665.740509346147519
 20
2181.5992048638449887
 30
0.0
 40
0.0186932293282876
 50
126.7915541359932945
 51
180.3903123115071025
  0
ARC
  5
158EE
  8
0
 10
8665.750340554261129
 20
2181.5992718373809112
 30
0.0
 40
0.0285246655598016
 50
180.3903123115071025
 51
195.4274159490717864
  0
ARC
  5
158EF
  8
0
 10
8666.4597913836350926
 20
2181.7950524283091909
 30
0.0
 40
0.7644937675493684
 50
195.4274159490717864
 51
196.2784323413802952
  0
ARC
  5
158F0
  8
0
 10
8666.1876742546519381
 20
2181.7155909900161532
 30
0.0
 40
0.4810121066590338
 50
196.2784323413802952
 51
200.4359551582776078
  0
ARC
  5
158F1
  8
0
 10
8664.1414415360195562
 20
2180.9531418394622051
 30
0.0
 40
1.7026538581771411
 50
19.6461364314802012
 51
20.4359551582776113
  0
ARC
  5
158F2
  8
0
 10
8665.9320130929918378
 20
2181.5923608013749799
 30
0.0
 40
0.1985950423901507
 50
199.646136431480187
 51
204.3290743039565882
  0
ARC
  5
158F3
  8
0
 10
8665.8096172842870146
 20
2181.5370221867460714
 30
0.0
 40
0.06427044948974
 50
204.3290743039565882
 51
212.001313269426106
  0
ARC
  5
158F4
  8
0
 10
8665.7685549934922165
 20
2181.5113623110109984
 30
0.0
 40
0.0158499894754322
 50
212.0013132694481897
 51
245.3952739921404884
  0
ARC
  5
158F5
  8
0
 10
8665.7727633306276402
 20
2181.5205521137581854
 30
0.0
 40
0.0259575399191805
 50
245.3952739921404884
 51
260.8039256987947851
  0
ARC
  5
158F6
  8
0
 10
8665.7706353368739656
 20
2181.5137688156760305
 30
0.0
 40
0.0189486328906997
 50
263.8792783964109958
 51
284.605296351205709
  0
ARC
  5
158F7
  8
0
 10
8665.729843870827608
 20
2181.5316949287448551
 30
0.0
 40
0.0159140739621654
 50
349.8530315028713744
 51
351.3230245247793277
  0
ARC
  5
158F8
  8
0
 10
8665.7394402616992011
 20
2181.5287307812841391
 30
0.0
 40
0.0061613432504503
 50
5.2455217005666412
 51
10.7444117099678298
  0
ARC
  5
158F9
  8
0
 10
8665.7349716206463199
 20
2181.5283139782568469
 30
0.0
 40
0.0106377832378964
 50
8.4623531596381927
 51
16.26151570395524
  0
ARC
  5
158FA
  8
0
 10
8665.6274394348638452
 20
2181.500973979706032
 30
0.0
 40
0.1215852441671968
 50
14.43979682673063
 51
17.3766358224648698
  0
ARC
  5
158FB
  8
0
 10
8665.3978795867569715
 20
2181.4291370744717824
 30
0.0
 40
0.3621226940914289
 50
17.3766358224648698
 51
18.79528374836881
  0
ARC
  5
158FC
  8
0
 10
8664.6267494713265478
 20
2181.1666937990908082
 30
0.0
 40
1.17668891467604
 50
18.79528374836881
 51
19.2583938852614516
  0
ARC
  5
158FD
  8
0
 10
8665.3641353438542865
 20
2181.4212608581419772
 30
0.0
 40
0.3966135716878713
 50
19.6758279849801596
 51
21.3572842729065684
  0
ARC
  5
158FE
  8
0
 10
8665.6432471666576021
 20
2181.531448267613996
 30
0.0
 40
0.0965456024032773
 50
20.7798885422005917
 51
25.6046010320584791
  0
ARC
  5
158FF
  8
0
 10
8665.7260820015653735
 20
2181.571144249831832
 30
0.0
 40
0.0046903854666791
 50
25.6046010320584791
 51
36.893831058925791
  0
ARC
  5
15900
  8
0
 10
8665.7294808810202085
 20
2181.573695628508176
 30
0.0
 40
0.0004404543263981
 50
36.8938310592592913
 51
59.1969051037646921
  0
ARC
  5
15901
  8
0
 10
8665.7296736946973397
 20
2181.5740190367359901
 30
0.0
 40
0.0000639307619725
 50
59.1969051022901809
 51
109.5685201098151964
  0
ARC
  5
15902
  8
0
 10
8665.7305282459674345
 20
2181.5737636237440711
 30
0.0
 40
0.0009311006188256
 50
160.1835093940098886
 51
185.6239713358359893
  0
LINE
  5
15903
  8
0
 10
8665.7296016272139241
 20
2181.5736723765598981
 30
0.0
 11
8665.730888669115302
 21
2181.5685238926598686
 31
0.0
  0
ARC
  5
15904
  8
0
 10
8665.7738327673978347
 20
2181.5792592576572133
 30
0.0
 40
0.0442656033385194
 50
194.0354152299605914
 51
200.1787690635233048
  0
ARC
  5
15905
  8
0
 10
8665.6042401739468914
 20
2181.5169326726700092
 30
0.0
 40
0.1364171322766406
 50
16.4062811279991401
 51
20.1787690635232693
  0
ARC
  5
15906
  8
0
 10
8665.8197825161732908
 20
2181.5803959105660397
 30
0.0
 40
0.0882739531206963
 50
196.4062811279991081
 51
202.1771085147699978
  0
ARC
  5
15907
  8
0
 10
8665.5804457516278489
 20
2181.4828359155590078
 30
0.0
 40
0.1701830829383627
 50
18.7644514468163983
 51
22.1771085147700013
  0
ARC
  5
15908
  8
0
 10
8665.7974241048541444
 20
2181.5565511805048118
 30
0.0
 40
0.0589752598171931
 50
198.7644514467916963
 51
205.8973951177025015
  0
ARC
  5
15909
  8
0
 10
8665.8133760141172388
 20
2181.5642961152520911
 30
0.0
 40
0.0767079252500915
 50
205.8973951177025015
 51
206.914902560861691
  0
ARC
  5
1590A
  8
0
 10
8665.748120220425335
 20
2181.531168617280855
 30
0.0
 40
0.0035249372528622
 50
206.9149025607912904
 51
215.2466319276674938
  0
ARC
  5
1590B
  8
0
 10
8665.7465242142989155
 20
2181.5300408123421221
 30
0.0
 40
0.0015706651293233
 50
215.2466319277914124
 51
225.1625273766132977
  0
ARC
  5
1590C
  8
0
 10
8665.7455077309878106
 20
2181.5290185458170527
 30
0.0
 40
0.0001290454934018
 50
225.1625273748813925
 51
255.2045534549644117
  0
ARC
  5
1590D
  8
0
 10
8665.7455066650290973
 20
2181.5290145100389054
 30
0.0
 40
0.0001248713148701
 50
255.2045534544207044
 51
265.5782850220592763
  0
ARC
  5
1590E
  8
0
 10
8665.7454995905391115
 20
2181.5289230221551406
 30
0.0
 40
0.0000331103140935
 50
265.5782850236279842
 51
286.5719083896049142
  0
LINE
  5
1590F
  8
0
 10
8665.6913022898133931
 20
2182.0177247094597988
 30
0.0
 11
8665.733612129213725
 21
2182.0290013713602093
 31
0.0
  0
ARC
  5
15910
  8
0
 10
8665.7386297441516945
 20
2182.0101753673479834
 30
0.0
 40
0.0194831949826448
 50
90.7703040305452049
 51
104.9238792920693015
  0
ARC
  5
15911
  8
0
 10
8665.7386239912284509
 20
2182.0106032481371585
 30
0.0
 40
0.0190552755203177
 50
75.420167560923403
 51
90.7703040305452049
  0
ARC
  5
15912
  8
0
 10
8665.7381967364290176
 20
2182.0089606216079119
 30
0.0
 40
0.0207525582244273
 50
67.3132949150146942
 51
75.420167560923403
  0
ARC
  5
15913
  8
0
 10
8665.7391224825332756
 20
2182.0111751321278462
 30
0.0
 40
0.0183523368401977
 50
38.4875515369447001
 51
67.3132949150146942
  0
ARC
  5
15914
  8
0
 10
8665.8124114173006092
 20
2182.0496931204470457
 30
0.0
 40
0.0648554616922561
 50
204.6956717303604023
 51
208.0035641617351985
  0
ARC
  5
15915
  8
0
 10
8665.7764863312531816
 20
2182.0306709890360253
 30
0.0
 40
0.0242052575781004
 50
208.1758638292602086
 51
211.9318326058491095
  0
ARC
  5
15916
  8
0
 10
8665.7633424540617852
 20
2182.0224795107269529
 30
0.0
 40
0.0087177844293609
 50
211.9318326058491095
 51
218.4426051362621024
  0
ARC
  5
15917
  8
0
 10
8665.7583823849272449
 20
2182.0185421995329307
 30
0.0
 40
0.0023849568431202
 50
218.4426051361600116
 51
232.3403441253788912
  0
ARC
  5
15918
  8
0
 10
8665.7571937629854801
 20
2182.017002062354095
 30
0.0
 40
0.0004394891217431
 50
232.3403441255250925
 51
266.6789054856390067
  0
ARC
  5
15919
  8
0
 10
8665.7571607039808441
 20
2182.0167723695608402
 30
0.0
 40
0.0002091962813681
 50
272.0816316849267764
 51
322.2599061297084972
  0
ARC
  5
1591A
  8
0
 10
8665.7567283364714967
 20
2182.0170718331901298
 30
0.0
 40
0.0007349334752789
 50
324.4300097666670126
 51
355.8352542025490948
  0
ARC
  5
1591B
  8
0
 10
8665.7526230958210363
 20
2182.0176015032188843
 30
0.0
 40
0.0048732374506735
 50
353.1285539571774734
 51
5.8655122718876909
  0
ARC
  5
1591C
  8
0
 10
8665.714469415068379
 20
2182.013681913300843
 30
0.0
 40
0.0432277227162627
 50
5.8655122718876909
 51
7.9813853973130886
  0
ARC
  5
1591D
  8
0
 10
8665.7211341995262046
 20
2182.0146163797089685
 30
0.0
 40
0.0364977465400307
 50
7.9813853973130886
 51
14.0953943838481202
  0
ARC
  5
1591E
  8
0
 10
8666.0079882619047567
 20
2182.086644627404894
 30
0.0
 40
0.2592611443977273
 50
192.9402728907537039
 51
194.0953943838480882
  0
ARC
  5
1591F
  8
0
 10
8665.5327023700447171
 20
2181.9774379702048464
 30
0.0
 40
0.2284096184937314
 50
12.9402728907537306
 51
18.0792966063870111
  0
ARC
  5
15920
  8
0
 10
8668.9448112321315421
 20
2183.1875441648958258
 30
0.0
 40
3.3919279195211498
 50
198.4151234690114904
 51
199.4407194781884982
  0
ARC
  5
15921
  8
0
 10
8665.2905224649366573
 20
2181.9708526900808465
 30
0.0
 40
0.459586657748817
 50
18.4151234690115118
 51
24.8715079143567586
  0
ARC
  5
15922
  8
0
 10
8665.4503249106583098
 20
2182.0449339488309306
 30
0.0
 40
0.2834479210759194
 50
24.8715079143567586
 51
26.7573892056031504
  0
ARC
  5
15923
  8
0
 10
8665.6944234959100868
 20
2182.1680092453248108
 30
0.0
 40
0.0100770229748091
 50
26.7573892056264206
 51
38.8544723184243281
  0
ARC
  5
15924
  8
0
 10
8665.7007278182318259
 20
2182.1730879264059695
 30
0.0
 40
0.0019815006666105
 50
38.8544723185505774
 51
56.6159721102817386
  0
ARC
  5
15925
  8
0
 10
8665.7016920602291066
 20
2182.1744739485898208
 30
0.0
 40
0.0002966564413463
 50
64.8502380486939529
 51
86.8056939618935814
  0
ARC
  5
15926
  8
0
 10
8665.7017030458555382
 20
2182.1746089468119862
 30
0.0
 40
0.0001612926403321
 50
88.0299583025522736
 51
120.544107824929398
  0
ARC
  5
15927
  8
0
 10
8665.7017180862130772
 20
2182.174583458241159
 30
0.0
 40
0.0001908879034855
 50
120.5441078257960044
 51
148.8522024933699868
  0
ARC
  5
15928
  8
0
 10
8665.7020752885855472
 20
2182.1743675733669079
 30
0.0
 40
0.0006082604142928
 50
148.8522024935037962
 51
174.0500200828464017
  0
ARC
  5
15929
  8
0
 10
8665.7056328118906094
 20
2182.1739968023939582
 30
0.0
 40
0.0041850527174575
 50
174.0500200828722939
 51
182.4977350149378026
  0
ARC
  5
1592A
  8
0
 10
8665.7124660665194824
 20
2182.174294878091132
 30
0.0
 40
0.0110248054877802
 50
182.4977350149378026
 51
193.1158796352711988
  0
ARC
  5
1592B
  8
0
 10
8665.2457648766594502
 20
2182.0655537487441507
 30
0.0
 40
0.4681772748799255
 50
12.6771347160821399
 51
13.1158796352712006
  0
ARC
  5
1592C
  8
0
 10
8665.6865466952931456
 20
2182.1675584174859068
 30
0.0
 40
0.0159994495926462
 50
349.6724762880119215
 51
2.6511580438275559
  0
ARC
  5
1592D
  8
0
 10
8665.6830462438047107
 20
2182.168196294567224
 30
0.0
 40
0.0195575456834896
 50
287.3998956477688012
 51
349.6724762880119215
  0
LINE
  5
1592E
  8
0
 10
8665.6888947137704236
 20
2182.1495336850971398
 30
0.0
 11
8665.6515595659147948
 21
2182.1395510230599939
 31
0.0
  0
ARC
  5
1592F
  8
0
 10
8665.6563804743636865
 20
2182.1215208294102013
 30
0.0
 40
0.0186635752556878
 50
104.9695539281993035
 51
126.7915541359932945
  0
ARC
  5
15930
  8
0
 10
8665.6563982343523094
 20
2182.1214970818450638
 30
0.0
 40
0.0186932293282876
 50
126.7915541359932945
 51
180.3903123115071025
  0
ARC
  5
15931
  8
0
 10
8665.6662294424604625
 20
2182.1215640553809862
 30
0.0
 40
0.0285246655598016
 50
180.3903123115071025
 51
195.4274159490717864
  0
ARC
  5
15932
  8
0
 10
8666.3756802718326071
 20
2182.3173446463088112
 30
0.0
 40
0.7644937675493684
 50
195.4274159490717864
 51
196.2784323413802952
  0
ARC
  5
15933
  8
0
 10
8666.1035631428512716
 20
2182.2378832080157736
 30
0.0
 40
0.4810121066590338
 50
196.2784323413802952
 51
200.4359551582776078
  0
ARC
  5
15934
  8
0
 10
8664.0573304242188897
 20
2181.4754340574618254
 30
0.0
 40
1.7026538581771411
 50
19.6461364314802012
 51
20.4359551582776113
  0
ARC
  5
15935
  8
0
 10
8665.8479019811911712
 20
2182.114653019375055
 30
0.0
 40
0.1985950423901507
 50
199.646136431480187
 51
204.3290743039565882
  0
ARC
  5
15936
  8
0
 10
8665.7255061724863481
 20
2182.0593144047461465
 30
0.0
 40
0.06427044948974
 50
204.3290743039565882
 51
212.001313269426106
  0
ARC
  5
15937
  8
0
 10
8665.6844438816915499
 20
2182.0336545290110735
 30
0.0
 40
0.0158499894754322
 50
212.0013132694481897
 51
245.3952739921404884
  0
ARC
  5
15938
  8
0
 10
8665.6886522188287927
 20
2182.0428443317568963
 30
0.0
 40
0.0259575399191805
 50
245.3952739921404884
 51
260.8039256987947851
  0
ARC
  5
15939
  8
0
 10
8665.686524225073299
 20
2182.0360610336761056
 30
0.0
 40
0.0189486328906997
 50
263.8792783964109958
 51
284.605296351205709
  0
ARC
  5
1593A
  8
0
 10
8665.6457327590287605
 20
2182.0539871467449302
 30
0.0
 40
0.0159140739621654
 50
349.8530315028713744
 51
351.3230245247793277
  0
ARC
  5
1593B
  8
0
 10
8665.6553291499003535
 20
2182.0510229992842142
 30
0.0
 40
0.0061613432504503
 50
5.2455217005666412
 51
10.7444117099678298
  0
ARC
  5
1593C
  8
0
 10
8665.6508605088456534
 20
2182.050606196256922
 30
0.0
 40
0.0106377832378964
 50
8.4623531596381927
 51
16.26151570395524
  0
ARC
  5
1593D
  8
0
 10
8665.5433283230631787
 20
2182.0232661977061071
 30
0.0
 40
0.1215852441671968
 50
14.43979682673063
 51
17.3766358224648698
  0
ARC
  5
1593E
  8
0
 10
8665.313768474956305
 20
2181.9514292924718575
 30
0.0
 40
0.3621226940914289
 50
17.3766358224648698
 51
18.79528374836881
  0
ARC
  5
1593F
  8
0
 10
8664.5426383595258812
 20
2181.6889860170908833
 30
0.0
 40
1.17668891467604
 50
18.79528374836881
 51
19.2583938852614516
  0
ARC
  5
15940
  8
0
 10
8665.2800242320536199
 20
2181.9435530761420523
 30
0.0
 40
0.3966135716878713
 50
19.6758279849801596
 51
21.3572842729065684
  0
ARC
  5
15941
  8
0
 10
8665.5591360548587545
 20
2182.0537404856131616
 30
0.0
 40
0.0965456024032773
 50
20.7798885422005917
 51
25.6046010320584791
  0
ARC
  5
15942
  8
0
 10
8665.6419708897665259
 20
2182.0934364678319071
 30
0.0
 40
0.0046903854666791
 50
25.6046010320584791
 51
36.893831058925791
  0
ARC
  5
15943
  8
0
 10
8665.6453697692213609
 20
2182.0959878465077963
 30
0.0
 40
0.0004404543263981
 50
36.8938310592592913
 51
59.1969051037646921
  0
ARC
  5
15944
  8
0
 10
8665.6455625828948541
 20
2182.0963112547360652
 30
0.0
 40
0.0000639307619725
 50
59.1969051022901809
 51
109.5685201098151964
  0
ARC
  5
15945
  8
0
 10
8665.6464171341667679
 20
2182.0960558417441462
 30
0.0
 40
0.0009311006188256
 50
160.1835093940098886
 51
185.6239713358359893
  0
LINE
  5
15946
  8
0
 10
8665.6454905154132575
 20
2182.0959645945599732
 30
0.0
 11
8665.6467775573146355
 21
2182.0908161106599437
 31
0.0
  0
ARC
  5
15947
  8
0
 10
8665.6897216555971681
 20
2182.1015514756568336
 30
0.0
 40
0.0442656033385194
 50
194.0354152299605914
 51
200.1787690635233048
  0
ARC
  5
15948
  8
0
 10
8665.5201290621462249
 20
2182.0392248906709938
 30
0.0
 40
0.1364171322766406
 50
16.4062811279991401
 51
20.1787690635232693
  0
ARC
  5
15949
  8
0
 10
8665.7356714043726242
 20
2182.1026881285661148
 30
0.0
 40
0.0882739531206963
 50
196.4062811279991081
 51
202.1771085147699978
  0
ARC
  5
1594A
  8
0
 10
8665.4963346398290014
 20
2182.0051281335590829
 30
0.0
 40
0.1701830829383627
 50
18.7644514468163983
 51
22.1771085147700013
  0
ARC
  5
1594B
  8
0
 10
8665.7133129930534778
 20
2182.0788433985048869
 30
0.0
 40
0.0589752598171931
 50
198.7644514467916963
 51
205.8973951177025015
  0
ARC
  5
1594C
  8
0
 10
8665.7292649023147533
 20
2182.0865883332521662
 30
0.0
 40
0.0767079252500915
 50
205.8973951177025015
 51
206.914902560861691
  0
ARC
  5
1594D
  8
0
 10
8665.6640091086246684
 20
2182.0534608352800205
 30
0.0
 40
0.0035249372528622
 50
206.9149025607912904
 51
215.2466319276674938
  0
ARC
  5
1594E
  8
0
 10
8665.6624131025000679
 20
2182.0523330303421972
 30
0.0
 40
0.0015706651293233
 50
215.2466319277914124
 51
225.1625273766132977
  0
ARC
  5
1594F
  8
0
 10
8665.6613966191853251
 20
2182.0513107638171277
 30
0.0
 40
0.0001290454934018
 50
225.1625273748813925
 51
255.2045534549644117
  0
ARC
  5
15950
  8
0
 10
8665.6613955532302498
 20
2182.0513067280389805
 30
0.0
 40
0.0001248713148701
 50
255.2045534544207044
 51
265.5782850220592763
  0
ARC
  5
15951
  8
0
 10
8665.661388478740264
 20
2182.0512152401552157
 30
0.0
 40
0.0000331103140935
 50
265.5782850236279842
 51
286.5719083896049142
  0
LINE
  5
15952
  8
0
 10
8665.6353353652430087
 20
2181.8940839626411616
 30
0.0
 11
8665.6776452046415216
 21
2181.9053606245402079
 31
0.0
  0
ARC
  5
15953
  8
0
 10
8665.682662819579491
 20
2181.886534620527982
 30
0.0
 40
0.0194831949826448
 50
90.7703040305452049
 51
104.9238792920693015
  0
ARC
  5
15954
  8
0
 10
8665.6826570666562475
 20
2181.8869625013180666
 30
0.0
 40
0.0190552755203177
 50
75.420167560923403
 51
90.7703040305452049
  0
ARC
  5
15955
  8
0
 10
8665.6822298118568142
 20
2181.88531987478882
 30
0.0
 40
0.0207525582244273
 50
67.3132949150146942
 51
75.420167560923403
  0
ARC
  5
15956
  8
0
 10
8665.6831555579628912
 20
2181.887534385309209
 30
0.0
 40
0.0183523368401977
 50
38.4875515369447001
 51
67.3132949150146942
  0
ARC
  5
15957
  8
0
 10
8665.7564444927284057
 20
2181.9260523736279538
 30
0.0
 40
0.0648554616922561
 50
204.6956717303604023
 51
208.0035641617351985
  0
ARC
  5
15958
  8
0
 10
8665.7205194066809781
 20
2181.9070302422151144
 30
0.0
 40
0.0242052575781004
 50
208.1758638292602086
 51
211.9318326058491095
  0
ARC
  5
15959
  8
0
 10
8665.7073755294877628
 20
2181.8988387639069515
 30
0.0
 40
0.0087177844293609
 50
211.9318326058491095
 51
218.4426051362621024
  0
ARC
  5
1595A
  8
0
 10
8665.7024154603550414
 20
2181.8949014527138388
 30
0.0
 40
0.0023849568431202
 50
218.4426051361600116
 51
232.3403441253788912
  0
ARC
  5
1595B
  8
0
 10
8665.7012268384132767
 20
2181.8933613155340936
 30
0.0
 40
0.0004394891217431
 50
232.3403441255250925
 51
266.6789054856390067
  0
ARC
  5
1595C
  8
0
 10
8665.7011937794050027
 20
2181.8931316227408388
 30
0.0
 40
0.0002091962813681
 50
272.0816316849267764
 51
322.2599061297084972
  0
ARC
  5
1595D
  8
0
 10
8665.7007614118992933
 20
2181.8934310863701285
 30
0.0
 40
0.0007349334752789
 50
324.4300097666670126
 51
355.8352542025490948
  0
ARC
  5
1595E
  8
0
 10
8665.6966561712488328
 20
2181.8939607563988829
 30
0.0
 40
0.0048732374506735
 50
353.1285539571774734
 51
5.8655122718876909
  0
ARC
  5
1595F
  8
0
 10
8665.6585024904998136
 20
2181.8900411664822059
 30
0.0
 40
0.0432277227162627
 50
5.8655122718876909
 51
7.9813853973130886
  0
ARC
  5
15960
  8
0
 10
8665.6651672749558202
 20
2181.8909756328889671
 30
0.0
 40
0.0364977465400307
 50
7.9813853973130886
 51
14.0953943838481202
  0
ARC
  5
15961
  8
0
 10
8665.9520213373325532
 20
2181.9630038805858021
 30
0.0
 40
0.2592611443977273
 50
192.9402728907537039
 51
194.0953943838480882
  0
ARC
  5
15962
  8
0
 10
8665.4767354454706947
 20
2181.853797223384845
 30
0.0
 40
0.2284096184937314
 50
12.9402728907537306
 51
19.5270778852094011
  0
ARC
  5
15963
  8
0
 10
8668.8888443075575196
 20
2183.0639034180758244
 30
0.0
 40
3.3919279195211498
 50
198.5708688706895941
 51
199.527077885209394
  0
LINE
  5
15964
  8
0
 10
8665.5956029186454543
 20
2182.0159130241841012
 30
0.0
 11
8665.5955926413407724
 21
2182.0159102762399925
 31
0.0
  0
ARC
  5
15965
  8
0
 10
8665.6004135497878451
 20
2181.9978800825901999
 30
0.0
 40
0.0186635752556878
 50
104.9695539281993035
 51
126.7915541359932945
  0
ARC
  5
15966
  8
0
 10
8665.600431309776468
 20
2181.9978563350250624
 30
0.0
 40
0.0186932293282876
 50
126.7915541359932945
 51
180.3903123115071025
  0
ARC
  5
15967
  8
0
 10
8665.610262517888259
 20
2181.9979233085609849
 30
0.0
 40
0.0285246655598016
 50
180.3903123115071025
 51
195.4274159490717864
  0
ARC
  5
15968
  8
0
 10
8666.3197133472604037
 20
2182.1937038994888098
 30
0.0
 40
0.7644937675493684
 50
195.4274159490717864
 51
196.2784323413802952
  0
ARC
  5
15969
  8
0
 10
8666.0475962182790681
 20
2182.1142424611962269
 30
0.0
 40
0.4810121066590338
 50
196.2784323413802952
 51
200.4359551582776078
  0
ARC
  5
1596A
  8
0
 10
8664.0013634996466863
 20
2181.3517933106431883
 30
0.0
 40
1.7026538581771411
 50
19.6461364314802012
 51
20.4359551582776113
  0
ARC
  5
1596B
  8
0
 10
8665.7919350566189678
 20
2181.9910122725550536
 30
0.0
 40
0.1985950423901507
 50
199.646136431480187
 51
204.3290743039565882
  0
ARC
  5
1596C
  8
0
 10
8665.6695392479123257
 20
2181.9356736579261451
 30
0.0
 40
0.06427044948974
 50
204.3290743039565882
 51
212.001313269426106
  0
ARC
  5
1596D
  8
0
 10
8665.6284769571193465
 20
2181.9100137821910721
 30
0.0
 40
0.0158499894754322
 50
212.0013132694481897
 51
245.3952739921404884
  0
ARC
  5
1596E
  8
0
 10
8665.6326852942547703
 20
2181.9192035849378044
 30
0.0
 40
0.0259575399191805
 50
245.3952739921404884
 51
260.8039256987947851
  0
ARC
  5
1596F
  8
0
 10
8665.6305573005010956
 20
2181.9124202868561042
 30
0.0
 40
0.0189486328906997
 50
263.8792783964109958
 51
284.605296351205709
  0
ARC
  5
15970
  8
0
 10
8665.5897658344547381
 20
2181.9303463999249288
 30
0.0
 40
0.0159140739621654
 50
349.8530315028713744
 51
351.3230245247793277
  0
ARC
  5
15971
  8
0
 10
8665.5993622253263311
 20
2181.9273822524642128
 30
0.0
 40
0.0061613432504503
 50
5.2455217005666412
 51
10.7444117099678298
  0
ARC
  5
15972
  8
0
 10
8665.59489358427345
 20
2181.9269654494369206
 30
0.0
 40
0.0106377832378964
 50
8.4623531596381927
 51
16.26151570395524
  0
ARC
  5
15973
  8
0
 10
8665.4873613984927943
 20
2181.8996254508861057
 30
0.0
 40
0.1215852441671968
 50
14.43979682673063
 51
17.3766358224648698
  0
ARC
  5
15974
  8
0
 10
8665.2578015503841016
 20
2181.8277885456518561
 30
0.0
 40
0.3621226940914289
 50
17.3766358224648698
 51
18.79528374836881
  0
ARC
  5
15975
  8
0
 10
8664.4866714349536778
 20
2181.5653452702708819
 30
0.0
 40
1.17668891467604
 50
18.79528374836881
 51
19.2583938852614516
  0
ARC
  5
15976
  8
0
 10
8665.2240573074814165
 20
2181.8199123293229604
 30
0.0
 40
0.3966135716878713
 50
19.6758279849801596
 51
21.3572842729065684
  0
ARC
  5
15977
  8
0
 10
8665.5031691302847321
 20
2181.9300997387940697
 30
0.0
 40
0.0965456024032773
 50
20.7798885422005917
 51
25.6046010320584791
  0
ARC
  5
15978
  8
0
 10
8665.5860039651925035
 20
2181.9697957210128152
 30
0.0
 40
0.0046903854666791
 50
25.6046010320584791
 51
36.893831058925791
  0
ARC
  5
15979
  8
0
 10
8665.5894028446473385
 20
2181.9723470996891592
 30
0.0
 40
0.0004404543263981
 50
36.8938310592592913
 51
59.1969051037646921
  0
ARC
  5
1597A
  8
0
 10
8665.5895956583226507
 20
2181.9726705079151543
 30
0.0
 40
0.0000639307619725
 50
59.1969051022901809
 51
109.5685201098151964
  0
ARC
  5
1597B
  8
0
 10
8665.5904502095945645
 20
2181.9724150949241448
 30
0.0
 40
0.0009311006188256
 50
160.1835093940098886
 51
185.6239713358359893
  0
LINE
  5
1597C
  8
0
 10
8665.5895235908428731
 20
2181.9723238477408813
 30
0.0
 11
8665.5908106327406131
 21
2181.9671753638399423
 31
0.0
  0
ARC
  5
1597D
  8
0
 10
8665.6337547310231457
 20
2181.9779107288368323
 30
0.0
 40
0.0442656033385194
 50
194.0354152299605914
 51
200.1787690635233048
  0
ARC
  5
1597E
  8
0
 10
8665.4641621375722025
 20
2181.9155841438509924
 30
0.0
 40
0.1364171322766406
 50
16.4062811279991401
 51
20.1787690635232693
  0
ARC
  5
1597F
  8
0
 10
8665.6797044798004208
 20
2181.9790473817461134
 30
0.0
 40
0.0882739531206963
 50
196.4062811279991081
 51
202.1771085147699978
  0
ARC
  5
15980
  8
0
 10
8665.440367715254979
 20
2181.8814873867390816
 30
0.0
 40
0.1701830829383627
 50
18.7644514468163983
 51
22.1771085147700013
  0
ARC
  5
15981
  8
0
 10
8665.6573460684812744
 20
2181.9552026516848855
 30
0.0
 40
0.0589752598171931
 50
198.7644514467916963
 51
205.8973951177025015
  0
ARC
  5
15982
  8
0
 10
8665.6732979777443688
 20
2181.9629475864330743
 30
0.0
 40
0.0767079252500915
 50
205.8973951177025015
 51
206.914902560861691
  0
ARC
  5
15983
  8
0
 10
8665.608042184052465
 20
2181.9298200884609287
 30
0.0
 40
0.0035249372528622
 50
206.9149025607912904
 51
215.2466319276674938
  0
ARC
  5
15984
  8
0
 10
8665.6064461779260455
 20
2181.9286922835221958
 30
0.0
 40
0.0015706651293233
 50
215.2466319277914124
 51
225.1625273766132977
  0
ARC
  5
15985
  8
0
 10
8665.6054296946131217
 20
2181.9276700169980359
 30
0.0
 40
0.0001290454934018
 50
225.1625273748813925
 51
255.2045534549644117
  0
ARC
  5
15986
  8
0
 10
8665.6054286286562274
 20
2181.9276659812198886
 30
0.0
 40
0.0001248713148701
 50
255.2045534544207044
 51
265.5782850220592763
  0
ARC
  5
15987
  8
0
 10
8665.6054215541680605
 20
2181.9275744933361239
 30
0.0
 40
0.0000331103140935
 50
265.5782850236279842
 51
286.5719083896049142
  0
LINE
  5
15988
  8
0
 10
8665.7849618258042028
 20
2181.637810966285997
 30
0.0
 11
8665.7695398965879576
 21
2181.6826541383088625
 31
0.0
  0
LINE
  5
15989
  8
0
 10
8665.7283623370676651
 20
2181.804098614330087
 30
0.0
 11
8665.6966237011147314
 21
2181.9000010363220099
 31
0.0
  0
ARC
  5
1598A
  8
0
 10
8666.0003193208831362
 20
2182.1080291966741243
 30
0.0
 40
0.3405942843446752
 50
201.9354618606581937
 51
207.0379976804269972
  0
ARC
  5
1598B
  8
0
 10
8665.7392616491379158
 20
2181.9747955187481239
 30
0.0
 40
0.0475033071539229
 50
207.0379976804269972
 51
215.9626647092389931
  0
ARC
  5
1598C
  8
0
 10
8665.711265859867126
 20
2181.9544832464512183
 30
0.0
 40
0.0129149764239611
 50
215.9626647092389931
 51
236.0593650474966125
  0
ARC
  5
1598D
  8
0
 10
8665.7045573384912132
 20
2181.9445151917161638
 30
0.0
 40
0.0008997205266115
 50
236.0593650472218883
 51
310.5937086762775721
  0
ARC
  5
1598E
  8
0
 10
8665.7032819874821143
 20
2181.946003499975177
 30
0.0
 40
0.002859715850606
 50
310.5937086763736943
 51
347.835461432869522
  0
ARC
  5
1598F
  8
0
 10
8665.6878044163022423
 20
2181.9493398435001836
 30
0.0
 40
0.0186927950761623
 50
347.835461432869522
 51
359.1393558798362733
  0
ARC
  5
15990
  8
0
 10
8665.6433225543223671
 20
2181.9500080590810285
 30
0.0
 40
0.0631796758061548
 50
359.1393558798362733
 51
10.2156586695833198
  0
ARC
  5
15991
  8
0
 10
8664.8270414049438841
 20
2181.8029055791130304
 30
0.0
 40
0.892609633334225
 50
10.2156586695833198
 51
13.0620568886020791
  0
ARC
  5
15992
  8
0
 10
8665.3461437344503793
 20
2181.9233421488411295
 30
0.0
 40
0.3597192169926538
 50
13.0620568886020791
 51
15.2915515129289492
  0
ARC
  5
15993
  8
0
 10
8665.6729913081271661
 20
2181.9595503881500917
 30
0.0
 40
0.0241067541753476
 50
61.8018605137304817
 51
88.7135566772487181
  0
ARC
  5
15994
  8
0
 10
8665.6617806849626504
 20
2182.227343637498052
 30
0.0
 40
0.2439757672767269
 50
267.8252766498661117
 51
272.7608947104134245
  0
ARC
  5
15995
  8
0
 10
8665.6549419792663684
 20
2182.0540275390321767
 30
0.0
 40
0.0705254589332598
 50
212.7133414955100079
 51
268.03403430197028
  0
ARC
  5
15996
  8
0
 10
8665.7146631485247781
 20
2182.0923874889290346
 30
0.0
 40
0.1415050603233963
 50
195.912074847570409
 51
212.7133414955100079
  0
ARC
  5
15997
  8
0
 10
8666.4661733585362526
 20
2182.3970246471180872
 30
0.0
 40
0.9517182959924234
 50
195.7549408787820084
 51
201.1527233397351893
  0
ARC
  5
15998
  8
0
 10
8665.620499607801321
 20
2182.1576257223450739
 30
0.0
 40
0.0728167737841238
 50
147.6673330189831006
 51
195.1373366731046133
  0
ARC
  5
15999
  8
0
 10
8665.6180769996644813
 20
2182.1591591655760567
 30
0.0
 40
0.0699496361317166
 50
126.5945827286456051
 51
147.6673330189831006
  0
ARC
  5
1599A
  8
0
 10
8667.8596743212383444
 20
2179.1402495309789629
 30
0.0
 40
3.830079146394513
 50
126.2662571761969019
 51
126.5945827286456051
  0
ARC
  5
1599B
  8
0
 10
8665.5764336532574816
 20
2182.2523447381058759
 30
0.0
 40
0.0297556332499197
 50
306.266257176166107
 51
332.7159877454893717
  0
ARC
  5
1599C
  8
0
 10
8666.0094145266175474
 20
2182.3337804279331067
 30
0.0
 40
0.4175052884782222
 50
192.0084675842770991
 51
193.1630750766952929
  0
ARC
  5
1599D
  8
0
 10
8666.200149352374865
 20
2182.3743518293331363
 30
0.0
 40
0.6125073714635046
 50
190.5781359280884999
 51
192.0084675842770991
  0
ARC
  5
1599E
  8
0
 10
8665.7000566586448258
 20
2182.2809595305329822
 30
0.0
 40
0.1037689084021288
 50
185.5658709685415033
 51
190.5781359281141079
  0
ARC
  5
1599F
  8
0
 10
8665.655554734139514
 20
2182.276622840166965
 30
0.0
 40
0.059056179029072
 50
180.9938051638376919
 51
185.5658709685415033
  0
ARC
  5
159A0
  8
0
 10
8665.6078647870090208
 20
2182.2757955668548675
 30
0.0
 40
0.0113590571192283
 50
162.5056064087933976
 51
180.9938051638376919
  0
ARC
  5
159A1
  8
0
 10
8665.5980346354626818
 20
2182.2788939442571063
 30
0.0
 40
0.0010521748587966
 50
124.593122605291299
 51
162.5056064086940069
  0
ARC
  5
159A2
  8
0
 10
8665.5980745794004179
 20
2182.2788360273520993
 30
0.0
 40
0.0011225302860929
 50
89.983654889561663
 51
124.593122605291299
  0
ARC
  5
159A3
  8
0
 10
8665.5980745888591628
 20
2182.2788691817759172
 30
0.0
 40
0.0010893758604674
 50
53.713106895443083
 51
89.983654889561663
  0
ARC
  5
159A4
  8
0
 10
8665.6033895941727678
 20
2182.2861081549172013
 30
0.0
 40
0.0078912707533753
 50
233.7131068954431043
 51
238.235280050562892
  0
ARC
  5
159A5
  8
0
 10
8665.5708411042833177
 20
2182.2532958294991658
 30
0.0
 40
0.0385694550567562
 50
25.9895059221617295
 51
42.5925244313804185
  0
ARC
  5
159A6
  8
0
 10
8664.5979881229541206
 20
2181.7962258445700172
 30
0.0
 40
1.1134404298619249
 50
18.0343440789688891
 51
25.1938293327153495
  0
ARC
  5
159A7
  8
0
 10
8665.5817501706151234
 20
2182.1368542729260298
 30
0.0
 40
0.0300164624424533
 50
183.1239224311759983
 51
189.7596467217798022
  0
ARC
  5
159A8
  8
0
 10
8665.5522718922820786
 20
2182.1352454421348739
 30
0.0
 40
0.0004943143148067
 50
146.0333229828493131
 51
183.1239224309159113
  0
ARC
  5
159A9
  8
0
 10
8665.5519577060113079
 20
2182.1354570976891409
 30
0.0
 40
0.0001154857447594
 50
95.2282166423392624
 51
146.0333229860216875
  0
ARC
  5
159AA
  8
0
 10
8665.5519634585270978
 20
2182.1353942312339314
 30
0.0
 40
0.0001786148400636
 50
58.4922421618201298
 51
95.2282166426506365
  0
ARC
  5
159AB
  8
0
 10
8665.5514227247385861
 20
2182.1345121020149236
 30
0.0
 40
0.0012132862791222
 50
28.8165936270847816
 51
58.4922421618065087
  0
ARC
  5
159AC
  8
0
 10
8665.5410517589225492
 20
2182.1272971700750531
 30
0.0
 40
0.0138409734406772
 50
27.2331610358915093
 51
34.2999793639656829
  0
ARC
  5
159AD
  8
0
 10
8665.027281422588203
 20
2181.8952606212737919
 30
0.0
 40
0.5775616843495111
 50
16.6090809783586089
 51
24.3757172454689517
  0
ARC
  5
159AE
  8
0
 10
8677.3122294326603878
 20
2185.5596829009277826
 30
0.0
 40
12.2422642994064006
 50
196.6090809783586053
 51
196.7320159690719947
  0
ARC
  5
159AF
  8
0
 10
8665.5751389948163705
 20
2182.0312369957300689
 30
0.0
 40
0.0137229089772349
 50
7.8431432864247297
 51
16.7320159690720303
  0
ARC
  5
159B0
  8
0
 10
8665.3821025707220542
 20
2182.0046461970941891
 30
0.0
 40
0.208582169979775
 50
7.3417670280242291
 51
7.8431432864247297
  0
ARC
  5
159B1
  8
0
 10
8665.588068947679858
 20
2182.031183720448098
 30
0.0
 40
0.0009132301187006
 50
346.9933886441017989
 51
7.3417670280242291
  0
ARC
  5
159B2
  8
0
 10
8665.5880490969102539
 20
2182.0311883057729574
 30
0.0
 40
0.0009336035877662
 50
332.5143519380666248
 51
346.9933886440765036
  0
ARC
  5
159B3
  8
0
 10
8665.5888060330780718
 20
2182.0307945106978877
 30
0.0
 40
0.0000803586502553
 50
254.8364963452063989
 51
332.5143519390235838
  0
ARC
  5
159B4
  8
0
 10
8665.5889221890156477
 20
2182.031223114416207
 30
0.0
 40
0.0005244232278475
 50
230.8125330262502075
 51
254.8364963455217946
  0
ARC
  5
159B5
  8
0
 10
8665.5936577438806125
 20
2182.0353022334729758
 30
0.0
 40
0.0067671388001676
 50
206.8581618024749105
 51
221.5175089436482097
  0
ARC
  5
159B6
  8
0
 10
8665.6364900657245016
 20
2182.0584831589408168
 30
0.0
 40
0.0554677286428935
 50
204.1763826935950874
 51
208.2315203815452946
  0
ARC
  5
159B7
  8
0
 10
8665.0646525669544644
 20
2181.8227032213972052
 30
0.0
 40
0.5631001580164975
 50
22.2330925941165205
 51
23.9591463332069416
  0
LINE
  5
159B8
  8
0
 10
8665.5934482554694114
 20
2182.2279227142139462
 30
0.0
 11
8665.5694570196119457
 21
2182.3079794921600296
 31
0.0
  0
ARC
  5
159B9
  8
0
 10
8665.8031518843345111
 20
2182.417623791072856
 30
0.0
 40
0.059084901759771
 50
213.8374935574697986
 51
226.0848615691151053
  0
ARC
  5
159BA
  8
0
 10
8665.771735734444519
 20
2182.3849988818160455
 30
0.0
 40
0.0137929693191189
 50
226.0965059073323005
 51
246.9387138099284016
  0
ARC
  5
159BB
  8
0
 10
8665.7689581655777147
 20
2182.3784747509889712
 30
0.0
 40
0.0067021885533647
 50
246.9387138099284016
 51
274.8794680325885906
  0
ARC
  5
159BC
  8
0
 10
8665.7692370992044744
 20
2182.3752073735049635
 30
0.0
 40
0.0034229265034491
 50
274.8794680325885906
 51
313.802233824765608
  0
ARC
  5
159BD
  8
0
 10
8665.7654909572811448
 20
2182.3791135093201774
 30
0.0
 40
0.0088350865440055
 50
313.802233824765608
 51
340.4551956862954967
  0
ARC
  5
159BE
  8
0
 10
8665.7523917201524455
 20
2182.3837637235669717
 30
0.0
 40
0.0227352486272672
 50
340.4551956862954967
 51
348.9058709869817108
  0
ARC
  5
159BF
  8
0
 10
8665.7379051471143612
 20
2182.3866043346829429
 30
0.0
 40
0.0374976965911619
 50
348.9058709869817108
 51
359.4294290906864831
  0
ARC
  5
159C0
  8
0
 10
8665.6565843912339915
 20
2182.3874141812698326
 30
0.0
 40
0.1188224848690832
 50
359.4294290906864831
 51
11.0677695913015892
  0
ARC
  5
159C1
  8
0
 10
8665.2550594402509887
 20
2182.3088726544660858
 30
0.0
 40
0.5279570076055184
 50
11.0677695913015892
 51
13.3638404629782901
  0
ARC
  5
159C2
  8
0
 10
8665.494844430082594
 20
2182.3658376030962245
 30
0.0
 40
0.2814983970432986
 50
13.3638404629782901
 51
22.1224493666507485
  0
ARC
  5
159C3
  8
0
 10
8665.4361771834446699
 20
2182.3419885234588946
 30
0.0
 40
0.3448278880200489
 50
22.1224493666507485
 51
30.9354089281763684
  0
ARC
  5
159C4
  8
0
 10
8665.7037955374071316
 20
2182.5023795162928764
 30
0.0
 40
0.0328265194964553
 50
30.9354089281763684
 51
51.9369251901360514
  0
ARC
  5
159C5
  8
0
 10
8665.7149442626232485
 20
2182.5163188575888853
 30
0.0
 40
0.0149792420298518
 50
52.6397941095541029
 51
73.8487107631025594
  0
ARC
  5
159C6
  8
0
 10
8665.7184480333653482
 20
2182.5263462596822137
 30
0.0
 40
0.0044107424376507
 50
81.3538571538134363
 51
110.1419818160767932
  0
ARC
  5
159C7
  8
0
 10
8665.7182746676680836
 20
2182.5268189302892097
 30
0.0
 40
0.0039072812494929
 50
110.1419818161746065
 51
139.7547420039053065
  0
ARC
  5
159C8
  8
0
 10
8665.7223421094895457
 20
2182.5233761644658443
 30
0.0
 40
0.0092361384902086
 50
139.7547420039053065
 51
161.6806014531451865
  0
ARC
  5
159C9
  8
0
 10
8665.7371504850871133
 20
2182.5184731998369898
 30
0.0
 40
0.0248350823645896
 50
161.6806014531451865
 51
172.8558049314459879
  0
ARC
  5
159CA
  8
0
 10
8665.768322252388316
 20
2182.5145661312649281
 30
0.0
 40
0.0562507514081343
 50
172.8558049314459879
 51
178.9403136602848008
  0
ARC
  5
159CB
  8
0
 10
8665.7809465230911883
 20
2182.5143326185539081
 30
0.0
 40
0.0688771815848824
 50
178.9403136602848008
 51
182.8066652833545049
  0
ARC
  5
159CC
  8
0
 10
8665.7005734435806517
 20
2182.5199916575138559
 30
0.0
 40
0.0146844576674725
 50
283.97755047951199
 51
322.0444430269424174
  0
LINE
  5
159CD
  8
0
 10
8665.7041203524131561
 20
2182.5057420001598985
 30
0.0
 11
8665.6665791328159685
 21
2182.4957361671408762
 31
0.0
  0
ARC
  5
159CE
  8
0
 10
8665.6713557541334012
 20
2182.4753606258382206
 30
0.0
 40
0.0209279429170933
 50
103.1935526526230973
 51
143.2705554612635979
  0
ARC
  5
159CF
  8
0
 10
8665.6752312434618943
 20
2182.472468825777014
 30
0.0
 40
0.0257634289466237
 50
143.2705554612635979
 51
176.047198149943398
  0
ARC
  5
159D0
  8
0
 10
8665.7379897691425867
 20
2182.4681322701230783
 30
0.0
 40
0.0886716021887082
 50
176.047198149943398
 51
181.8497167144116986
  0
ARC
  5
159D1
  8
0
 10
8665.7362972161226935
 20
2182.4680776093478016
 30
0.0
 40
0.0869781667680407
 50
181.8497167144116986
 51
196.0363815508138998
  0
ARC
  5
159D2
  8
0
 10
8665.9900957224181184
 20
2182.5410275989070215
 30
0.0
 40
0.3510527448216705
 50
196.0363815508138998
 51
204.3861298017104104
  0
ARC
  5
159D3
  8
0
 10
8665.71722038371081
 20
2182.417325497408001
 30
0.0
 40
0.0514477375369814
 50
204.3861298017104104
 51
229.3091867341587999
  0
ARC
  5
159D4
  8
0
 10
8665.6991988872705406
 20
2182.3963667783941673
 30
0.0
 40
0.0238064235903254
 50
229.3091867342378123
 51
258.8394472280895116
  0
ARC
  5
159D5
  8
0
 10
8665.6986866594179446
 20
2182.3937704583818231
 30
0.0
 40
0.0211600572178822
 50
258.8394472280895116
 51
285.7941201520977188
  0
LINE
  5
159D6
  8
0
 10
8665.7044460355355113
 20
2182.3734092794329626
 30
0.0
 11
8665.7471648690170696
 21
2182.3847788766001941
 31
0.0
  0
ARC
  5
159D7
  8
0
 10
8665.7506307776893664
 20
2182.3695977536699502
 30
0.0
 40
0.0155718489959761
 50
78.6931913734587454
 51
102.7583964909635057
  0
ARC
  5
159D8
  8
0
 10
8665.7534216176827613
 20
2182.3835559108902089
 30
0.0
 40
0.0013374209836298
 50
60.7667946048958072
 51
78.6931913733565551
  0
ARC
  5
159D9
  8
0
 10
8665.0169485609530966
 20
2185.0611345806760255
 30
0.0
 40
0.0750801690750194
 50
356.8558368743553046
 51
359.5404279033604098
  0
ARC
  5
159DA
  8
0
 10
8665.0733940577156318
 20
2185.0598782451579609
 30
0.0
 40
0.0187414233639119
 50
340.0486106479867772
 51
351.2169405087855125
  0
ARC
  5
159DB
  8
0
 10
8665.0724196923511045
 20
2185.0603459380067761
 30
0.0
 40
0.019817186828858
 50
306.8990989722548761
 51
339.7388227281330728
  0
ARC
  5
159DC
  8
0
 10
8665.0726022572234797
 20
2185.0601025598130036
 30
0.0
 40
0.0195129453778604
 50
284.9320877550312048
 51
306.8994809149701837
  0
LINE
  5
159DD
  8
0
 10
8665.0303436337144376
 20
2185.0286433570599911
 30
0.0
 11
8665.0776302351132472
 21
2185.0412485290598852
 31
0.0
  0
ARC
  5
159DE
  8
0
 10
8665.0354223363683559
 20
2185.0107048414997735
 30
0.0
 40
0.0186435930319194
 50
105.8077310745275952
 51
145.1185226068488134
  0
ARC
  5
159DF
  8
0
 10
8665.0360284426787985
 20
2185.010413333690849
 30
0.0
 40
0.0193078112185327
 50
145.4374878825578037
 51
181.4511209302951045
  0
ARC
  5
159E0
  8
0
 10
8665.5476404118853679
 20
2185.0233736184318332
 30
0.0
 40
0.5310839107162559
 50
181.4511209302951045
 51
186.0070939748291039
  0
ARC
  5
159E1
  8
0
 10
8664.2798961708122079
 20
2184.8899696299417883
 30
0.0
 40
0.7436600184395008
 50
2.5538838574009799
 51
6.0070939748291519
  0
ARC
  5
159E2
  8
0
 10
8665.0670797866659996
 20
2184.9250805581618806
 30
0.0
 40
0.044306238672759
 50
182.553883857374899
 51
192.4044719912984931
  0
ARC
  5
159E3
  8
0
 10
8665.0454829001955659
 20
2184.9203304075390406
 30
0.0
 40
0.0221931331443069
 50
192.4044719912984931
 51
220.5025896049212122
  0
ARC
  5
159E4
  8
0
 10
8665.0412079989473568
 20
2184.9166789627838625
 30
0.0
 40
0.0165710490564213
 50
220.5025896049608036
 51
265.9161197828451009
  0
ARC
  5
159E5
  8
0
 10
8664.9240345991547656
 20
2184.98051335500395
 30
0.0
 40
0.0946660609768959
 50
357.6331099435560077
 51
1.748610761783119
  0
ARC
  5
159E6
  8
0
 10
8665.020872953651633
 20
2184.9834696841189725
 30
0.0
 40
0.0022174091505172
 50
169.9966435122859991
 51
181.7486107618352094
  0
ARC
  5
159E7
  8
0
 10
8665.0187877010848752
 20
2184.9838374963660499
 30
0.0
 40
0.0000999663221213
 50
148.4436370947825878
 51
169.9966435122422013
  0
ARC
  5
159E8
  8
0
 10
8665.0187110467522871
 20
2184.9838845739877797
 30
0.0
 40
0.0000100097245679
 50
80.4220853820098966
 51
148.4436371065484082
  0
LINE
  5
159E9
  8
0
 10
8665.018774529113216
 20
2184.9837583771600293
 30
0.0
 11
8665.0187127122553647
 21
2184.9838944441789863
 31
0.0
  0
ARC
  5
159EA
  8
0
 10
8665.0140325230040617
 20
2184.9826150583548952
 30
0.0
 40
0.0048778888711214
 50
7.780396515601339
 51
13.5555525008874707
  0
ARC
  5
159EB
  8
0
 10
8664.9134101213639951
 20
2184.96886657572486
 30
0.0
 40
0.1064352051327538
 50
6.491128078842741
 51
7.780396515601339
  0
ARC
  5
159EC
  8
0
 10
8664.8957492051013105
 20
2184.966857138629166
 30
0.0
 40
0.1242100694284282
 50
5.2178400001789997
 51
6.491128078842741
  0
ARC
  5
159ED
  8
0
 10
8660.5149129471919878
 20
2184.5667944238471136
 30
0.0
 40
4.5232754808957871
 50
5.1406541506681958
 51
5.2178400001789997
  0
ARC
  5
159EE
  8
0
 10
8664.6123537479652441
 20
2184.9354119506328971
 30
0.0
 40
0.4092871487667863
 50
4.2559996177648376
 51
5.1406541506681958
  0
ARC
  5
159EF
  8
0
 10
8666.7964973658708914
 20
2185.097951831951832
 30
0.0
 40
1.7808960756811241
 50
184.2559996177647861
 51
184.4622702015255982
  0
ARC
  5
159F0
  8
0
 10
8664.4933025851041748
 20
2184.9182124618878333
 30
0.0
 40
0.5293014135592133
 50
3.5025792003733911
 51
4.4622702015255991
  0
ARC
  5
159F1
  8
0
 10
8664.8879000391152658
 20
2184.9396705968670176
 30
0.0
 40
0.1341570531562493
 50
359.0526007846710854
 51
4.6511917861786278
  0
ARC
  5
159F2
  8
0
 10
8665.0986359465532587
 20
2185.0603527393309378
 30
0.0
 40
0.0066120720885445
 50
171.046170560482409
 51
178.4432875541513965
  0
ARC
  5
159F3
  8
0
 10
8665.092811558770336
 20
2185.0612704211489472
 30
0.0
 40
0.00071583320464
 50
157.0663287282590943
 51
171.0461705605243878
  0
ARC
  5
159F4
  8
0
 10
8665.0922658708823292
 20
2185.0615013067390464
 30
0.0
 40
0.0001233102715188
 50
131.0572040204762061
 51
157.0663287284916123
  0
ARC
  5
159F5
  8
0
 10
8665.0922050986519025
 20
2185.0615710763881907
 30
0.0
 40
0.0000307842312232
 50
78.8219590929070932
 51
131.057204015196703
  0
ARC
  5
159F6
  8
0
 10
8665.0922010077847517
 20
2185.0615503743561021
 30
0.0
 40
0.0000518865857182
 50
50.6109260194140091
 51
78.8219590969438713
  0
ARC
  5
159F7
  8
0
 10
8665.0921564790078264
 20
2185.0614961430519543
 30
0.0
 40
0.0001220567110196
 50
33.8571224429990068
 51
50.6109260192507975
  0
ARC
  5
159F8
  8
0
 10
8665.0918176681370824
 20
2185.0612688394530778
 30
0.0
 40
0.0005300514789718
 50
19.6257198433033686
 51
33.8571224430206499
  0
ARC
  5
159F9
  8
0
 10
8665.0887994380518649
 20
2185.0601925691548786
 30
0.0
 40
0.0037344345081142
 50
13.4774231732658301
 51
19.6257198433279108
  0
ARC
  5
159FA
  8
0
 10
8665.078736609151747
 20
2185.05778089098294
 30
0.0
 40
0.0140822225357987
 50
9.1080246454443738
 51
13.4774231732658301
  0
ARC
  5
159FB
  8
0
 10
8664.8646303575915226
 20
2185.0234558688039215
 30
0.0
 40
0.2309224727326409
 50
8.7666717195339299
 51
9.1080246454443738
  0
ARC
  5
159FC
  8
0
 10
8664.9605973260822793
 20
2185.0382551849102128
 30
0.0
 40
0.1338210886100319
 50
5.0417574048579938
 51
8.7666717195339299
  0
ARC
  5
159FD
  8
0
 10
8625.8291904287143552
 20
2181.5859614291821345
 30
0.0
 40
39.4172188278977131
 50
4.954414913697434
 51
5.0417574048579938
  0
ARC
  5
159FE
  8
0
 10
8663.5637702962394542
 20
2184.8570596900331111
 30
0.0
 40
1.541123442936758
 50
3.3056765259497598
 51
4.954414913697434
  0
ARC
  5
159FF
  8
0
 10
8665.7377298606861586
 20
2182.4515223091780172
 30
0.0
 40
0.0794993854013985
 50
199.0726038046379074
 51
210.2361448720116925
  0
ARC
  5
15A00
  8
0
 10
8665.6837045438023779
 20
2182.4200331805741371
 30
0.0
 40
0.0169669931170617
 50
210.2361448720116925
 51
225.9643545909621878
  0
ARC
  5
15A01
  8
0
 10
8665.6746709404233115
 20
2182.4106902495418581
 30
0.0
 40
0.0039709802554483
 50
225.9643545909621878
 51
245.9852132147794919
  0
ARC
  5
15A02
  8
0
 10
8665.6737592384852178
 20
2182.4086439548941598
 30
0.0
 40
0.0017307744142904
 50
245.9852132149065085
 51
268.9656566106751256
  0
ARC
  5
15A03
  8
0
 10
8665.6737469777290244
 20
2182.4079648638689832
 30
0.0
 40
0.0010515727158777
 50
268.9656566106751256
 51
302.6032105475812273
  0
ARC
  5
15A04
  8
0
 10
8665.6734184755296155
 20
2182.408478465033113
 30
0.0
 40
0.0016612446364733
 50
302.6032105476970173
 51
340.3175714498848947
  0
ARC
  5
15A05
  8
0
 10
8665.6667811322386115
 20
2182.4108526817490201
 30
0.0
 40
0.0087104453695897
 50
340.3175714498848947
 51
355.08593285522511
  0
ARC
  5
15A06
  8
0
 10
8665.6528658788283792
 20
2182.4120490814161712
 30
0.0
 40
0.0226770358495986
 50
355.08593285522511
 51
12.3950273882706696
  0
ARC
  5
15A07
  8
0
 10
8665.3523079577207682
 20
2182.3459944820679084
 30
0.0
 40
0.3304078825911639
 50
12.3950273882706696
 51
14.4981019312124193
  0
ARC
  5
15A08
  8
0
 10
8665.6114263499221124
 20
2182.4129978967212082
 30
0.0
 40
0.0627667072222429
 50
14.4981019312124193
 51
27.2102011206092911
  0
ARC
  5
15A09
  8
0
 10
8665.5919114625430666
 20
2182.4029642143218553
 30
0.0
 40
0.0847099433520992
 50
27.2102011206092911
 51
33.6955382120012388
  0
ARC
  5
15A0A
  8
0
 10
8665.6578340246578591
 20
2182.4469216815309665
 30
0.0
 40
0.0054758400945993
 50
33.6955382120012388
 51
60.7187988656857769
  0
ARC
  5
15A0B
  8
0
 10
8665.6587647603937512
 20
2182.448581508936968
 30
0.0
 40
0.0035728697766508
 50
60.7187988656857769
 51
69.7447504011057191
  0
ARC
  5
15A0C
  8
0
 10
8665.6595396672382776
 20
2182.4506813933330704
 30
0.0
 40
0.0013345679453328
 50
69.7447504012125137
 51
100.4728716866704019
  0
ARC
  5
15A0D
  8
0
 10
8665.659493896209824
 20
2182.4509290059309023
 30
0.0
 40
0.0010827605070929
 50
100.4728716868800973
 51
136.2079300581609118
  0
ARC
  5
15A0E
  8
0
 10
8665.6620607931472478
 20
2182.4491148196889299
 30
0.0
 40
0.0042171035568651
 50
142.5634505758762032
 51
177.0076454835358106
  0
ARC
  5
15A0F
  8
0
 10
8665.6920445752493833
 20
2182.4471585949108885
 30
0.0
 40
0.0342643238015448
 50
176.3582891419052032
 51
194.6489759805282915
  0
ARC
  5
15A10
  8
0
 10
8665.9460326171174529
 20
2182.5135494137271053
 30
0.0
 40
0.2967860681118081
 50
194.6489759805282915
 51
197.2490691347819904
  0
ARC
  5
15A11
  8
0
 10
8665.6994443425282952
 20
2182.8326928739979849
 30
0.0
 40
0.059084901759771
 50
213.8374935574697986
 51
226.0848615691151053
  0
ARC
  5
15A12
  8
0
 10
8665.6680281926383032
 20
2182.8000679647420839
 30
0.0
 40
0.0137929693191189
 50
226.0965059073323005
 51
246.9387138099284016
  0
ARC
  5
15A13
  8
0
 10
8665.6652506237733178
 20
2182.7935438339141001
 30
0.0
 40
0.0067021885533647
 50
246.9387138099284016
 51
274.8794680325885906
  0
ARC
  5
15A14
  8
0
 10
8665.6655295573964395
 20
2182.7902764564300924
 30
0.0
 40
0.0034229265034491
 50
274.8794680325885906
 51
313.802233824765608
  0
ARC
  5
15A15
  8
0
 10
8665.6617834154731099
 20
2182.7941825922462158
 30
0.0
 40
0.0088350865440055
 50
313.802233824765608
 51
340.4551956862954967
  0
ARC
  5
15A16
  8
0
 10
8665.6486841783444106
 20
2182.7988328064921006
 30
0.0
 40
0.0227352486272672
 50
340.4551956862954967
 51
348.9058709869817108
  0
ARC
  5
15A17
  8
0
 10
8665.6341976053063263
 20
2182.8016734176089813
 30
0.0
 40
0.0374976965911619
 50
348.9058709869817108
 51
359.4294290906864831
  0
ARC
  5
15A18
  8
0
 10
8665.5528768494259566
 20
2182.8024832641949615
 30
0.0
 40
0.1188224848690832
 50
359.4294290906864831
 51
11.0677695913015892
  0
ARC
  5
15A19
  8
0
 10
8665.1513518984411348
 20
2182.7239417373921242
 30
0.0
 40
0.5279570076055184
 50
11.0677695913015892
 51
13.3638404629782901
  0
ARC
  5
15A1A
  8
0
 10
8665.3911368882745592
 20
2182.7809066860208986
 30
0.0
 40
0.2814983970432986
 50
13.3638404629782901
 51
22.1224493666507485
  0
ARC
  5
15A1B
  8
0
 10
8665.332469641638454
 20
2182.757057606384933
 30
0.0
 40
0.3448278880200489
 50
22.1224493666507485
 51
30.9354089281763684
  0
ARC
  5
15A1C
  8
0
 10
8665.6000879956009157
 20
2182.9174485992189148
 30
0.0
 40
0.0328265194964553
 50
30.9354089281763684
 51
51.9369251901360514
  0
ARC
  5
15A1D
  8
0
 10
8665.6112367208188516
 20
2182.9313879405149237
 30
0.0
 40
0.0149792420298518
 50
52.6397941095541029
 51
73.8487107631025594
  0
ARC
  5
15A1E
  8
0
 10
8665.6147404915609513
 20
2182.9414153426077974
 30
0.0
 40
0.0044107424376507
 50
81.3538571538134363
 51
110.1419818160767932
  0
ARC
  5
15A1F
  8
0
 10
8665.6145671258600487
 20
2182.9418880132138838
 30
0.0
 40
0.0039072812494929
 50
110.1419818161746065
 51
139.7547420039053065
  0
ARC
  5
15A20
  8
0
 10
8665.6186345676833298
 20
2182.9384452473909732
 30
0.0
 40
0.0092361384902086
 50
139.7547420039053065
 51
161.6806014531451865
  0
ARC
  5
15A21
  8
0
 10
8665.6334429432808975
 20
2182.9335422827630282
 30
0.0
 40
0.0248350823645896
 50
161.6806014531451865
 51
172.8558049314459879
  0
ARC
  5
15A22
  8
0
 10
8665.6646147105802811
 20
2182.9296352141909665
 30
0.0
 40
0.0562507514081343
 50
172.8558049314459879
 51
178.9403136602848008
  0
ARC
  5
15A23
  8
0
 10
8665.6772389812867914
 20
2182.9294017014799465
 30
0.0
 40
0.0688771815848824
 50
178.9403136602848008
 51
182.8066652833545049
  0
ARC
  5
15A24
  8
0
 10
8665.5968659017744358
 20
2182.9350607404398943
 30
0.0
 40
0.0146844576674725
 50
283.97755047951199
 51
322.0444430269424174
  0
LINE
  5
15A25
  8
0
 10
8665.6004128106087592
 20
2182.9208110830859368
 30
0.0
 11
8665.5628715910097526
 21
2182.9108052500669146
 31
0.0
  0
ARC
  5
15A26
  8
0
 10
8665.5676482123235473
 20
2182.8904297087628947
 30
0.0
 40
0.0209279429170933
 50
103.1935526526230973
 51
143.2705554612635979
  0
ARC
  5
15A27
  8
0
 10
8665.5715237016538595
 20
2182.8875379087030524
 30
0.0
 40
0.0257634289466237
 50
143.2705554612635979
 51
176.047198149943398
  0
ARC
  5
15A28
  8
0
 10
8665.6342822273345519
 20
2182.8832013530491167
 30
0.0
 40
0.0886716021887082
 50
176.047198149943398
 51
181.8497167144116986
  0
ARC
  5
15A29
  8
0
 10
8665.6325896743164776
 20
2182.88314669227384
 30
0.0
 40
0.0869781667680407
 50
181.8497167144116986
 51
196.0363815508138998
  0
ARC
  5
15A2A
  8
0
 10
8665.8863881806137215
 20
2182.9560966818330598
 30
0.0
 40
0.3510527448216705
 50
196.0363815508138998
 51
204.3861298017104104
  0
ARC
  5
15A2B
  8
0
 10
8665.6135128419064131
 20
2182.8323945803340393
 30
0.0
 40
0.0514477375369814
 50
204.3861298017104104
 51
229.3091867341587999
  0
ARC
  5
15A2C
  8
0
 10
8665.5954913454606867
 20
2182.8114358613188415
 30
0.0
 40
0.0238064235903254
 50
229.3091867342378123
 51
258.8394472280895116
  0
ARC
  5
15A2D
  8
0
 10
8665.5949791176099097
 20
2182.8088395413078615
 30
0.0
 40
0.0211600572178822
 50
258.8394472280895116
 51
285.7941201520977188
  0
LINE
  5
15A2E
  8
0
 10
8665.6007384937292954
 20
2182.7884783623580915
 30
0.0
 11
8665.6434573272108537
 21
2182.7998479595257777
 31
0.0
  0
ARC
  5
15A2F
  8
0
 10
8665.6469232358813315
 20
2182.7846668365959886
 30
0.0
 40
0.0155718489959761
 50
78.6931913734587454
 51
102.7583964909635057
  0
ARC
  5
15A30
  8
0
 10
8665.6497140758747264
 20
2182.7986249938148831
 30
0.0
 40
0.0013374209836298
 50
60.7667946048958072
 51
78.6931913733565551
  0
ARC
  5
15A31
  8
0
 10
8665.6340223188817617
 20
2182.8665913921031461
 30
0.0
 40
0.0794993854013985
 50
199.0726038046379074
 51
210.2361448720116925
  0
ARC
  5
15A32
  8
0
 10
8665.579997001996162
 20
2182.8351022635001755
 30
0.0
 40
0.0169669931170617
 50
210.2361448720116925
 51
225.9643545909621878
  0
ARC
  5
15A33
  8
0
 10
8665.5709633986134577
 20
2182.8257593324678965
 30
0.0
 40
0.0039709802554483
 50
225.9643545909621878
 51
245.9852132147794919
  0
ARC
  5
15A34
  8
0
 10
8665.5700516966790019
 20
2182.8237130378201982
 30
0.0
 40
0.0017307744142904
 50
245.9852132149065085
 51
268.9656566106751256
  0
ARC
  5
15A35
  8
0
 10
8665.5700394359209895
 20
2182.8230339467941121
 30
0.0
 40
0.0010515727158777
 50
268.9656566106751256
 51
302.6032105475812273
  0
ARC
  5
15A36
  8
0
 10
8665.5697109337215807
 20
2182.8235475479577872
 30
0.0
 40
0.0016612446364733
 50
302.6032105476970173
 51
340.3175714498848947
  0
ARC
  5
15A37
  8
0
 10
8665.5630735904323956
 20
2182.8259217646750585
 30
0.0
 40
0.0087104453695897
 50
340.3175714498848947
 51
355.08593285522511
  0
ARC
  5
15A38
  8
0
 10
8665.5491583370203443
 20
2182.8271181643408454
 30
0.0
 40
0.0226770358495986
 50
355.08593285522511
 51
12.3950273882706696
  0
ARC
  5
15A39
  8
0
 10
8665.2486004159127333
 20
2182.7610635649939468
 30
0.0
 40
0.3304078825911639
 50
12.3950273882706696
 51
14.4981019312124193
  0
ARC
  5
15A3A
  8
0
 10
8665.5077188081122586
 20
2182.8280669796467919
 30
0.0
 40
0.0627667072222429
 50
14.4981019312124193
 51
27.2102011206092911
  0
ARC
  5
15A3B
  8
0
 10
8665.4882039207368507
 20
2182.8180332972478936
 30
0.0
 40
0.0847099433520992
 50
27.2102011206092911
 51
33.6955382120012388
  0
ARC
  5
15A3C
  8
0
 10
8665.5541264828516432
 20
2182.8619907644570048
 30
0.0
 40
0.0054758400945993
 50
33.6955382120012388
 51
60.7187988656857769
  0
ARC
  5
15A3D
  8
0
 10
8665.5550572185875353
 20
2182.8636505918630064
 30
0.0
 40
0.0035728697766508
 50
60.7187988656857769
 51
69.7447504011057191
  0
ARC
  5
15A3E
  8
0
 10
8665.5558321254302427
 20
2182.8657504762581993
 30
0.0
 40
0.0013345679453328
 50
69.7447504012125137
 51
100.4728716866704019
  0
ARC
  5
15A3F
  8
0
 10
8665.5557863544036081
 20
2182.8659980888569407
 30
0.0
 40
0.0010827605070929
 50
100.4728716868800973
 51
136.2079300581609118
  0
ARC
  5
15A40
  8
0
 10
8665.5583532513410319
 20
2182.8641839026140588
 30
0.0
 40
0.0042171035568651
 50
142.5634505758762032
 51
177.0076454835358106
  0
ARC
  5
15A41
  8
0
 10
8665.5883370334413485
 20
2182.8622276778360174
 30
0.0
 40
0.0342643238015448
 50
176.3582891419052032
 51
194.6489759805282915
  0
ARC
  5
15A42
  8
0
 10
8665.842325075311237
 20
2182.9286184966531437
 30
0.0
 40
0.2967860681118081
 50
194.6489759805282915
 51
197.2490691347819904
  0
ARC
  5
15A43
  8
0
 10
8665.5617711148606759
 20
2183.0241881840152018
 30
0.0
 40
0.059084901759771
 50
213.8374935574697986
 51
226.0848615691151053
  0
ARC
  5
15A44
  8
0
 10
8665.5303549649688648
 20
2182.9915632747588461
 30
0.0
 40
0.0137929693191189
 50
226.0965059073323005
 51
246.9387138099284016
  0
ARC
  5
15A45
  8
0
 10
8665.5275773961038794
 20
2182.9850391439308623
 30
0.0
 40
0.0067021885533647
 50
246.9387138099284016
 51
274.8794680325885906
  0
ARC
  5
15A46
  8
0
 10
8665.5278563297288201
 20
2182.9817717664468546
 30
0.0
 40
0.0034229265034491
 50
274.8794680325885906
 51
313.802233824765608
  0
ARC
  5
15A47
  8
0
 10
8665.5241101878073096
 20
2182.9856779022620685
 30
0.0
 40
0.0088350865440055
 50
313.802233824765608
 51
340.4551956862954967
  0
ARC
  5
15A48
  8
0
 10
8665.5110109506786102
 20
2182.9903281165088629
 30
0.0
 40
0.0227352486272672
 50
340.4551956862954967
 51
348.9058709869817108
  0
ARC
  5
15A49
  8
0
 10
8665.4965243776405259
 20
2182.993168727624834
 30
0.0
 40
0.0374976965911619
 50
348.9058709869817108
 51
359.4294290906864831
  0
ARC
  5
15A4A
  8
0
 10
8665.4152036217601562
 20
2182.9939785742121785
 30
0.0
 40
0.1188224848690832
 50
359.4294290906864831
 51
11.0677695913015892
  0
ARC
  5
15A4B
  8
0
 10
8665.0136786707771535
 20
2182.9154370474088864
 30
0.0
 40
0.5279570076055184
 50
11.0677695913015892
 51
13.3638404629782901
  0
ARC
  5
15A4C
  8
0
 10
8665.2534636606087588
 20
2182.9724019960381156
 30
0.0
 40
0.2814983970432986
 50
13.3638404629782901
 51
22.1224493666507485
  0
ARC
  5
15A4D
  8
0
 10
8665.1947964139708347
 20
2182.94855291640215
 30
0.0
 40
0.3448278880200489
 50
22.1224493666507485
 51
30.9354089281763684
  0
ARC
  5
15A4E
  8
0
 10
8665.4624147679351154
 20
2183.1089439092352222
 30
0.0
 40
0.0328265194964553
 50
30.9354089281763684
 51
51.9369251901360514
  0
ARC
  5
15A4F
  8
0
 10
8665.4735634931512323
 20
2183.1228832505307764
 30
0.0
 40
0.0149792420298518
 50
52.6397941095541029
 51
73.8487107631025594
  0
ARC
  5
15A50
  8
0
 10
8665.477067263893332
 20
2183.1329106526250143
 30
0.0
 40
0.0044107424376507
 50
81.3538571538134363
 51
110.1419818160767932
  0
ARC
  5
15A51
  8
0
 10
8665.4768938981942483
 20
2183.1333833232311008
 30
0.0
 40
0.0039072812494929
 50
110.1419818161746065
 51
139.7547420039053065
  0
ARC
  5
15A52
  8
0
 10
8665.4809613400157104
 20
2183.1299405574081902
 30
0.0
 40
0.0092361384902086
 50
139.7547420039053065
 51
161.6806014531451865
  0
ARC
  5
15A53
  8
0
 10
8665.4957697156150971
 20
2183.1250375927797904
 30
0.0
 40
0.0248350823645896
 50
161.6806014531451865
 51
172.8558049314459879
  0
ARC
  5
15A54
  8
0
 10
8665.5269414829144807
 20
2183.1211305242081835
 30
0.0
 40
0.0562507514081343
 50
172.8558049314459879
 51
178.9403136602848008
  0
ARC
  5
15A55
  8
0
 10
8665.539565753617353
 20
2183.1208970114971635
 30
0.0
 40
0.0688771815848824
 50
178.9403136602848008
 51
182.8066652833545049
  0
ARC
  5
15A56
  8
0
 10
8665.4591926741086354
 20
2183.1265560504562018
 30
0.0
 40
0.0146844576674725
 50
283.97755047951199
 51
322.0444430269424174
  0
LINE
  5
15A57
  8
0
 10
8665.4627395829393208
 20
2183.1123063931017896
 30
0.0
 11
8665.4251983633421332
 21
2183.1023005600841316
 31
0.0
  0
ARC
  5
15A58
  8
0
 10
8665.429974984657747
 20
2183.0819250187801117
 30
0.0
 40
0.0209279429170933
 50
103.1935526526230973
 51
143.2705554612635979
  0
ARC
  5
15A59
  8
0
 10
8665.4338504739880591
 20
2183.0790332187189051
 30
0.0
 40
0.0257634289466237
 50
143.2705554612635979
 51
176.047198149943398
  0
ARC
  5
15A5A
  8
0
 10
8665.4966089996687515
 20
2183.074696663065879
 30
0.0
 40
0.0886716021887082
 50
176.047198149943398
 51
181.8497167144116986
  0
ARC
  5
15A5B
  8
0
 10
8665.4949164466524962
 20
2183.0746420022901475
 30
0.0
 40
0.0869781667680407
 50
181.8497167144116986
 51
196.0363815508138998
  0
ARC
  5
15A5C
  8
0
 10
8665.7487149529442831
 20
2183.1475919918489126
 30
0.0
 40
0.3510527448216705
 50
196.0363815508138998
 51
204.3861298017104104
  0
ARC
  5
15A5D
  8
0
 10
8665.4758396142351558
 20
2183.0238898903498921
 30
0.0
 40
0.0514477375369814
 50
204.3861298017104104
 51
229.3091867341587999
  0
ARC
  5
15A5E
  8
0
 10
8665.4578181177967053
 20
2183.0029311713360585
 30
0.0
 40
0.0238064235903254
 50
229.3091867342378123
 51
258.8394472280895116
  0
ARC
  5
15A5F
  8
0
 10
8665.4573058899441094
 20
2183.000334851324169
 30
0.0
 40
0.0211600572178822
 50
258.8394472280895116
 51
285.7941201520977188
  0
LINE
  5
15A60
  8
0
 10
8665.4630652660616761
 20
2182.9799736723748538
 30
0.0
 11
8665.5057840995432343
 21
2182.9913432695429947
 31
0.0
  0
ARC
  5
15A61
  8
0
 10
8665.5092500082155311
 20
2182.9761621466118413
 30
0.0
 40
0.0155718489959761
 50
78.6931913734587454
 51
102.7583964909635057
  0
ARC
  5
15A62
  8
0
 10
8665.512040848208926
 20
2182.9901203038321
 30
0.0
 40
0.0013374209836298
 50
60.7667946048958072
 51
78.6931913733565551
  0
ARC
  5
15A63
  8
0
 10
8665.4963490912177804
 20
2183.0580867021199083
 30
0.0
 40
0.0794993854013985
 50
199.0726038046379074
 51
210.2361448720116925
  0
ARC
  5
15A64
  8
0
 10
8665.4423237743303616
 20
2183.0265975735169377
 30
0.0
 40
0.0169669931170617
 50
210.2361448720116925
 51
225.9643545909621878
  0
ARC
  5
15A65
  8
0
 10
8665.4332901709494763
 20
2183.0172546424851134
 30
0.0
 40
0.0039709802554483
 50
225.9643545909621878
 51
245.9852132147794919
  0
ARC
  5
15A66
  8
0
 10
8665.4323784690113825
 20
2183.015208347836051
 30
0.0
 40
0.0017307744142904
 50
245.9852132149065085
 51
268.9656566106751256
  0
ARC
  5
15A67
  8
0
 10
8665.4323662082551891
 20
2183.0145292568108744
 30
0.0
 40
0.0010515727158777
 50
268.9656566106751256
 51
302.6032105475812273
  0
ARC
  5
15A68
  8
0
 10
8665.4320377060557803
 20
2183.0150428579750042
 30
0.0
 40
0.0016612446364733
 50
302.6032105476970173
 51
340.3175714498848947
  0
ARC
  5
15A69
  8
0
 10
8665.4254003627647762
 20
2183.0174170746918207
 30
0.0
 40
0.0087104453695897
 50
340.3175714498848947
 51
355.08593285522511
  0
ARC
  5
15A6A
  8
0
 10
8665.411485109354544
 20
2183.0186134743580624
 30
0.0
 40
0.0226770358495986
 50
355.08593285522511
 51
12.3950273882706696
  0
ARC
  5
15A6B
  8
0
 10
8665.1109271882432949
 20
2182.9525588750097995
 30
0.0
 40
0.3304078825911639
 50
12.3950273882706696
 51
14.4981019312124193
  0
ARC
  5
15A6C
  8
0
 10
8665.3700455804482772
 20
2183.0195622896630994
 30
0.0
 40
0.0627667072222429
 50
14.4981019312124193
 51
27.2102011206092911
  0
ARC
  5
15A6D
  8
0
 10
8665.3505306930710503
 20
2183.0095286072651106
 30
0.0
 40
0.0847099433520992
 50
27.2102011206092911
 51
33.6955382120012388
  0
ARC
  5
15A6E
  8
0
 10
8665.4164532551840239
 20
2183.0534860744742218
 30
0.0
 40
0.0054758400945993
 50
33.6955382120012388
 51
60.7187988656857769
  0
ARC
  5
15A6F
  8
0
 10
8665.417383990919916
 20
2183.0551459018802234
 30
0.0
 40
0.0035728697766508
 50
60.7187988656857769
 51
69.7447504011057191
  0
ARC
  5
15A70
  8
0
 10
8665.4181588977644424
 20
2183.0572457862749616
 30
0.0
 40
0.0013345679453328
 50
69.7447504012125137
 51
100.4728716866704019
  0
ARC
  5
15A71
  8
0
 10
8665.4181131267378078
 20
2183.0574933988741577
 30
0.0
 40
0.0010827605070929
 50
100.4728716868800973
 51
136.2079300581609118
  0
ARC
  5
15A72
  8
0
 10
8665.4206800236734125
 20
2183.055679212630821
 30
0.0
 40
0.0042171035568651
 50
142.5634505758762032
 51
177.0076454835358106
  0
ARC
  5
15A73
  8
0
 10
8665.4506638057755481
 20
2183.0537229878527796
 30
0.0
 40
0.0342643238015448
 50
176.3582891419052032
 51
194.6489759805282915
  0
ARC
  5
15A74
  8
0
 10
8665.7046518476436177
 20
2183.1201138066699059
 30
0.0
 40
0.2967860681118081
 50
194.6489759805282915
 51
197.2490691347819904
  0
ARC
  5
15A75
  8
0
 10
8665.5919267120607401
 20
2183.2537880647109887
 30
0.0
 40
0.059084901759771
 50
213.8374935574697986
 51
226.0848615691151053
  0
ARC
  5
15A76
  8
0
 10
8665.560510562170748
 20
2183.2211631554550877
 30
0.0
 40
0.0137929693191189
 50
226.0965059073323005
 51
246.9387138099284016
  0
ARC
  5
15A77
  8
0
 10
8665.5577329933039437
 20
2183.2146390246271039
 30
0.0
 40
0.0067021885533647
 50
246.9387138099284016
 51
274.8794680325885906
  0
ARC
  5
15A78
  8
0
 10
8665.5580119269307033
 20
2183.2113716471430962
 30
0.0
 40
0.0034229265034491
 50
274.8794680325885906
 51
313.802233824765608
  0
ARC
  5
15A79
  8
0
 10
8665.5542657850091928
 20
2183.2152777829578554
 30
0.0
 40
0.0088350865440055
 50
313.802233824765608
 51
340.4551956862954967
  0
ARC
  5
15A7A
  8
0
 10
8665.5411665478804935
 20
2183.2199279972051045
 30
0.0
 40
0.0227352486272672
 50
340.4551956862954967
 51
348.9058709869817108
  0
ARC
  5
15A7B
  8
0
 10
8665.5266799748405901
 20
2183.2227686083219851
 30
0.0
 40
0.0374976965911619
 50
348.9058709869817108
 51
359.4294290906864831
  0
ARC
  5
15A7C
  8
0
 10
8665.4453592189602205
 20
2183.2235784549079654
 30
0.0
 40
0.1188224848690832
 50
359.4294290906864831
 51
11.0677695913015892
  0
ARC
  5
15A7D
  8
0
 10
8665.0438342679772177
 20
2183.145036928105128
 30
0.0
 40
0.5279570076055184
 50
11.0677695913015892
 51
13.3638404629782901
  0
ARC
  5
15A7E
  8
0
 10
8665.283619257808823
 20
2183.2020018767339025
 30
0.0
 40
0.2814983970432986
 50
13.3638404629782901
 51
22.1224493666507485
  0
ARC
  5
15A7F
  8
0
 10
8665.2249520111708989
 20
2183.1781527970979369
 30
0.0
 40
0.3448278880200489
 50
22.1224493666507485
 51
30.9354089281763684
  0
ARC
  5
15A80
  8
0
 10
8665.4925703651351796
 20
2183.3385437899319186
 30
0.0
 40
0.0328265194964553
 50
30.9354089281763684
 51
51.9369251901360514
  0
ARC
  5
15A81
  8
0
 10
8665.5037190903512965
 20
2183.3524831312279275
 30
0.0
 40
0.0149792420298518
 50
52.6397941095541029
 51
73.8487107631025594
  0
ARC
  5
15A82
  8
0
 10
8665.5072228610933962
 20
2183.3625105333208012
 30
0.0
 40
0.0044107424376507
 50
81.3538571538134363
 51
110.1419818160767932
  0
ARC
  5
15A83
  8
0
 10
8665.5070494953943125
 20
2183.3629832039268877
 30
0.0
 40
0.0039072812494929
 50
110.1419818161746065
 51
139.7547420039053065
  0
ARC
  5
15A84
  8
0
 10
8665.5111169372157747
 20
2183.3595404381039771
 30
0.0
 40
0.0092361384902086
 50
139.7547420039053065
 51
161.6806014531451865
  0
ARC
  5
15A85
  8
0
 10
8665.5259253128151613
 20
2183.354637473476032
 30
0.0
 40
0.0248350823645896
 50
161.6806014531451865
 51
172.8558049314459879
  0
ARC
  5
15A86
  8
0
 10
8665.5570970801163639
 20
2183.3507304049039703
 30
0.0
 40
0.0562507514081343
 50
172.8558049314459879
 51
178.9403136602848008
  0
ARC
  5
15A87
  8
0
 10
8665.5697213508174173
 20
2183.3504968921929503
 30
0.0
 40
0.0688771815848824
 50
178.9403136602848008
 51
182.8066652833545049
  0
ARC
  5
15A88
  8
0
 10
8665.4893482713068806
 20
2183.3561559311528981
 30
0.0
 40
0.0146844576674725
 50
283.97755047951199
 51
322.0444430269424174
  0
LINE
  5
15A89
  8
0
 10
8665.492895180141204
 20
2183.3419062737989407
 30
0.0
 11
8665.4553539605440164
 21
2183.3319004407799184
 31
0.0
  0
ARC
  5
15A8A
  8
0
 10
8665.4601305818578112
 20
2183.3115248994758986
 30
0.0
 40
0.0209279429170933
 50
103.1935526526230973
 51
143.2705554612635979
  0
ARC
  5
15A8B
  8
0
 10
8665.4640060711881233
 20
2183.3086330994160562
 30
0.0
 40
0.0257634289466237
 50
143.2705554612635979
 51
176.047198149943398
  0
ARC
  5
15A8C
  8
0
 10
8665.5267645968688157
 20
2183.3042965437621206
 30
0.0
 40
0.0886716021887082
 50
176.047198149943398
 51
181.8497167144116986
  0
ARC
  5
15A8D
  8
0
 10
8665.5250720438507415
 20
2183.3042418829868438
 30
0.0
 40
0.0869781667680407
 50
181.8497167144116986
 51
196.0363815508138998
  0
ARC
  5
15A8E
  8
0
 10
8665.7788705501461664
 20
2183.3771918725460637
 30
0.0
 40
0.3510527448216705
 50
196.0363815508138998
 51
204.3861298017104104
  0
ARC
  5
15A8F
  8
0
 10
8665.505995211438858
 20
2183.2534897710470432
 30
0.0
 40
0.0514477375369814
 50
204.3861298017104104
 51
229.3091867341587999
  0
ARC
  5
15A90
  8
0
 10
8665.4879737149967696
 20
2183.2325310520318453
 30
0.0
 40
0.0238064235903254
 50
229.3091867342378123
 51
258.8394472280895116
  0
ARC
  5
15A91
  8
0
 10
8665.4874614871441736
 20
2183.2299347320199558
 30
0.0
 40
0.0211600572178822
 50
258.8394472280895116
 51
285.7941201520977188
  0
LINE
  5
15A92
  8
0
 10
8665.4932208632617403
 20
2183.2095735530710954
 30
0.0
 11
8665.5359396967432986
 21
2183.2209431502387815
 31
0.0
  0
ARC
  5
15A93
  8
0
 10
8665.5394056054155953
 20
2183.2057620273089924
 30
0.0
 40
0.0155718489959761
 50
78.6931913734587454
 51
102.7583964909635057
  0
ARC
  5
15A94
  8
0
 10
8665.5421964454089903
 20
2183.2197201845278869
 30
0.0
 40
0.0013374209836298
 50
60.7667946048958072
 51
78.6931913733565551
  0
ARC
  5
15A95
  8
0
 10
8665.5265046884178446
 20
2183.2876865828170594
 30
0.0
 40
0.0794993854013985
 50
199.0726038046379074
 51
210.2361448720116925
  0
ARC
  5
15A96
  8
0
 10
8665.4724793715304259
 20
2183.2561974542131793
 30
0.0
 40
0.0169669931170617
 50
210.2361448720116925
 51
225.9643545909621878
  0
ARC
  5
15A97
  8
0
 10
8665.4634457681495405
 20
2183.2468545231809003
 30
0.0
 40
0.0039709802554483
 50
225.9643545909621878
 51
245.9852132147794919
  0
ARC
  5
15A98
  8
0
 10
8665.4625340662132658
 20
2183.2448082285332021
 30
0.0
 40
0.0017307744142904
 50
245.9852132149065085
 51
268.9656566106751256
  0
ARC
  5
15A99
  8
0
 10
8665.4625218054552533
 20
2183.244129137507116
 30
0.0
 40
0.0010515727158777
 50
268.9656566106751256
 51
302.6032105475812273
  0
ARC
  5
15A9A
  8
0
 10
8665.4621933032558445
 20
2183.244642738670791
 30
0.0
 40
0.0016612446364733
 50
302.6032105476970173
 51
340.3175714498848947
  0
ARC
  5
15A9B
  8
0
 10
8665.4555559599630215
 20
2183.2470169553871528
 30
0.0
 40
0.0087104453695897
 50
340.3175714498848947
 51
355.08593285522511
  0
ARC
  5
15A9C
  8
0
 10
8665.4416407065546082
 20
2183.2482133550538492
 30
0.0
 40
0.0226770358495986
 50
355.08593285522511
 51
12.3950273882706696
  0
ARC
  5
15A9D
  8
0
 10
8665.1410827854433592
 20
2183.1821587557069506
 30
0.0
 40
0.3304078825911639
 50
12.3950273882706696
 51
14.4981019312124193
  0
ARC
  5
15A9E
  8
0
 10
8665.4002011776483414
 20
2183.2491621703597957
 30
0.0
 40
0.0627667072222429
 50
14.4981019312124193
 51
27.2102011206092911
  0
ARC
  5
15A9F
  8
0
 10
8665.3806862902711146
 20
2183.2391284879608975
 30
0.0
 40
0.0847099433520992
 50
27.2102011206092911
 51
33.6955382120012388
  0
ARC
  5
15AA0
  8
0
 10
8665.4466088523840881
 20
2183.2830859551700087
 30
0.0
 40
0.0054758400945993
 50
33.6955382120012388
 51
60.7187988656857769
  0
ARC
  5
15AA1
  8
0
 10
8665.4475395881217992
 20
2183.2847457825760102
 30
0.0
 40
0.0035728697766508
 50
60.7187988656857769
 51
69.7447504011057191
  0
ARC
  5
15AA2
  8
0
 10
8665.4483144949645066
 20
2183.2868456669712032
 30
0.0
 40
0.0013345679453328
 50
69.7447504012125137
 51
100.4728716866704019
  0
ARC
  5
15AA3
  8
0
 10
8665.448268723937872
 20
2183.2870932795699446
 30
0.0
 40
0.0010827605070929
 50
100.4728716868800973
 51
136.2079300581609118
  0
ARC
  5
15AA4
  8
0
 10
8665.4508356208734767
 20
2183.2852790933279721
 30
0.0
 40
0.0042171035568651
 50
142.5634505758762032
 51
177.0076454835358106
  0
ARC
  5
15AA5
  8
0
 10
8665.4808194029756123
 20
2183.2833228685490212
 30
0.0
 40
0.0342643238015448
 50
176.3582891419052032
 51
194.6489759805282915
  0
ARC
  5
15AA6
  8
0
 10
8665.7348074448455009
 20
2183.3497136873661475
 30
0.0
 40
0.2967860681118081
 50
194.6489759805282915
 51
197.2490691347819904
  0
ARC
  5
15AA7
  8
0
 10
8665.4823011097942072
 20
2183.6779936080079096
 30
0.0
 40
0.059084901759771
 50
213.8374935574697986
 51
226.0848615691151053
  0
ARC
  5
15AA8
  8
0
 10
8665.450884959907853
 20
2183.6453686987510991
 30
0.0
 40
0.0137929693191189
 50
226.0965059073323005
 51
246.9387138099284016
  0
ARC
  5
15AA9
  8
0
 10
8665.4481073910392297
 20
2183.6388445679240249
 30
0.0
 40
0.0067021885533647
 50
246.9387138099284016
 51
274.8794680325885906
  0
ARC
  5
15AAA
  8
0
 10
8665.4483863246641704
 20
2183.6355771904400171
 30
0.0
 40
0.0034229265034491
 50
274.8794680325885906
 51
313.802233824765608
  0
ARC
  5
15AAB
  8
0
 10
8665.4446401827426598
 20
2183.6394833262547763
 30
0.0
 40
0.0088350865440055
 50
313.802233824765608
 51
340.4551956862954967
  0
ARC
  5
15AAC
  8
0
 10
8665.4315409456103225
 20
2183.6441335405020254
 30
0.0
 40
0.0227352486272672
 50
340.4551956862954967
 51
348.9058709869817108
  0
ARC
  5
15AAD
  8
0
 10
8665.4170543725758762
 20
2183.646974151618906
 30
0.0
 40
0.0374976965911619
 50
348.9058709869817108
 51
359.4294290906864831
  0
ARC
  5
15AAE
  8
0
 10
8665.3357336166955065
 20
2183.6477839982048863
 30
0.0
 40
0.1188224848690832
 50
359.4294290906864831
 51
11.0677695913015892
  0
ARC
  5
15AAF
  8
0
 10
8664.9342086657106847
 20
2183.5692424714011395
 30
0.0
 40
0.5279570076055184
 50
11.0677695913015892
 51
13.3638404629782901
  0
ARC
  5
15AB0
  8
0
 10
8665.1739936555422901
 20
2183.6262074200308234
 30
0.0
 40
0.2814983970432986
 50
13.3638404629782901
 51
22.1224493666507485
  0
ARC
  5
15AB1
  8
0
 10
8665.115326408906185
 20
2183.6023583403948578
 30
0.0
 40
0.3448278880200489
 50
22.1224493666507485
 51
30.9354089281763684
  0
ARC
  5
15AB2
  8
0
 10
8665.3829447628686466
 20
2183.7627493332288395
 30
0.0
 40
0.0328265194964553
 50
30.9354089281763684
 51
51.9369251901360514
  0
ARC
  5
15AB3
  8
0
 10
8665.3940934880865825
 20
2183.776688674523939
 30
0.0
 40
0.0149792420298518
 50
52.6397941095541029
 51
73.8487107631025594
  0
ARC
  5
15AB4
  8
0
 10
8665.3975972588286822
 20
2183.7867160766181769
 30
0.0
 40
0.0044107424376507
 50
81.3538571538134363
 51
110.1419818160767932
  0
ARC
  5
15AB5
  8
0
 10
8665.3974238931295986
 20
2183.7871887472238086
 30
0.0
 40
0.0039072812494929
 50
110.1419818161746065
 51
139.7547420039053065
  0
ARC
  5
15AB6
  8
0
 10
8665.4014913349528797
 20
2183.783745981400898
 30
0.0
 40
0.0092361384902086
 50
139.7547420039053065
 51
161.6806014531451865
  0
ARC
  5
15AB7
  8
0
 10
8665.4162997105486284
 20
2183.778843016772953
 30
0.0
 40
0.0248350823645896
 50
161.6806014531451865
 51
172.8558049314459879
  0
ARC
  5
15AB8
  8
0
 10
8665.447471477849831
 20
2183.7749359481999818
 30
0.0
 40
0.0562507514081343
 50
172.8558049314459879
 51
178.9403136602848008
  0
ARC
  5
15AB9
  8
0
 10
8665.4600957485527033
 20
2183.7747024354898713
 30
0.0
 40
0.0688771815848824
 50
178.9403136602848008
 51
182.8066652833545049
  0
ARC
  5
15ABA
  8
0
 10
8665.3797226690403477
 20
2183.7803614744489096
 30
0.0
 40
0.0146844576674725
 50
283.97755047951199
 51
322.0444430269424174
  0
LINE
  5
15ABB
  8
0
 10
8665.3832695778746711
 20
2183.7661118170949521
 30
0.0
 11
8665.3457283582774835
 21
2183.7561059840759299
 31
0.0
  0
ARC
  5
15ABC
  8
0
 10
8665.3505049795894593
 20
2183.7357304427728195
 30
0.0
 40
0.0209279429170933
 50
103.1935526526230973
 51
143.2705554612635979
  0
ARC
  5
15ABD
  8
0
 10
8665.3543804689215904
 20
2183.7328386427129772
 30
0.0
 40
0.0257634289466237
 50
143.2705554612635979
 51
176.047198149943398
  0
ARC
  5
15ABE
  8
0
 10
8665.4171389946022828
 20
2183.728502087058132
 30
0.0
 40
0.0886716021887082
 50
176.047198149943398
 51
181.8497167144116986
  0
ARC
  5
15ABF
  8
0
 10
8665.4154464415823895
 20
2183.7284474262842195
 30
0.0
 40
0.0869781667680407
 50
181.8497167144116986
 51
196.0363815508138998
  0
ARC
  5
15AC0
  8
0
 10
8665.6692449478796334
 20
2183.8013974158420751
 30
0.0
 40
0.3510527448216705
 50
196.0363815508138998
 51
204.3861298017104104
  0
ARC
  5
15AC1
  8
0
 10
8665.396369609172325
 20
2183.6776953143439641
 30
0.0
 40
0.0514477375369814
 50
204.3861298017104104
 51
229.3091867341587999
  0
ARC
  5
15AC2
  8
0
 10
8665.3783481127302366
 20
2183.656736595329221
 30
0.0
 40
0.0238064235903254
 50
229.3091867342378123
 51
258.8394472280895116
  0
ARC
  5
15AC3
  8
0
 10
8665.3778358848776406
 20
2183.6541402753168768
 30
0.0
 40
0.0211600572178822
 50
258.8394472280895116
 51
285.7941201520977188
  0
LINE
  5
15AC4
  8
0
 10
8665.3835952609952074
 20
2183.6337790963680163
 30
0.0
 11
8665.4263140944804036
 21
2183.645148693534793
 31
0.0
  0
ARC
  5
15AC5
  8
0
 10
8665.4297800031490624
 20
2183.6299675706059134
 30
0.0
 40
0.0155718489959761
 50
78.6931913734587454
 51
102.7583964909635057
  0
ARC
  5
15AC6
  8
0
 10
8665.4325708431424573
 20
2183.6439257278248078
 30
0.0
 40
0.0013374209836298
 50
60.7667946048958072
 51
78.6931913733565551
  0
ARC
  5
15AC7
  8
0
 10
8665.4168790861494927
 20
2183.7118921261130708
 30
0.0
 40
0.0794993854013985
 50
199.0726038046379074
 51
210.2361448720116925
  0
ARC
  5
15AC8
  8
0
 10
8665.3628537692657119
 20
2183.6804029975091908
 30
0.0
 40
0.0169669931170617
 50
210.2361448720116925
 51
225.9643545909621878
  0
ARC
  5
15AC9
  8
0
 10
8665.3538201658830076
 20
2183.6710600664769117
 30
0.0
 40
0.0039709802554483
 50
225.9643545909621878
 51
245.9852132147794919
  0
ARC
  5
15ACA
  8
0
 10
8665.3529084639485518
 20
2183.6690137718292135
 30
0.0
 40
0.0017307744142904
 50
245.9852132149065085
 51
268.9656566106751256
  0
ARC
  5
15ACB
  8
0
 10
8665.3528962031887204
 20
2183.6683346808040369
 30
0.0
 40
0.0010515727158777
 50
268.9656566106751256
 51
302.6032105475812273
  0
ARC
  5
15ACC
  8
0
 10
8665.3525677009893116
 20
2183.6688482819681667
 30
0.0
 40
0.0016612446364733
 50
302.6032105476970173
 51
340.3175714498848947
  0
ARC
  5
15ACD
  8
0
 10
8665.3459303576983075
 20
2183.6712224986849833
 30
0.0
 40
0.0087104453695897
 50
340.3175714498848947
 51
355.08593285522511
  0
ARC
  5
15ACE
  8
0
 10
8665.3320151042880752
 20
2183.6724188983512249
 30
0.0
 40
0.0226770358495986
 50
355.08593285522511
 51
12.3950273882706696
  0
ARC
  5
15ACF
  8
0
 10
8665.0314571831804642
 20
2183.6063642990029621
 30
0.0
 40
0.3304078825911639
 50
12.3950273882706696
 51
14.4981019312124193
  0
ARC
  5
15AD0
  8
0
 10
8665.2905755753818084
 20
2183.6733677136571714
 30
0.0
 40
0.0627667072222429
 50
14.4981019312124193
 51
27.2102011206092911
  0
ARC
  5
15AD1
  8
0
 10
8665.2710606880045816
 20
2183.6633340312569089
 30
0.0
 40
0.0847099433520992
 50
27.2102011206092911
 51
33.6955382120012388
  0
ARC
  5
15AD2
  8
0
 10
8665.3369832501193741
 20
2183.7072914984669296
 30
0.0
 40
0.0054758400945993
 50
33.6955382120012388
 51
60.7187988656857769
  0
ARC
  5
15AD3
  8
0
 10
8665.3379139858552662
 20
2183.7089513258729312
 30
0.0
 40
0.0035728697766508
 50
60.7187988656857769
 51
69.7447504011057191
  0
ARC
  5
15AD4
  8
0
 10
8665.3386888926997926
 20
2183.7110512102681241
 30
0.0
 40
0.0013345679453328
 50
69.7447504012125137
 51
100.4728716866704019
  0
ARC
  5
15AD5
  8
0
 10
8665.338643121671339
 20
2183.7112988228668655
 30
0.0
 40
0.0010827605070929
 50
100.4728716868800973
 51
136.2079300581609118
  0
ARC
  5
15AD6
  8
0
 10
8665.3412100186087628
 20
2183.7094846366239835
 30
0.0
 40
0.0042171035568651
 50
142.5634505758762032
 51
177.0076454835358106
  0
ARC
  5
15AD7
  8
0
 10
8665.3711938007090794
 20
2183.7075284118459422
 30
0.0
 40
0.0342643238015448
 50
176.3582891419052032
 51
194.6489759805282915
  0
ARC
  5
15AD8
  8
0
 10
8665.6251818425771489
 20
2183.7739192306630684
 30
0.0
 40
0.2967860681118081
 50
194.6489759805282915
 51
197.2490691347819904
  0
ARC
  5
15AD9
  8
0
 10
8665.0397189644245373
 20
2184.9651880954052103
 30
0.0
 40
0.0750801690750194
 50
356.8558368743553046
 51
359.5404279033604098
  0
ARC
  5
15ADA
  8
0
 10
8665.0961644611870724
 20
2184.9639317598880552
 30
0.0
 40
0.0187414233639119
 50
340.0486106479867772
 51
351.2169405087855125
  0
ARC
  5
15ADB
  8
0
 10
8665.0951900958243641
 20
2184.9643994527359609
 30
0.0
 40
0.019817186828858
 50
306.8990989722548761
 51
339.7388227281330728
  0
ARC
  5
15ADC
  8
0
 10
8665.0953726606967393
 20
2184.9641560745430979
 30
0.0
 40
0.0195129453778604
 50
284.9320877550312048
 51
306.8994809149701837
  0
LINE
  5
15ADD
  8
0
 10
8665.0531140371858783
 20
2184.9326968717900854
 30
0.0
 11
8665.1004006385846878
 21
2184.94530204378907
 31
0.0
  0
ARC
  5
15ADE
  8
0
 10
8665.0581927398397966
 20
2184.9147583562298678
 30
0.0
 40
0.0186435930319194
 50
105.8077310745275952
 51
145.1185226068488134
  0
ARC
  5
15ADF
  8
0
 10
8665.0587988461520581
 20
2184.9144668484209433
 30
0.0
 40
0.0193078112185327
 50
145.4374878825578037
 51
181.4511209302951045
  0
ARC
  5
15AE0
  8
0
 10
8665.5704108153568086
 20
2184.9274271331619275
 30
0.0
 40
0.5310839107162559
 50
181.4511209302951045
 51
186.0070939748291039
  0
ARC
  5
15AE1
  8
0
 10
8664.3026665742836485
 20
2184.7940231446718826
 30
0.0
 40
0.7436600184395008
 50
2.5538838574009799
 51
6.0070939748291519
  0
ARC
  5
15AE2
  8
0
 10
8665.0898501901356212
 20
2184.8291340728919749
 30
0.0
 40
0.044306238672759
 50
182.553883857374899
 51
192.4044719912984931
  0
ARC
  5
15AE3
  8
0
 10
8665.0682533036670065
 20
2184.8243839222691349
 30
0.0
 40
0.0221931331443069
 50
192.4044719912984931
 51
220.5025896049212122
  0
ARC
  5
15AE4
  8
0
 10
8665.0639784024206165
 20
2184.8207324775139568
 30
0.0
 40
0.0165710490564213
 50
220.5025896049608036
 51
265.5859141543384112
  0
ARC
  5
15AE5
  8
0
 10
8664.9468050026262063
 20
2184.8845668697340443
 30
0.0
 40
0.0946660609768959
 50
357.6331099435560077
 51
1.748610761783119
  0
ARC
  5
15AE6
  8
0
 10
8665.0436433571248926
 20
2184.8875231988490668
 30
0.0
 40
0.0022174091505172
 50
169.9966435122859991
 51
181.7486107618352094
  0
ARC
  5
15AE7
  8
0
 10
8665.0415581045544968
 20
2184.88789101109478
 30
0.0
 40
0.0000999663221213
 50
148.4436370947825878
 51
169.9966435122422013
  0
ARC
  5
15AE8
  8
0
 10
8665.0414814502200898
 20
2184.8879380887178741
 30
0.0
 40
0.0000100097245679
 50
80.4220853820098966
 51
148.4436371065484082
  0
LINE
  5
15AE9
  8
0
 10
8665.0415449325846566
 20
2184.8878118918901237
 30
0.0
 11
8665.0414831157249864
 21
2184.8879479589090806
 31
0.0
  0
ARC
  5
15AEA
  8
0
 10
8665.0368029264755023
 20
2184.8866685730849895
 30
0.0
 40
0.0048778888711214
 50
7.780396515601339
 51
13.5555525008874707
  0
ARC
  5
15AEB
  8
0
 10
8664.9361805248354358
 20
2184.8729200904549543
 30
0.0
 40
0.1064352051327538
 50
6.491128078842741
 51
7.780396515601339
  0
ARC
  5
15AEC
  8
0
 10
8664.9185196085709322
 20
2184.8709106533588056
 30
0.0
 40
0.1242100694284282
 50
5.2178400001789997
 51
6.491128078842741
  0
ARC
  5
15AED
  8
0
 10
8660.5376833506634284
 20
2184.470847938577208
 30
0.0
 40
4.5232754808957871
 50
5.1406541506681958
 51
5.2178400001789997
  0
ARC
  5
15AEE
  8
0
 10
8664.6351241514366848
 20
2184.8394654653620819
 30
0.0
 40
0.4092871487667863
 50
4.2559996177648376
 51
5.1406541506681958
  0
ARC
  5
15AEF
  8
0
 10
8666.819267769340513
 20
2185.0020053466819263
 30
0.0
 40
1.7808960756811241
 50
184.2559996177647861
 51
184.4622702015255982
  0
ARC
  5
15AF0
  8
0
 10
8664.5160729885756155
 20
2184.8222659766179277
 30
0.0
 40
0.5293014135592133
 50
3.5025792003733911
 51
4.4622702015255991
  0
ARC
  5
15AF1
  8
0
 10
8664.9106704425867065
 20
2184.8437241115971119
 30
0.0
 40
0.1341570531562493
 50
359.0526007846710854
 51
4.6511917861786278
  0
ARC
  5
15AF2
  8
0
 10
8665.1214063500265183
 20
2184.9644062540601226
 30
0.0
 40
0.0066120720885445
 50
171.046170560482409
 51
178.4432875541513965
  0
ARC
  5
15AF3
  8
0
 10
8665.1155819622435956
 20
2184.9653239358790415
 30
0.0
 40
0.00071583320464
 50
157.0663287282590943
 51
171.0461705605243878
  0
ARC
  5
15AF4
  8
0
 10
8665.1150362743555888
 20
2184.9655548214691407
 30
0.0
 40
0.0001233102715188
 50
131.0572040204762061
 51
157.0663287284916123
  0
ARC
  5
15AF5
  8
0
 10
8665.1149755021233432
 20
2184.9656245911178303
 30
0.0
 40
0.0000307842312232
 50
78.8219590929070932
 51
131.057204015196703
  0
ARC
  5
15AF6
  8
0
 10
8665.1149714112543734
 20
2184.9656038890848322
 30
0.0
 40
0.0000518865857182
 50
50.6109260194140091
 51
78.8219590969438713
  0
ARC
  5
15AF7
  8
0
 10
8665.1149268824756291
 20
2184.9655496577811391
 30
0.0
 40
0.0001220567110196
 50
33.8571224429990068
 51
50.6109260192507975
  0
ARC
  5
15AF8
  8
0
 10
8665.114588071608523
 20
2184.9653223541818079
 30
0.0
 40
0.0005300514789718
 50
19.6257198433033686
 51
33.8571224430206499
  0
ARC
  5
15AF9
  8
0
 10
8665.1115698415233055
 20
2184.9642460838849729
 30
0.0
 40
0.0037344345081142
 50
13.4774231732658301
 51
19.6257198433279108
  0
ARC
  5
15AFA
  8
0
 10
8665.1015070126231876
 20
2184.9618344057130344
 30
0.0
 40
0.0140822225357987
 50
9.1080246454443738
 51
13.4774231732658301
  0
ARC
  5
15AFB
  8
0
 10
8664.8874007610629633
 20
2184.9275093835340158
 30
0.0
 40
0.2309224727326409
 50
8.7666717195339299
 51
9.1080246454443738
  0
ARC
  5
15AFC
  8
0
 10
8665.0403109032777138
 20
2184.9397010765469531
 30
0.0
 40
0.0787491780540743
 50
10.7109676598942407
 51
16.9843228995281414
  0
ARC
  5
15AFD
  8
0
 10
8665.0455928440314892
 20
2184.9673255307197905
 30
0.0
 40
0.1640098939345268
 50
275.9882254855403971
 51
291.1284603460412086
  0
ARC
  5
15AFE
  8
0
 10
8665.1094234054598928
 20
2184.8021491018489542
 30
0.0
 40
0.0130708594715972
 50
73.1109690491854707
 51
111.1284603460412939
  0
ARC
  5
15AFF
  8
0
 10
8665.1099422776878782
 20
2184.7961276710861966
 30
0.0
 40
0.0188163459145547
 50
28.7935003834219607
 51
79.9658728650327646
  0
ARC
  5
15B00
  8
0
 10
8665.4666391981954803
 20
2184.8906432740568562
 30
0.0
 40
0.3507747947109744
 50
194.0997682614496966
 51
195.1040607658844124
  0
ARC
  5
15B01
  8
0
 10
8665.1346631001306378
 20
2184.8010440064867907
 30
0.0
 40
0.0069199438860765
 50
195.1040607659346904
 51
205.6835379313509975
  0
ARC
  5
15B02
  8
0
 10
8665.1321580186577194
 20
2184.7998392785311808
 30
0.0
 40
0.0041402311958309
 50
205.6835379313509975
 51
221.3022834680882056
  0
ARC
  5
15B03
  8
0
 10
8665.1292675349031924
 20
2184.7973805333049313
 30
0.0
 40
0.0003512272584286
 50
231.2556146074034871
 51
283.8617675098890913
  0
ARC
  5
15B04
  8
0
 10
8665.1290347930298594
 20
2184.7977451323740752
 30
0.0
 40
0.0007734896867885
 50
294.185199749918695
 51
345.2596159211655049
  0
ARC
  5
15B05
  8
0
 10
8665.1009268860671
 20
2184.8051402826072263
 30
0.0
 40
0.0298379470340954
 50
345.2596159211655049
 51
351.603734264497291
  0
ARC
  5
15B06
  8
0
 10
8664.9207483665741165
 20
2184.8149946021858341
 30
0.0
 40
0.2101776567046531
 50
356.1229739109584216
 51
1.9100408568561891
  0
ARC
  5
15B07
  8
0
 10
8664.4753760114654142
 20
2184.8238328573338549
 30
0.0
 40
0.6554357980689828
 50
359.8397687520695172
 51
11.4849460944791595
  0
ARC
  5
15B08
  8
0
 10
8665.0879001874745882
 20
2184.779717525354954
 30
0.0
 40
0.0750801690750194
 50
356.8558368743553046
 51
359.5404279033604098
  0
ARC
  5
15B09
  8
0
 10
8665.1443456842371234
 20
2184.7784611898368894
 30
0.0
 40
0.0187414233639119
 50
340.0486106479867772
 51
351.2169405087855125
  0
ARC
  5
15B0A
  8
0
 10
8665.1434350730996812
 20
2184.778894308578856
 30
0.0
 40
0.0197454071709107
 50
285.1090796336914082
 51
339.7688750408271972
  0
LINE
  5
15B0B
  8
0
 10
8665.1012952602341102
 20
2184.7472263017398291
 30
0.0
 11
8665.1485818616347387
 21
2184.7598314737401779
 31
0.0
  0
ARC
  5
15B0C
  8
0
 10
8665.1063739628898475
 20
2184.7292877861800662
 30
0.0
 40
0.0186435930319194
 50
105.8077310745275952
 51
145.1185226068488134
  0
ARC
  5
15B0D
  8
0
 10
8665.106980069198471
 20
2184.7289962783711417
 30
0.0
 40
0.0193078112185327
 50
145.4374878825578037
 51
181.4511209302951045
  0
ARC
  5
15B0E
  8
0
 10
8665.6185920384068595
 20
2184.7419565631121259
 30
0.0
 40
0.5310839107162559
 50
181.4511209302951045
 51
186.0070939748291039
  0
ARC
  5
15B0F
  8
0
 10
8664.3508477973355184
 20
2184.608552574622081
 30
0.0
 40
0.7436600184395008
 50
2.5538838574009799
 51
6.0070939748291519
  0
ARC
  5
15B10
  8
0
 10
8665.1380314131856721
 20
2184.6436635028421733
 30
0.0
 40
0.044306238672759
 50
182.553883857374899
 51
192.4044719912984931
  0
ARC
  5
15B11
  8
0
 10
8665.1164345267170575
 20
2184.6389133522197881
 30
0.0
 40
0.0221931331443069
 50
192.4044719912984931
 51
220.5025896049212122
  0
ARC
  5
15B12
  8
0
 10
8665.1121596254706674
 20
2184.6352619074641552
 30
0.0
 40
0.0165710490564213
 50
220.5025896049608036
 51
265.5859141543384112
  0
ARC
  5
15B13
  8
0
 10
8664.9949862256762572
 20
2184.6990962996837879
 30
0.0
 40
0.0946660609768959
 50
357.6331099435560077
 51
1.748610761783119
  0
ARC
  5
15B14
  8
0
 10
8665.0918245801749435
 20
2184.702052628797901
 30
0.0
 40
0.0022174091505172
 50
169.9966435122859991
 51
181.7486107618352094
  0
ARC
  5
15B15
  8
0
 10
8665.0897393276045477
 20
2184.7024204410458879
 30
0.0
 40
0.0000999663221213
 50
148.4436370947825878
 51
169.9966435122422013
  0
ARC
  5
15B16
  8
0
 10
8665.0896626732701407
 20
2184.7024675186680724
 30
0.0
 40
0.0000100097245679
 50
80.4220853820098966
 51
148.4436371065484082
  0
LINE
  5
15B17
  8
0
 10
8665.0897261556347075
 20
2184.7023413218389578
 30
0.0
 11
8665.0896643387768563
 21
2184.7024773888588243
 31
0.0
  0
ARC
  5
15B18
  8
0
 10
8665.0849841495255532
 20
2184.7011980030351879
 30
0.0
 40
0.0048778888711214
 50
7.780396515601339
 51
13.5555525008874707
  0
ARC
  5
15B19
  8
0
 10
8664.9843617478854867
 20
2184.6874495204051527
 30
0.0
 40
0.1064352051327538
 50
6.491128078842741
 51
7.780396515601339
  0
ARC
  5
15B1A
  8
0
 10
8664.9667008316209831
 20
2184.685440083309004
 30
0.0
 40
0.1242100694284282
 50
5.2178400001789997
 51
6.491128078842741
  0
ARC
  5
15B1B
  8
0
 10
8660.5858645737152983
 20
2184.2853773685269516
 30
0.0
 40
4.5232754808957871
 50
5.1406541506681958
 51
5.2178400001789997
  0
ARC
  5
15B1C
  8
0
 10
8664.6833053744867357
 20
2184.6539948953118255
 30
0.0
 40
0.4092871487667863
 50
4.2559996177648376
 51
5.1406541506681958
  0
ARC
  5
15B1D
  8
0
 10
8666.867448992388745
 20
2184.8165347766321247
 30
0.0
 40
1.7808960756811241
 50
184.2559996177647861
 51
184.4622702015255982
  0
ARC
  5
15B1E
  8
0
 10
8664.5642542116256664
 20
2184.6367954065681261
 30
0.0
 40
0.5293014135592133
 50
3.5025792003733911
 51
4.4622702015255991
  0
ARC
  5
15B1F
  8
0
 10
8664.9588516656367574
 20
2184.6582535415468556
 30
0.0
 40
0.1341570531562493
 50
359.0526007846710854
 51
4.6511917861786278
  0
ARC
  5
15B20
  8
0
 10
8665.1695875730765692
 20
2184.7789356840107757
 30
0.0
 40
0.0066120720885445
 50
171.046170560482409
 51
178.4432875541513965
  0
ARC
  5
15B21
  8
0
 10
8665.1637631852936465
 20
2184.7798533658278757
 30
0.0
 40
0.00071583320464
 50
157.0663287282590943
 51
171.0461705605243878
  0
ARC
  5
15B22
  8
0
 10
8665.1632174974056397
 20
2184.7800842514197939
 30
0.0
 40
0.0001233102715188
 50
131.0572040204762061
 51
157.0663287284916123
  0
ARC
  5
15B23
  8
0
 10
8665.1631567251733941
 20
2184.7801540210680287
 30
0.0
 40
0.0000307842312232
 50
78.8219590929070932
 51
131.057204015196703
  0
ARC
  5
15B24
  8
0
 10
8665.1631526343044243
 20
2184.7801333190350306
 30
0.0
 40
0.0000518865857182
 50
50.6109260194140091
 51
78.8219590969438713
  0
ARC
  5
15B25
  8
0
 10
8665.16310810552568
 20
2184.7800790877308827
 30
0.0
 40
0.0001220567110196
 50
33.8571224429990068
 51
50.6109260192507975
  0
ARC
  5
15B26
  8
0
 10
8665.1627692946585739
 20
2184.7798517841320063
 30
0.0
 40
0.0005300514789718
 50
19.6257198433033686
 51
33.8571224430206499
  0
ARC
  5
15B27
  8
0
 10
8665.1597510645733564
 20
2184.7787755138351713
 30
0.0
 40
0.0037344345081142
 50
13.4774231732658301
 51
19.6257198433279108
  0
ARC
  5
15B28
  8
0
 10
8665.1496882356732385
 20
2184.776363835662778
 30
0.0
 40
0.0140822225357987
 50
9.1080246454443738
 51
13.4774231732658301
  0
ARC
  5
15B29
  8
0
 10
8664.9355819841148332
 20
2184.7420388134842142
 30
0.0
 40
0.2309224727326409
 50
8.7666717195339299
 51
9.1080246454443738
  0
ARC
  5
15B2A
  8
0
 10
8665.0884921263277647
 20
2184.7542305064971515
 30
0.0
 40
0.0787491780540743
 50
10.7109676598942407
 51
16.9843228995281414
  0
ARC
  5
15B2B
  8
0
 10
8665.0937740670815401
 20
2184.7818549606699889
 30
0.0
 40
0.1640098939345268
 50
275.9882254855403971
 51
291.1284603460412086
  0
ARC
  5
15B2C
  8
0
 10
8665.1576046285081247
 20
2184.6166785317991526
 30
0.0
 40
0.0130708594715972
 50
73.1109690491854707
 51
111.1284603460412939
  0
ARC
  5
15B2D
  8
0
 10
8665.1581235007379291
 20
2184.6106571010350308
 30
0.0
 40
0.0188163459145547
 50
28.7935003834219607
 51
79.9658728650327646
  0
ARC
  5
15B2E
  8
0
 10
8665.5148204212455312
 20
2184.7051727040070546
 30
0.0
 40
0.3507747947109744
 50
194.0997682614496966
 51
195.1040607658844124
  0
ARC
  5
15B2F
  8
0
 10
8665.1828443231806887
 20
2184.6155734364369891
 30
0.0
 40
0.0069199438860765
 50
195.1040607659346904
 51
205.6835379313509975
  0
ARC
  5
15B30
  8
0
 10
8665.1803392417077703
 20
2184.6143687084800149
 30
0.0
 40
0.0041402311958309
 50
205.6835379313509975
 51
221.3022834680882056
  0
ARC
  5
15B31
  8
0
 10
8665.1774487579532433
 20
2184.6119099632560392
 30
0.0
 40
0.0003512272584286
 50
231.2556146074034871
 51
283.8617675098890913
  0
ARC
  5
15B32
  8
0
 10
8665.1772160160817293
 20
2184.6122745623238188
 30
0.0
 40
0.0007734896867885
 50
294.185199749918695
 51
345.2596159211655049
  0
ARC
  5
15B33
  8
0
 10
8665.1491081091171509
 20
2184.6196697125569699
 30
0.0
 40
0.0298379470340954
 50
345.2596159211655049
 51
351.603734264497291
  0
ARC
  5
15B34
  8
0
 10
8664.9689295896241674
 20
2184.6295240321360325
 30
0.0
 40
0.2101776567046531
 50
356.1229739109584216
 51
1.9100408568561891
  0
ARC
  5
15B35
  8
0
 10
8664.5235572345154651
 20
2184.6383622872849628
 30
0.0
 40
0.6554357980689828
 50
359.8397687520695172
 51
11.4849460944791595
  0
LINE
  5
15B36
  8
0
 10
8665.1084680973981449
 20
2184.8151850043432205
 30
0.0
 11
8665.1143478087669791
 21
2184.750705714815922
 31
0.0
  0
ARC
  5
15B37
  8
0
 10
8665.1607579765604896
 20
2184.5094692076331739
 30
0.0
 40
0.0750801690750194
 50
356.8558368743553046
 51
359.5404279033604098
  0
ARC
  5
15B38
  8
0
 10
8665.2172034733230248
 20
2184.5082128721151093
 30
0.0
 40
0.0187414233639119
 50
340.0486106479867772
 51
351.2169405087855125
  0
ARC
  5
15B39
  8
0
 10
8665.2162928621837636
 20
2184.508645990857076
 30
0.0
 40
0.0197454071709107
 50
285.1090796336914082
 51
339.7688750408271972
  0
LINE
  5
15B3A
  8
0
 10
8665.1741530493181926
 20
2184.4769779840171395
 30
0.0
 11
8665.2214396507206402
 21
2184.4895831560170336
 31
0.0
  0
ARC
  5
15B3B
  8
0
 10
8665.1792317519739299
 20
2184.4590394684578314
 30
0.0
 40
0.0186435930319194
 50
105.8077310745275952
 51
145.1185226068488134
  0
ARC
  5
15B3C
  8
0
 10
8665.1798378582843725
 20
2184.4587479606489069
 30
0.0
 40
0.0193078112185327
 50
145.4374878825578037
 51
181.4511209302951045
  0
ARC
  5
15B3D
  8
0
 10
8665.691449827490942
 20
2184.4717082453889816
 30
0.0
 40
0.5310839107162559
 50
181.4511209302951045
 51
186.0070939748291039
  0
ARC
  5
15B3E
  8
0
 10
8664.4237055864177819
 20
2184.3383042568998462
 30
0.0
 40
0.7436600184395008
 50
2.5538838574009799
 51
6.0070939748291519
  0
ARC
  5
15B3F
  8
0
 10
8665.2108892022715736
 20
2184.373415185119029
 30
0.0
 40
0.044306238672759
 50
182.553883857374899
 51
192.4044719912984931
  0
ARC
  5
15B40
  8
0
 10
8665.1892923158011399
 20
2184.3686650344970985
 30
0.0
 40
0.0221931331443069
 50
192.4044719912984931
 51
220.5025896049212122
  0
ARC
  5
15B41
  8
0
 10
8665.1850174145547498
 20
2184.3650135897419204
 30
0.0
 40
0.0165710490564213
 50
220.5025896049608036
 51
265.5859141543384112
  0
ARC
  5
15B42
  8
0
 10
8665.0678440147603396
 20
2184.4288479819610984
 30
0.0
 40
0.0946660609768959
 50
357.6331099435560077
 51
1.748610761783119
  0
ARC
  5
15B43
  8
0
 10
8665.164682369257207
 20
2184.4318043110761209
 30
0.0
 40
0.0022174091505172
 50
169.9966435122859991
 51
181.7486107618352094
  0
ARC
  5
15B44
  8
0
 10
8665.1625971166886302
 20
2184.4321721233231983
 30
0.0
 40
0.0000999663221213
 50
148.4436370947825878
 51
169.9966435122422013
  0
ARC
  5
15B45
  8
0
 10
8665.1625204623560421
 20
2184.4322192009449282
 30
0.0
 40
0.0000100097245679
 50
80.4220853820098966
 51
148.4436371065484082
  0
LINE
  5
15B46
  8
0
 10
8665.16258394471879
 20
2184.4320930041171778
 30
0.0
 11
8665.1625221278609388
 21
2184.4322290711370442
 31
0.0
  0
ARC
  5
15B47
  8
0
 10
8665.1578419386096357
 20
2184.4309496853120436
 30
0.0
 40
0.0048778888711214
 50
7.780396515601339
 51
13.5555525008874707
  0
ARC
  5
15B48
  8
0
 10
8665.0572195369695692
 20
2184.4172012026820084
 30
0.0
 40
0.1064352051327538
 50
6.491128078842741
 51
7.780396515601339
  0
ARC
  5
15B49
  8
0
 10
8665.0395586207068845
 20
2184.4151917655858597
 30
0.0
 40
0.1242100694284282
 50
5.2178400001789997
 51
6.491128078842741
  0
ARC
  5
15B4A
  8
0
 10
8660.6587223627975618
 20
2184.0151290508051716
 30
0.0
 40
4.5232754808957871
 50
5.1406541506681958
 51
5.2178400001789997
  0
ARC
  5
15B4B
  8
0
 10
8664.7561631635726371
 20
2184.383746577589136
 30
0.0
 40
0.4092871487667863
 50
4.2559996177648376
 51
5.1406541506681958
  0
ARC
  5
15B4C
  8
0
 10
8666.9403067814746464
 20
2184.5462864589089804
 30
0.0
 40
1.7808960756811241
 50
184.2559996177647861
 51
184.4622702015255982
  0
ARC
  5
15B4D
  8
0
 10
8664.6371120007097488
 20
2184.3665470888449818
 30
0.0
 40
0.5293014135592133
 50
3.5025792003733911
 51
4.4622702015255991
  0
ARC
  5
15B4E
  8
0
 10
8665.0317094547208399
 20
2184.3880052238250755
 30
0.0
 40
0.1341570531562493
 50
359.0526007846710854
 51
4.6511917861786278
  0
ARC
  5
15B4F
  8
0
 10
8665.2424453621606517
 20
2184.5086873662880862
 30
0.0
 40
0.0066120720885445
 50
171.046170560482409
 51
178.4432875541513965
  0
ARC
  5
15B50
  8
0
 10
8665.236620974377729
 20
2184.5096050481060956
 30
0.0
 40
0.00071583320464
 50
157.0663287282590943
 51
171.0461705605243878
  0
ARC
  5
15B51
  8
0
 10
8665.2360752864897222
 20
2184.5098359336971043
 30
0.0
 40
0.0001233102715188
 50
131.0572040204762061
 51
157.0663287284916123
  0
ARC
  5
15B52
  8
0
 10
8665.2360145142574765
 20
2184.5099057033457939
 30
0.0
 40
0.0000307842312232
 50
78.8219590929070932
 51
131.057204015196703
  0
ARC
  5
15B53
  8
0
 10
8665.2360104233903257
 20
2184.5098850013127958
 30
0.0
 40
0.0000518865857182
 50
50.6109260194140091
 51
78.8219590969438713
  0
ARC
  5
15B54
  8
0
 10
8665.2359658946115815
 20
2184.5098307700091027
 30
0.0
 40
0.0001220567110196
 50
33.8571224429990068
 51
50.6109260192507975
  0
ARC
  5
15B55
  8
0
 10
8665.2356270837444754
 20
2184.509603466408862
 30
0.0
 40
0.0005300514789718
 50
19.6257198433033686
 51
33.8571224430206499
  0
ARC
  5
15B56
  8
0
 10
8665.2326088536574389
 20
2184.5085271961129365
 30
0.0
 40
0.0037344345081142
 50
13.4774231732658301
 51
19.6257198433279108
  0
ARC
  5
15B57
  8
0
 10
8665.222546024757321
 20
2184.506115517940998
 30
0.0
 40
0.0140822225357987
 50
9.1080246454443738
 51
13.4774231732658301
  0
ARC
  5
15B58
  8
0
 10
8665.0084397731970967
 20
2184.4717904957610699
 30
0.0
 40
0.2309224727326409
 50
8.7666717195339299
 51
9.1080246454443738
  0
ARC
  5
15B59
  8
0
 10
8665.1613499154136662
 20
2184.4839821887740072
 30
0.0
 40
0.0787491780540743
 50
10.7109676598942407
 51
16.9843228995281414
  0
ARC
  5
15B5A
  8
0
 10
8665.1666318561674416
 20
2184.5116066429482089
 30
0.0
 40
0.1640098939345268
 50
275.9882254855403971
 51
291.1284603460412086
  0
ARC
  5
15B5B
  8
0
 10
8665.2304624175958452
 20
2184.3464302140769178
 30
0.0
 40
0.0130708594715972
 50
73.1109690491854707
 51
111.1284603460412939
  0
ARC
  5
15B5C
  8
0
 10
8665.2309812898220116
 20
2184.340408783312796
 30
0.0
 40
0.0188163459145547
 50
28.7935003834219607
 51
79.9658728650327646
  0
ARC
  5
15B5D
  8
0
 10
8665.5876782103296136
 20
2184.4349243862839103
 30
0.0
 40
0.3507747947109744
 50
194.0997682614496966
 51
195.1040607658844124
  0
ARC
  5
15B5E
  8
0
 10
8665.2557021122647711
 20
2184.3453251187152091
 30
0.0
 40
0.0069199438860765
 50
195.1040607659346904
 51
205.6835379313509975
  0
ARC
  5
15B5F
  8
0
 10
8665.2531970307918527
 20
2184.3441203907577801
 30
0.0
 40
0.0041402311958309
 50
205.6835379313509975
 51
221.3022834680882056
  0
ARC
  5
15B60
  8
0
 10
8665.2503065470355068
 20
2184.3416616455328949
 30
0.0
 40
0.0003512272584286
 50
231.2556146074034871
 51
283.8617675098890913
  0
ARC
  5
15B61
  8
0
 10
8665.2500738051658118
 20
2184.3420262446020388
 30
0.0
 40
0.0007734896867885
 50
294.185199749918695
 51
345.2596159211655049
  0
ARC
  5
15B62
  8
0
 10
8665.2219658982030523
 20
2184.3494213948351899
 30
0.0
 40
0.0298379470340954
 50
345.2596159211655049
 51
351.603734264497291
  0
ARC
  5
15B63
  8
0
 10
8665.0417873787100689
 20
2184.3592757144128882
 30
0.0
 40
0.2101776567046531
 50
356.1229739109584216
 51
1.9100408568561891
  0
ARC
  5
15B64
  8
0
 10
8664.5964150235995476
 20
2184.3681139695618185
 30
0.0
 40
0.6554357980689828
 50
359.8397687520695172
 51
11.4849460944791595
  0
ARC
  5
15B65
  8
0
 10
8665.0526971080544172
 20
2184.6119135768790329
 30
0.0
 40
0.0750801690750194
 50
356.8558368743553046
 51
359.5404279033604098
  0
ARC
  5
15B66
  8
0
 10
8665.1091426048169524
 20
2184.6106572413609683
 30
0.0
 40
0.0187414233639119
 50
340.0486106479867772
 51
351.2169405087855125
  0
ARC
  5
15B67
  8
0
 10
8665.1082319936795102
 20
2184.6110903601029349
 30
0.0
 40
0.0197454071709107
 50
285.1090796336914082
 51
339.7688750408271972
  0
LINE
  5
15B68
  8
0
 10
8665.0660921808157582
 20
2184.5794223532629985
 30
0.0
 11
8665.1133787822145678
 21
2184.5920275252628926
 31
0.0
  0
ARC
  5
15B69
  8
0
 10
8665.0711708834696765
 20
2184.5614838377041451
 30
0.0
 40
0.0186435930319194
 50
105.8077310745275952
 51
145.1185226068488134
  0
ARC
  5
15B6A
  8
0
 10
8665.071776989781938
 20
2184.5611923298938564
 30
0.0
 40
0.0193078112185327
 50
145.4374878825578037
 51
181.4511209302951045
  0
ARC
  5
15B6B
  8
0
 10
8665.5833889589866885
 20
2184.5741526146348406
 30
0.0
 40
0.5310839107162559
 50
181.4511209302951045
 51
186.0070939748291039
  0
ARC
  5
15B6C
  8
0
 10
8664.3156447179135284
 20
2184.4407486261461599
 30
0.0
 40
0.7436600184395008
 50
2.5538838574009799
 51
6.0070939748291519
  0
ARC
  5
15B6D
  8
0
 10
8665.1028283337673201
 20
2184.475859554364888
 30
0.0
 40
0.044306238672759
 50
182.553883857374899
 51
192.4044719912984931
  0
ARC
  5
15B6E
  8
0
 10
8665.0812314472968865
 20
2184.4711094037429575
 30
0.0
 40
0.0221931331443069
 50
192.4044719912984931
 51
220.5025896049212122
  0
ARC
  5
15B6F
  8
0
 10
8665.0769565460504964
 20
2184.4674579589868699
 30
0.0
 40
0.0165710490564213
 50
220.5025896049608036
 51
265.5859141543384112
  0
ARC
  5
15B70
  8
0
 10
8664.9597831462560862
 20
2184.5312923512069574
 30
0.0
 40
0.0946660609768959
 50
357.6331099435560077
 51
1.748610761783119
  0
ARC
  5
15B71
  8
0
 10
8665.0566215007547726
 20
2184.5342486803219799
 30
0.0
 40
0.0022174091505172
 50
169.9966435122859991
 51
181.7486107618352094
  0
ARC
  5
15B72
  8
0
 10
8665.0545362481843767
 20
2184.5346164925690573
 30
0.0
 40
0.0000999663221213
 50
148.4436370947825878
 51
169.9966435122422013
  0
ARC
  5
15B73
  8
0
 10
8665.0544595938517887
 20
2184.5346635701907871
 30
0.0
 40
0.0000100097245679
 50
80.4220853820098966
 51
148.4436371065484082
  0
LINE
  5
15B74
  8
0
 10
8665.0545230762145366
 20
2184.5345373733630367
 30
0.0
 11
8665.0544612593548663
 21
2184.5346734403829032
 31
0.0
  0
ARC
  5
15B75
  8
0
 10
8665.0497810701053822
 20
2184.5333940545579026
 30
0.0
 40
0.0048778888711214
 50
7.780396515601339
 51
13.5555525008874707
  0
ARC
  5
15B76
  8
0
 10
8664.9491586684653157
 20
2184.5196455719278674
 30
0.0
 40
0.1064352051327538
 50
6.491128078842741
 51
7.780396515601339
  0
ARC
  5
15B77
  8
0
 10
8664.9314977522026311
 20
2184.5176361348321734
 30
0.0
 40
0.1242100694284282
 50
5.2178400001789997
 51
6.491128078842741
  0
ARC
  5
15B78
  8
0
 10
8660.5506614942933084
 20
2184.1175734200510306
 30
0.0
 40
4.5232754808957871
 50
5.1406541506681958
 51
5.2178400001789997
  0
ARC
  5
15B79
  8
0
 10
8664.6481022950665647
 20
2184.4861909468359045
 30
0.0
 40
0.4092871487667863
 50
4.2559996177648376
 51
5.1406541506681958
  0
ARC
  5
15B7A
  8
0
 10
8666.832245912970393
 20
2184.6487308281548394
 30
0.0
 40
1.7808960756811241
 50
184.2559996177647861
 51
184.4622702015255982
  0
ARC
  5
15B7B
  8
0
 10
8664.5290511322054954
 20
2184.4689914580908408
 30
0.0
 40
0.5293014135592133
 50
3.5025792003733911
 51
4.4622702015255991
  0
ARC
  5
15B7C
  8
0
 10
8664.9236485862147674
 20
2184.4904495930709345
 30
0.0
 40
0.1341570531562493
 50
359.0526007846710854
 51
4.6511917861786278
  0
ARC
  5
15B7D
  8
0
 10
8665.1343844936563983
 20
2184.6111317355339452
 30
0.0
 40
0.0066120720885445
 50
171.046170560482409
 51
178.4432875541513965
  0
ARC
  5
15B7E
  8
0
 10
8665.1285601058734755
 20
2184.6120494173510451
 30
0.0
 40
0.00071583320464
 50
157.0663287282590943
 51
171.0461705605243878
  0
ARC
  5
15B7F
  8
0
 10
8665.1280144179854688
 20
2184.6122803029429633
 30
0.0
 40
0.0001233102715188
 50
131.0572040204762061
 51
157.0663287284916123
  0
ARC
  5
15B80
  8
0
 10
8665.1279536457532231
 20
2184.6123500725921076
 30
0.0
 40
0.0000307842312232
 50
78.8219590929070932
 51
131.057204015196703
  0
ARC
  5
15B81
  8
0
 10
8665.1279495548860723
 20
2184.6123293705591095
 30
0.0
 40
0.0000518865857182
 50
50.6109260194140091
 51
78.8219590969438713
  0
ARC
  5
15B82
  8
0
 10
8665.127905026109147
 20
2184.6122751392540522
 30
0.0
 40
0.0001220567110196
 50
33.8571224429990068
 51
50.6109260192507975
  0
ARC
  5
15B83
  8
0
 10
8665.1275662152384029
 20
2184.6120478356551757
 30
0.0
 40
0.0005300514789718
 50
19.6257198433033686
 51
33.8571224430206499
  0
ARC
  5
15B84
  8
0
 10
8665.1245479851531854
 20
2184.610971565357886
 30
0.0
 40
0.0037344345081142
 50
13.4774231732658301
 51
19.6257198433279108
  0
ARC
  5
15B85
  8
0
 10
8665.1144851562530675
 20
2184.6085598871868569
 30
0.0
 40
0.0140822225357987
 50
9.1080246454443738
 51
13.4774231732658301
  0
ARC
  5
15B86
  8
0
 10
8664.9003789046928432
 20
2184.5742348650069289
 30
0.0
 40
0.2309224727326409
 50
8.7666717195339299
 51
9.1080246454443738
  0
ARC
  5
15B87
  8
0
 10
8665.0532890469075937
 20
2184.5864265580198662
 30
0.0
 40
0.0787491780540743
 50
10.7109676598942407
 51
16.9843228995281414
  0
ARC
  5
15B88
  8
0
 10
8665.0585709876595502
 20
2184.6140510121940679
 30
0.0
 40
0.1640098939345268
 50
275.9882254855403971
 51
291.1284603460412086
  0
ARC
  5
15B89
  8
0
 10
8665.1224015490897727
 20
2184.4488745833218672
 30
0.0
 40
0.0130708594715972
 50
73.1109690491854707
 51
111.1284603460412939
  0
ARC
  5
15B8A
  8
0
 10
8665.1229204213177582
 20
2184.4428531525591097
 30
0.0
 40
0.0188163459145547
 50
28.7935003834219607
 51
79.9658728650327646
  0
ARC
  5
15B8B
  8
0
 10
8665.4796173418253602
 20
2184.537368755530224
 30
0.0
 40
0.3507747947109744
 50
194.0997682614496966
 51
195.1040607658844124
  0
ARC
  5
15B8C
  8
0
 10
8665.1476412437605177
 20
2184.4477694879610681
 30
0.0
 40
0.0069199438860765
 50
195.1040607659346904
 51
205.6835379313509975
  0
ARC
  5
15B8D
  8
0
 10
8665.1451361622875993
 20
2184.4465647600031843
 30
0.0
 40
0.0041402311958309
 50
205.6835379313509975
 51
221.3022834680882056
  0
ARC
  5
15B8E
  8
0
 10
8665.1422456785312534
 20
2184.4441060147792086
 30
0.0
 40
0.0003512272584286
 50
231.2556146074034871
 51
283.8617675098890913
  0
ARC
  5
15B8F
  8
0
 10
8665.1420129366597394
 20
2184.4444706138478978
 30
0.0
 40
0.0007734896867885
 50
294.185199749918695
 51
345.2596159211655049
  0
ARC
  5
15B90
  8
0
 10
8665.1139050296969799
 20
2184.4518657640810488
 30
0.0
 40
0.0298379470340954
 50
345.2596159211655049
 51
351.603734264497291
  0
ARC
  5
15B91
  8
0
 10
8664.9337265102058154
 20
2184.4617200836592019
 30
0.0
 40
0.2101776567046531
 50
356.1229739109584216
 51
1.9100408568561891
  0
ARC
  5
15B92
  8
0
 10
8664.4883541550934751
 20
2184.4705583388081322
 30
0.0
 40
0.6554357980689828
 50
359.8397687520695172
 51
11.4849460944791595
  0
LINE
  5
15B93
  8
0
 10
8665.1263633009548357
 20
2184.6211154597881432
 30
0.0
 11
8665.1276888745742326
 21
2184.608271222878102
 31
0.0
  0
LINE
  5
15B94
  8
0
 10
8665.1437254793163447
 20
2184.4528834337102126
 30
0.0
 11
8665.1481979642503575
 21
2184.4139720144280545
 31
0.0
  0
ARC
  5
15B95
  8
0
 10
8665.2492105059518508
 20
2184.1763152919329514
 30
0.0
 40
0.0750801690750194
 50
356.8558368743553046
 51
359.5404279033604098
  0
ARC
  5
15B96
  8
0
 10
8665.305656002712567
 20
2184.1750589564148868
 30
0.0
 40
0.0187414233639119
 50
340.0486106479867772
 51
351.2169405087855125
  0
ARC
  5
15B97
  8
0
 10
8665.3047453915751248
 20
2184.1754920751568534
 30
0.0
 40
0.0197454071709107
 50
285.1090796336914082
 51
339.7688750408271972
  0
LINE
  5
15B98
  8
0
 10
8665.2626055787095538
 20
2184.1438240683178265
 30
0.0
 11
8665.3098921801083634
 21
2184.1564292403181753
 31
0.0
  0
ARC
  5
15B99
  8
0
 10
8665.2676842813652911
 20
2184.1258855527580636
 30
0.0
 40
0.0186435930319194
 50
105.8077310745275952
 51
145.1185226068488134
  0
ARC
  5
15B9A
  8
0
 10
8665.2682903876739147
 20
2184.1255940449491391
 30
0.0
 40
0.0193078112185327
 50
145.4374878825578037
 51
181.4511209302951045
  0
ARC
  5
15B9B
  8
0
 10
8665.7799023568823031
 20
2184.1385543296901233
 30
0.0
 40
0.5310839107162559
 50
181.4511209302951045
 51
186.0070939748291039
  0
ARC
  5
15B9C
  8
0
 10
8664.5121581158091431
 20
2184.0051503412000784
 30
0.0
 40
0.7436600184395008
 50
2.5538838574009799
 51
6.0070939748291519
  0
ARC
  5
15B9D
  8
0
 10
8665.2993417316592968
 20
2184.0402612694201707
 30
0.0
 40
0.044306238672759
 50
182.553883857374899
 51
192.4044719912984931
  0
ARC
  5
15B9E
  8
0
 10
8665.2777448451925011
 20
2184.0355111187977855
 30
0.0
 40
0.0221931331443069
 50
192.4044719912984931
 51
220.5025896049212122
  0
ARC
  5
15B9F
  8
0
 10
8665.273469943942473
 20
2184.0318596740421526
 30
0.0
 40
0.0165710490564213
 50
220.5025896049608036
 51
265.5859141543384112
  0
ARC
  5
15BA0
  8
0
 10
8665.1562965441517008
 20
2184.0956940662617853
 30
0.0
 40
0.0946660609768959
 50
357.6331099435560077
 51
1.748610761783119
  0
ARC
  5
15BA1
  8
0
 10
8665.2531348986503872
 20
2184.0986503953768079
 30
0.0
 40
0.0022174091505172
 50
169.9966435122859991
 51
181.7486107618352094
  0
ARC
  5
15BA2
  8
0
 10
8665.2510496460799914
 20
2184.0990182076238852
 30
0.0
 40
0.0000999663221213
 50
148.4436370947825878
 51
169.9966435122422013
  0
ARC
  5
15BA3
  8
0
 10
8665.2509729917455843
 20
2184.0990652852451603
 30
0.0
 40
0.0000100097245679
 50
80.4220853820098966
 51
148.4436371065484082
  0
LINE
  5
15BA4
  8
0
 10
8665.2510364741101512
 20
2184.0989390884178647
 30
0.0
 11
8665.250974657250481
 21
2184.0990751554368217
 31
0.0
  0
ARC
  5
15BA5
  8
0
 10
8665.2462944679991779
 20
2184.097795769611821
 30
0.0
 40
0.0048778888711214
 50
7.780396515601339
 51
13.5555525008874707
  0
ARC
  5
15BA6
  8
0
 10
8665.1456720663627493
 20
2184.0840472869817859
 30
0.0
 40
0.1064352051327538
 50
6.491128078842741
 51
7.780396515601339
  0
ARC
  5
15BA7
  8
0
 10
8665.1280111500964267
 20
2184.0820378498860919
 30
0.0
 40
0.1242100694284282
 50
5.2178400001789997
 51
6.491128078842741
  0
ARC
  5
15BA8
  8
0
 10
8660.747174892185285
 20
2183.681975135104949
 30
0.0
 40
4.5232754808957871
 50
5.1406541506681958
 51
5.2178400001789997
  0
ARC
  5
15BA9
  8
0
 10
8664.8446156929603603
 20
2184.0505926618898229
 30
0.0
 40
0.4092871487667863
 50
4.2559996177648376
 51
5.1406541506681958
  0
ARC
  5
15BAA
  8
0
 10
8667.0287593108660076
 20
2184.2131325432092126
 30
0.0
 40
1.7808960756811241
 50
184.2559996177647861
 51
184.4622702015255982
  0
ARC
  5
15BAB
  8
0
 10
8664.72556453010111
 20
2184.0333931731461234
 30
0.0
 40
0.5293014135592133
 50
3.5025792003733911
 51
4.4622702015255991
  0
ARC
  5
15BAC
  8
0
 10
8665.120161984110382
 20
2184.0548513081248529
 30
0.0
 40
0.1341570531562493
 50
359.0526007846710854
 51
4.6511917861786278
  0
ARC
  5
15BAD
  8
0
 10
8665.3308978915520129
 20
2184.1755334505887731
 30
0.0
 40
0.0066120720885445
 50
171.046170560482409
 51
178.4432875541513965
  0
ARC
  5
15BAE
  8
0
 10
8665.3250735037672712
 20
2184.1764511324058731
 30
0.0
 40
0.00071583320464
 50
157.0663287282590943
 51
171.0461705605243878
  0
ARC
  5
15BAF
  8
0
 10
8665.3245278158810834
 20
2184.1766820179968818
 30
0.0
 40
0.0001233102715188
 50
131.0572040204762061
 51
157.0663287284916123
  0
ARC
  5
15BB0
  8
0
 10
8665.3244670436506567
 20
2184.1767517876460261
 30
0.0
 40
0.0000307842312232
 50
78.8219590929070932
 51
131.057204015196703
  0
ARC
  5
15BB1
  8
0
 10
8665.3244629527798679
 20
2184.1767310856139375
 30
0.0
 40
0.0000518865857182
 50
50.6109260194140091
 51
78.8219590969438713
  0
ARC
  5
15BB2
  8
0
 10
8665.3244184240011236
 20
2184.1766768543088801
 30
0.0
 40
0.0001220567110196
 50
33.8571224429990068
 51
50.6109260192507975
  0
ARC
  5
15BB3
  8
0
 10
8665.3240796131321986
 20
2184.1764495507100037
 30
0.0
 40
0.0005300514789718
 50
19.6257198433033686
 51
33.8571224430206499
  0
ARC
  5
15BB4
  8
0
 10
8665.321061383050619
 20
2184.1753732804131687
 30
0.0
 40
0.0037344345081142
 50
13.4774231732658301
 51
19.6257198433279108
  0
ARC
  5
15BB5
  8
0
 10
8665.3109985541486822
 20
2184.1729616022407754
 30
0.0
 40
0.0140822225357987
 50
9.1080246454443738
 51
13.4774231732658301
  0
ARC
  5
15BB6
  8
0
 10
8665.0968923025866388
 20
2184.1386365800622116
 30
0.0
 40
0.2309224727326409
 50
8.7666717195339299
 51
9.1080246454443738
  0
ARC
  5
15BB7
  8
0
 10
8665.2498024448032083
 20
2184.1508282730751489
 30
0.0
 40
0.0787491780540743
 50
10.7109676598942407
 51
16.9843228995281414
  0
ARC
  5
15BB8
  8
0
 10
8665.2550843855551648
 20
2184.1784527272479863
 30
0.0
 40
0.1640098939345268
 50
275.9882254855403971
 51
291.1284603460412086
  0
ARC
  5
15BB9
  8
0
 10
8665.3189149469835684
 20
2184.0132762983771499
 30
0.0
 40
0.0130708594715972
 50
73.1109690491854707
 51
111.1284603460412939
  0
ARC
  5
15BBA
  8
0
 10
8665.3194338192133728
 20
2184.0072548676139377
 30
0.0
 40
0.0188163459145547
 50
28.7935003834219607
 51
79.9658728650327646
  0
ARC
  5
15BBB
  8
0
 10
8665.6761307397227938
 20
2184.101770470585052
 30
0.0
 40
0.3507747947109744
 50
194.0997682614496966
 51
195.1040607658844124
  0
ARC
  5
15BBC
  8
0
 10
8665.3441546416561323
 20
2184.0121712030149865
 30
0.0
 40
0.0069199438860765
 50
195.1040607659346904
 51
205.6835379313509975
  0
ARC
  5
15BBD
  8
0
 10
8665.3416495601813949
 20
2184.0109664750580123
 30
0.0
 40
0.0041402311958309
 50
205.6835379313509975
 51
221.3022834680882056
  0
ARC
  5
15BBE
  8
0
 10
8665.338759076428687
 20
2184.0085077298340366
 30
0.0
 40
0.0003512272584286
 50
231.2556146074034871
 51
283.8617675098890913
  0
ARC
  5
15BBF
  8
0
 10
8665.338526334555354
 20
2184.0088723289018162
 30
0.0
 40
0.0007734896867885
 50
294.185199749918695
 51
345.2596159211655049
  0
ARC
  5
15BC0
  8
0
 10
8665.3104184275925945
 20
2184.0162674791349673
 30
0.0
 40
0.0298379470340954
 50
345.2596159211655049
 51
351.603734264497291
  0
ARC
  5
15BC1
  8
0
 10
8665.1302399080996111
 20
2184.0261217987140299
 30
0.0
 40
0.2101776567046531
 50
356.1229739109584216
 51
1.9100408568561891
  0
ARC
  5
15BC2
  8
0
 10
8664.6848675529909087
 20
2184.0349600538620507
 30
0.0
 40
0.6554357980689828
 50
359.8397687520695172
 51
11.4849460944791595
  0
ARC
  5
15BC3
  8
0
 10
8665.1577041095151799
 20
2184.4369408764578111
 30
0.0
 40
0.0197454071709107
 50
285.1090796336914082
 51
285.8416172072292056
  0
LINE
  5
15BC4
  8
0
 10
8665.1155642966496089
 20
2184.4052728696187842
 30
0.0
 11
8665.1628508980502374
 21
2184.417878041619133
 31
0.0
  0
ARC
  5
15BC5
  8
0
 10
8665.1206429993053462
 20
2184.3873343540599308
 30
0.0
 40
0.0186435930319194
 50
105.8077310745275952
 51
145.1185226068488134
  0
ARC
  5
15BC6
  8
0
 10
8665.1212491056157887
 20
2184.3870428462500968
 30
0.0
 40
0.0193078112185327
 50
145.4374878825578037
 51
181.4511209302951045
  0
ARC
  5
15BC7
  8
0
 10
8665.6328610748223582
 20
2184.400003130991081
 30
0.0
 40
0.5310839107162559
 50
181.4511209302951045
 51
186.0070939748291039
  0
ARC
  5
15BC8
  8
0
 10
8664.3651168337491981
 20
2184.2665991425010361
 30
0.0
 40
0.7436600184395008
 50
2.5538838574009799
 51
6.0070939748291519
  0
ARC
  5
15BC9
  8
0
 10
8665.1523004496011708
 20
2184.3017100707211284
 30
0.0
 40
0.044306238672759
 50
182.553883857374899
 51
192.4044719912984931
  0
ARC
  5
15BCA
  8
0
 10
8665.1307035631343751
 20
2184.2969599200978337
 30
0.0
 40
0.0221931331443069
 50
192.4044719912984931
 51
220.5025896049212122
  0
ARC
  5
15BCB
  8
0
 10
8665.1264286618825281
 20
2184.2933084753431103
 30
0.0
 40
0.0165710490564213
 50
220.5025896049608036
 51
265.5859141543384112
  0
ARC
  5
15BCC
  8
0
 10
8665.0092552620917559
 20
2184.3571428675631978
 30
0.0
 40
0.0946660609768959
 50
357.6331099435560077
 51
1.748610761783119
  0
ARC
  5
15BCD
  8
0
 10
8665.1060936165904423
 20
2184.3600991966782203
 30
0.0
 40
0.0022174091505172
 50
169.9966435122859991
 51
181.7486107618352094
  0
ARC
  5
15BCE
  8
0
 10
8665.1040083640200464
 20
2184.360467008924843
 30
0.0
 40
0.0000999663221213
 50
148.4436370947825878
 51
169.9966435122422013
  0
ARC
  5
15BCF
  8
0
 10
8665.1039317096856394
 20
2184.3605140865470275
 30
0.0
 40
0.0000100097245679
 50
80.4220853820098966
 51
148.4436371065484082
  0
LINE
  5
15BD0
  8
0
 10
8665.1039951920502062
 20
2184.3603878897188224
 30
0.0
 11
8665.103933375190536
 21
2184.3605239567377794
 31
0.0
  0
ARC
  5
15BD1
  8
0
 10
8665.0992531859392329
 20
2184.359244570914143
 30
0.0
 40
0.0048778888711214
 50
7.780396515601339
 51
13.5555525008874707
  0
ARC
  5
15BD2
  8
0
 10
8664.9986307843009854
 20
2184.3454960882841078
 30
0.0
 40
0.1064352051327538
 50
6.491128078842741
 51
7.780396515601339
  0
ARC
  5
15BD3
  8
0
 10
8664.9809698680383008
 20
2184.3434866511879591
 30
0.0
 40
0.1242100694284282
 50
5.2178400001789997
 51
6.491128078842741
  0
ARC
  5
15BD4
  8
0
 10
8660.600133610127159
 20
2183.9434239364068162
 30
0.0
 40
4.5232754808957871
 50
5.1406541506681958
 51
5.2178400001789997
  0
ARC
  5
15BD5
  8
0
 10
8664.6975744108985964
 20
2184.3120414631907806
 30
0.0
 40
0.4092871487667863
 50
4.2559996177648376
 51
5.1406541506681958
  0
ARC
  5
15BD6
  8
0
 10
8666.8817180288060626
 20
2184.4745813445110798
 30
0.0
 40
1.7808960756811241
 50
184.2559996177647861
 51
184.4622702015255982
  0
ARC
  5
15BD7
  8
0
 10
8664.5785232480411651
 20
2184.2948419744470812
 30
0.0
 40
0.5293014135592133
 50
3.5025792003733911
 51
4.4622702015255991
  0
ARC
  5
15BD8
  8
0
 10
8664.9731207020504371
 20
2184.3163001094258107
 30
0.0
 40
0.1341570531562493
 50
359.0526007846710854
 51
4.6511917861786278
  0
ARC
  5
15BD9
  8
0
 10
8665.1080431034970388
 20
2184.439901528548944
 30
0.0
 40
0.1640098939345268
 50
275.9882254855403971
 51
291.1284603460412086
  0
ARC
  5
15BDA
  8
0
 10
8665.1718736649236234
 20
2184.2747250996781077
 30
0.0
 40
0.0130708594715972
 50
73.1109690491854707
 51
111.1284603460412939
  0
ARC
  5
15BDB
  8
0
 10
8665.1723925371534278
 20
2184.2687036689148954
 30
0.0
 40
0.0188163459145547
 50
28.7935003834219607
 51
79.9658728650327646
  0
ARC
  5
15BDC
  8
0
 10
8665.5290894576610299
 20
2184.3632192718860097
 30
0.0
 40
0.3507747947109744
 50
194.0997682614496966
 51
195.1040607658844124
  0
ARC
  5
15BDD
  8
0
 10
8665.1971133595943684
 20
2184.2736200043159442
 30
0.0
 40
0.0069199438860765
 50
195.1040607659346904
 51
205.6835379313509975
  0
ARC
  5
15BDE
  8
0
 10
8665.19460827812145
 20
2184.27241527635897
 30
0.0
 40
0.0041402311958309
 50
205.6835379313509975
 51
221.3022834680882056
  0
ARC
  5
15BDF
  8
0
 10
8665.191717794368742
 20
2184.2699565311349943
 30
0.0
 40
0.0003512272584286
 50
231.2556146074034871
 51
283.8617675098890913
  0
ARC
  5
15BE0
  8
0
 10
8665.191485052495409
 20
2184.2703211302027739
 30
0.0
 40
0.0007734896867885
 50
294.185199749918695
 51
345.2596159211655049
  0
ARC
  5
15BE1
  8
0
 10
8665.1633771455326496
 20
2184.277716280435925
 30
0.0
 40
0.0298379470340954
 50
345.2596159211655049
 51
351.603734264497291
  0
ARC
  5
15BE2
  8
0
 10
8664.9831986260396661
 20
2184.2875706000149876
 30
0.0
 40
0.2101776567046531
 50
356.1229739109584216
 51
1.9100408568561891
  0
ARC
  5
15BE3
  8
0
 10
8664.5378262709273258
 20
2184.2964088551639179
 30
0.0
 40
0.6554357980689828
 50
359.8397687520695172
 51
4.6403550359366381
  0
ARC
  5
15BE4
  8
0
 10
8665.1065887219374417
 20
2184.1935504084908644
 30
0.0
 40
0.0750801690750194
 50
356.8558368743553046
 51
359.5404279033604098
  0
ARC
  5
15BE5
  8
0
 10
8665.1630342186999769
 20
2184.192294072974164
 30
0.0
 40
0.0187414233639119
 50
340.0486106479867772
 51
351.2169405087855125
  0
ARC
  5
15BE6
  8
0
 10
8665.1621236075625347
 20
2184.1927271917161306
 30
0.0
 40
0.0197454071709107
 50
285.1090796336914082
 51
339.7688750408271972
  0
LINE
  5
15BE7
  8
0
 10
8665.1199837946969637
 20
2184.1610591848761942
 30
0.0
 11
8665.1672703960975923
 21
2184.1736643568760883
 31
0.0
  0
ARC
  5
15BE8
  8
0
 10
8665.125062497352701
 20
2184.1431206693159766
 30
0.0
 40
0.0186435930319194
 50
105.8077310745275952
 51
145.1185226068488134
  0
ARC
  5
15BE9
  8
0
 10
8665.1256686036613246
 20
2184.142829161507052
 30
0.0
 40
0.0193078112185327
 50
145.4374878825578037
 51
181.4511209302951045
  0
ARC
  5
15BEA
  8
0
 10
8665.6372805728697131
 20
2184.1557894462480363
 30
0.0
 40
0.5310839107162559
 50
181.4511209302951045
 51
186.0070939748291039
  0
ARC
  5
15BEB
  8
0
 10
8664.369536331796553
 20
2184.0223854577579914
 30
0.0
 40
0.7436600184395008
 50
2.5538838574009799
 51
6.0070939748291519
  0
ARC
  5
15BEC
  8
0
 10
8665.1567199476485257
 20
2184.0574963859780837
 30
0.0
 40
0.044306238672759
 50
182.553883857374899
 51
192.4044719912984931
  0
ARC
  5
15BED
  8
0
 10
8665.135123061179911
 20
2184.052746235354789
 30
0.0
 40
0.0221931331443069
 50
192.4044719912984931
 51
220.5025896049212122
  0
ARC
  5
15BEE
  8
0
 10
8665.130848159931702
 20
2184.0490947906000656
 30
0.0
 40
0.0165710490564213
 50
220.5025896049608036
 51
265.5859141543384112
  0
ARC
  5
15BEF
  8
0
 10
8665.0136747601391107
 20
2184.1129291828201531
 30
0.0
 40
0.0946660609768959
 50
357.6331099435560077
 51
1.748610761783119
  0
ARC
  5
15BF0
  8
0
 10
8665.1105131146396161
 20
2184.1158855119338114
 30
0.0
 40
0.0022174091505172
 50
169.9966435122859991
 51
181.7486107618352094
  0
ARC
  5
15BF1
  8
0
 10
8665.1084278620674013
 20
2184.1162533241817982
 30
0.0
 40
0.0000999663221213
 50
148.4436370947825878
 51
169.9966435122422013
  0
ARC
  5
15BF2
  8
0
 10
8665.1083512077329942
 20
2184.1163004018039828
 30
0.0
 40
0.0000100097245679
 50
80.4220853820098966
 51
148.4436371065484082
  0
LINE
  5
15BF3
  8
0
 10
8665.1084146900975611
 20
2184.1161742049757777
 30
0.0
 11
8665.1083528732378909
 21
2184.1163102719951894
 31
0.0
  0
ARC
  5
15BF4
  8
0
 10
8665.1036726839865878
 20
2184.1150308861710982
 30
0.0
 40
0.0048778888711214
 50
7.780396515601339
 51
13.5555525008874707
  0
ARC
  5
15BF5
  8
0
 10
8665.0030502823483403
 20
2184.1012824035410631
 30
0.0
 40
0.1064352051327538
 50
6.491128078842741
 51
7.780396515601339
  0
ARC
  5
15BF6
  8
0
 10
8664.9853893660856556
 20
2184.0992729664449143
 30
0.0
 40
0.1242100694284282
 50
5.2178400001789997
 51
6.491128078842741
  0
ARC
  5
15BF7
  8
0
 10
8660.6045531081745139
 20
2183.699210251662862
 30
0.0
 40
4.5232754808957871
 50
5.1406541506681958
 51
5.2178400001789997
  0
ARC
  5
15BF8
  8
0
 10
8664.7019939089477703
 20
2184.0678277784491002
 30
0.0
 40
0.4092871487667863
 50
4.2559996177648376
 51
5.1406541506681958
  0
ARC
  5
15BF9
  8
0
 10
8666.8861375268534175
 20
2184.2303676597680351
 30
0.0
 40
1.7808960756811241
 50
184.2559996177647861
 51
184.4622702015255982
  0
ARC
  5
15BFA
  8
0
 10
8664.5829427460885199
 20
2184.0506282897031269
 30
0.0
 40
0.5293014135592133
 50
3.5025792003733911
 51
4.4622702015255991
  0
ARC
  5
15BFB
  8
0
 10
8664.977540200097792
 20
2184.0720864246832207
 30
0.0
 40
0.1341570531562493
 50
359.0526007846710854
 51
4.6511917861786278
  0
ARC
  5
15BFC
  8
0
 10
8665.1882761075394228
 20
2184.1927685671471409
 30
0.0
 40
0.0066120720885445
 50
171.046170560482409
 51
178.4432875541513965
  0
ARC
  5
15BFD
  8
0
 10
8665.1824517197565001
 20
2184.1936862489637861
 30
0.0
 40
0.00071583320464
 50
157.0663287282590943
 51
171.0461705605243878
  0
ARC
  5
15BFE
  8
0
 10
8665.1819060318684933
 20
2184.1939171345547948
 30
0.0
 40
0.0001233102715188
 50
131.0572040204762061
 51
157.0663287284916123
  0
ARC
  5
15BFF
  8
0
 10
8665.1818452596362476
 20
2184.1939869042048485
 30
0.0
 40
0.0000307842312232
 50
78.8219590929070932
 51
131.057204015196703
  0
ARC
  5
15C00
  8
0
 10
8665.1818411687672778
 20
2184.1939662021718505
 30
0.0
 40
0.0000518865857182
 50
50.6109260194140091
 51
78.8219590969438713
  0
ARC
  5
15C01
  8
0
 10
8665.1817966399885336
 20
2184.1939119708667931
 30
0.0
 40
0.0001220567110196
 50
33.8571224429990068
 51
50.6109260192507975
  0
ARC
  5
15C02
  8
0
 10
8665.1814578291196085
 20
2184.1936846672679167
 30
0.0
 40
0.0005300514789718
 50
19.6257198433033686
 51
33.8571224430206499
  0
ARC
  5
15C03
  8
0
 10
8665.17843959903621
 20
2184.1926083969710817
 30
0.0
 40
0.0037344345081142
 50
13.4774231732658301
 51
19.6257198433279108
  0
ARC
  5
15C04
  8
0
 10
8665.1683767701360921
 20
2184.1901967187991431
 30
0.0
 40
0.0140822225357987
 50
9.1080246454443738
 51
13.4774231732658301
  0
ARC
  5
15C05
  8
0
 10
8664.9542705185740488
 20
2184.1558716966201246
 30
0.0
 40
0.2309224727326409
 50
8.7666717195339299
 51
9.1080246454443738
  0
ARC
  5
15C06
  8
0
 10
8665.1071806607887993
 20
2184.1680633896330619
 30
0.0
 40
0.0787491780540743
 50
10.7109676598942407
 51
16.9843228995281414
  0
ARC
  5
15C07
  8
0
 10
8665.1124626015443937
 20
2184.1956878438068088
 30
0.0
 40
0.1640098939345268
 50
275.9882254855403971
 51
276.5190494242285126
  0
ARC
  5
15C08
  8
0
 10
8664.5422457689746807
 20
2184.0521951704208732
 30
0.0
 40
0.6554357980689828
 50
4.757432311830458
 51
11.4849460944791595
  0
ARC
  5
15C09
  8
0
 10
8665.3438607558691729
 20
2183.6725403308400928
 30
0.0
 40
0.059084901759771
 50
213.8374935574697986
 51
226.0848615691151053
  0
ARC
  5
15C0A
  8
0
 10
8665.3124446059773618
 20
2183.6399154215828275
 30
0.0
 40
0.0137929693191189
 50
226.0965059073323005
 51
246.9387138099284016
  0
ARC
  5
15C0B
  8
0
 10
8665.3096670371123764
 20
2183.633391290756208
 30
0.0
 40
0.0067021885533647
 50
246.9387138099284016
 51
274.8794680325885906
  0
ARC
  5
15C0C
  8
0
 10
8665.3099459707373171
 20
2183.6301239132708361
 30
0.0
 40
0.0034229265034491
 50
274.8794680325885906
 51
313.802233824765608
  0
ARC
  5
15C0D
  8
0
 10
8665.3061998288176255
 20
2183.63403004908605
 30
0.0
 40
0.0088350865440055
 50
313.802233824765608
 51
340.4551956862954967
  0
ARC
  5
15C0E
  8
0
 10
8665.2931005916871072
 20
2183.6386802633328443
 30
0.0
 40
0.0227352486272672
 50
340.4551956862954967
 51
348.9058709869817108
  0
ARC
  5
15C0F
  8
0
 10
8665.2786140186490229
 20
2183.6415208744501797
 30
0.0
 40
0.0374976965911619
 50
348.9058709869817108
 51
359.4294290906864831
  0
ARC
  5
15C10
  8
0
 10
8665.1972932627686532
 20
2183.6423307210370695
 30
0.0
 40
0.1188224848690832
 50
359.4294290906864831
 51
11.0677695913015892
  0
ARC
  5
15C11
  8
0
 10
8664.7957683117856504
 20
2183.5637891942328679
 30
0.0
 40
0.5279570076055184
 50
11.0677695913015892
 51
13.3638404629782901
  0
ARC
  5
15C12
  8
0
 10
8665.0355533016154368
 20
2183.6207541428630066
 30
0.0
 40
0.2814983970432986
 50
13.3638404629782901
 51
22.1224493666507485
  0
ARC
  5
15C13
  8
0
 10
8664.9768860549793317
 20
2183.596905063227041
 30
0.0
 40
0.3448278880200489
 50
22.1224493666507485
 51
30.9354089281763684
  0
ARC
  5
15C14
  8
0
 10
8665.2445044089436124
 20
2183.7572960560601132
 30
0.0
 40
0.0328265194964553
 50
30.9354089281763684
 51
51.9369251901360514
  0
ARC
  5
15C15
  8
0
 10
8665.2556531341615482
 20
2183.7712353973561221
 30
0.0
 40
0.0149792420298518
 50
52.6397941095541029
 51
73.8487107631025594
  0
ARC
  5
15C16
  8
0
 10
8665.259156904903648
 20
2183.7812627994489958
 30
0.0
 40
0.0044107424376507
 50
81.3538571538134363
 51
110.1419818160767932
  0
ARC
  5
15C17
  8
0
 10
8665.2589835392027453
 20
2183.7817354700559918
 30
0.0
 40
0.0039072812494929
 50
110.1419818161746065
 51
139.7547420039053065
  0
ARC
  5
15C18
  8
0
 10
8665.2630509810223884
 20
2183.7782927042330812
 30
0.0
 40
0.0092361384902086
 50
139.7547420039053065
 51
161.6806014531451865
  0
ARC
  5
15C19
  8
0
 10
8665.2778593566235941
 20
2183.7733897396042266
 30
0.0
 40
0.0248350823645896
 50
161.6806014531451865
 51
172.8558049314459879
  0
ARC
  5
15C1A
  8
0
 10
8665.3090311239229777
 20
2183.7694826710321649
 30
0.0
 40
0.0562507514081343
 50
172.8558049314459879
 51
178.9403136602848008
  0
ARC
  5
15C1B
  8
0
 10
8665.321655394627669
 20
2183.7692491583211449
 30
0.0
 40
0.0688771815848824
 50
178.9403136602848008
 51
182.8066652833545049
  0
ARC
  5
15C1C
  8
0
 10
8665.2412823151153134
 20
2183.7749081972810927
 30
0.0
 40
0.0146844576674725
 50
283.97755047951199
 51
322.0444430269424174
  0
LINE
  5
15C1D
  8
0
 10
8665.2448292239496368
 20
2183.7606585399271353
 30
0.0
 11
8665.2072880043506302
 21
2183.750652706908113
 31
0.0
  0
ARC
  5
15C1E
  8
0
 10
8665.212064625666244
 20
2183.7302771656050027
 30
0.0
 40
0.0209279429170933
 50
103.1935526526230973
 51
143.2705554612635979
  0
ARC
  5
15C1F
  8
0
 10
8665.2159401149965561
 20
2183.7273853655437961
 30
0.0
 40
0.0257634289466237
 50
143.2705554612635979
 51
176.047198149943398
  0
ARC
  5
15C20
  8
0
 10
8665.2786986406808865
 20
2183.7230488098898604
 30
0.0
 40
0.0886716021887082
 50
176.047198149943398
 51
181.8497167144116986
  0
ARC
  5
15C21
  8
0
 10
8665.2770060876591742
 20
2183.7229941491150385
 30
0.0
 40
0.0869781667680407
 50
181.8497167144116986
 51
196.0363815508138998
  0
ARC
  5
15C22
  8
0
 10
8665.5308045939545991
 20
2183.7959441386738035
 30
0.0
 40
0.3510527448216705
 50
196.0363815508138998
 51
204.3861298017104104
  0
ARC
  5
15C23
  8
0
 10
8665.2579292552454717
 20
2183.672242037174783
 30
0.0
 40
0.0514477375369814
 50
204.3861298017104104
 51
229.3091867341587999
  0
ARC
  5
15C24
  8
0
 10
8665.2399077588052023
 20
2183.6512833181609494
 30
0.0
 40
0.0238064235903254
 50
229.3091867342378123
 51
258.8394472280895116
  0
ARC
  5
15C25
  8
0
 10
8665.2393955309526064
 20
2183.6486869981481505
 30
0.0
 40
0.0211600572178822
 50
258.8394472280895116
 51
285.7941201520977188
  0
LINE
  5
15C26
  8
0
 10
8665.2451549070701731
 20
2183.6283258192001995
 30
0.0
 11
8665.2878737405517313
 21
2183.6396954163669761
 31
0.0
  0
ARC
  5
15C27
  8
0
 10
8665.2913396492240281
 20
2183.624514293437187
 30
0.0
 40
0.0155718489959761
 50
78.6931913734587454
 51
102.7583964909635057
  0
ARC
  5
15C28
  8
0
 10
8665.294130489217423
 20
2183.638472450656991
 30
0.0
 40
0.0013374209836298
 50
60.7667946048958072
 51
78.6931913733565551
  0
ARC
  5
15C29
  8
0
 10
8665.2784387322244584
 20
2183.7064388489447992
 30
0.0
 40
0.0794993854013985
 50
199.0726038046379074
 51
210.2361448720116925
  0
ARC
  5
15C2A
  8
0
 10
8665.2244134153388586
 20
2183.6749497203409192
 30
0.0
 40
0.0169669931170617
 50
210.2361448720116925
 51
225.9643545909621878
  0
ARC
  5
15C2B
  8
0
 10
8665.2153798119597923
 20
2183.6656067893090949
 30
0.0
 40
0.0039709802554483
 50
225.9643545909621878
 51
245.9852132147794919
  0
ARC
  5
15C2C
  8
0
 10
8665.2144681100198795
 20
2183.6635604946609419
 30
0.0
 40
0.0017307744142904
 50
245.9852132149065085
 51
268.9656566106751256
  0
ARC
  5
15C2D
  8
0
 10
8665.2144558492636861
 20
2183.6628814036348558
 30
0.0
 40
0.0010515727158777
 50
268.9656566106751256
 51
302.6032105475812273
  0
ARC
  5
15C2E
  8
0
 10
8665.2141273470642773
 20
2183.6633950047989856
 30
0.0
 40
0.0016612446364733
 50
302.6032105476970173
 51
340.3175714498848947
  0
ARC
  5
15C2F
  8
0
 10
8665.2074900037732732
 20
2183.6657692215158022
 30
0.0
 40
0.0087104453695897
 50
340.3175714498848947
 51
355.08593285522511
  0
ARC
  5
15C30
  8
0
 10
8665.1935747503630409
 20
2183.6669656211829533
 30
0.0
 40
0.0226770358495986
 50
355.08593285522511
 51
12.3950273882706696
  0
ARC
  5
15C31
  8
0
 10
8664.8930168292536109
 20
2183.6009110218351452
 30
0.0
 40
0.3304078825911639
 50
12.3950273882706696
 51
14.4981019312124193
  0
ARC
  5
15C32
  8
0
 10
8665.1521352214567742
 20
2183.6679144364879903
 30
0.0
 40
0.0627667072222429
 50
14.4981019312124193
 51
27.2102011206092911
  0
ARC
  5
15C33
  8
0
 10
8665.1326203340795473
 20
2183.6578807540890921
 30
0.0
 40
0.0847099433520992
 50
27.2102011206092911
 51
33.6955382120012388
  0
ARC
  5
15C34
  8
0
 10
8665.1985428961925209
 20
2183.7018382212982033
 30
0.0
 40
0.0054758400945993
 50
33.6955382120012388
 51
60.7187988656857769
  0
ARC
  5
15C35
  8
0
 10
8665.1994736319302319
 20
2183.7034980487051143
 30
0.0
 40
0.0035728697766508
 50
60.7187988656857769
 51
69.7447504011057191
  0
ARC
  5
15C36
  8
0
 10
8665.2002485387711204
 20
2183.7055979330998525
 30
0.0
 40
0.0013345679453328
 50
69.7447504012125137
 51
100.4728716866704019
  0
ARC
  5
15C37
  8
0
 10
8665.2002027677463047
 20
2183.7058455456990487
 30
0.0
 40
0.0010827605070929
 50
100.4728716868800973
 51
136.2079300581609118
  0
ARC
  5
15C38
  8
0
 10
8665.2027696646819095
 20
2183.7040313594561667
 30
0.0
 40
0.0042171035568651
 50
142.5634505758762032
 51
177.0076454835358106
  0
ARC
  5
15C39
  8
0
 10
8665.2327534467858641
 20
2183.7020751346781253
 30
0.0
 40
0.0342643238015448
 50
176.3582891419052032
 51
194.6489759805282915
  0
ARC
  5
15C3A
  8
0
 10
8665.4867414886539336
 20
2183.7684659534947968
 30
0.0
 40
0.2967860681118081
 50
194.6489759805282915
 51
197.2490691347819904
  0
LINE
  5
15C3B
  8
0
 10
8665.1636848862435727
 20
2184.2856185504820132
 30
0.0
 11
8665.1754478989532799
 21
2184.1781551512522128
 31
0.0
  0
ARC
  5
15C3C
  8
0
 10
8665.5513009074820729
 20
2182.3253952505187954
 30
0.0
 40
0.0215335113560041
 50
202.4986713581945992
 51
281.9348864906946233
  0
ARC
  5
15C3D
  8
0
 10
8665.5276354843335866
 20
2182.4373578214649569
 30
0.0
 40
0.1359698235369399
 50
281.9348864906946233
 51
287.9134225021321072
  0
ARC
  5
15C3E
  8
0
 10
8665.6532791033805552
 20
2182.0486690416028068
 30
0.0
 40
0.2725216532378107
 50
101.9148952024198991
 51
107.913422502132093
  0
ARC
  5
15C3F
  8
0
 10
8665.6013963277400762
 20
2182.2945536332490519
 30
0.0
 40
0.0212229170352953
 50
78.4464801698965317
 51
101.9148952024198991
  0
ARC
  5
15C40
  8
0
 10
8665.6026036061612103
 20
2182.3004593539940288
 30
0.0
 40
0.0151950601435002
 50
48.6450128682763605
 51
78.4464801698965317
  0
ARC
  5
15C41
  8
0
 10
8665.6852700092986197
 20
2182.348412554827064
 30
0.0
 40
0.0813040147055157
 50
206.7125339520449927
 51
209.8168333878475096
  0
ARC
  5
15C42
  8
0
 10
8665.6353935067727434
 20
2182.3190105521921396
 30
0.0
 40
0.0234214233577073
 50
208.0804049873289046
 51
224.0130300209451946
  0
ARC
  5
15C43
  8
0
 10
8665.6205395879806019
 20
2182.3046597598890912
 30
0.0
 40
0.0027675098481934
 50
224.0130300207977996
 51
256.2973818158059771
  0
ARC
  5
15C44
  8
0
 10
8665.6201099783065729
 20
2182.3028977801059227
 30
0.0
 40
0.0009539119800793
 50
256.2973818157046821
 51
303.6615143979308868
  0
ARC
  5
15C45
  8
0
 10
8665.6197709840835159
 20
2182.3034068208958161
 30
0.0
 40
0.0015654997583964
 50
303.6615143978007723
 51
337.6987933964363151
  0
ARC
  5
15C46
  8
0
 10
8665.6140640022622392
 20
2182.3057475651198729
 30
0.0
 40
0.0077338646152117
 50
337.6987933964363151
 51
348.5956687841643884
  0
ARC
  5
15C47
  8
0
 10
8665.6041468925086519
 20
2182.3077479853741352
 30
0.0
 40
0.017850719219349
 50
348.5956687841643884
 51
8.9603173761222177
  0
ARC
  5
15C48
  8
0
 10
8665.3826238634865149
 20
2182.286192151314026
 30
0.0
 40
0.2403909164066646
 50
5.8103193965319111
 51
15.4156739722559895
  0
ARC
  5
15C49
  8
0
 10
8664.028151135198641
 20
2181.9127095286530675
 30
0.0
 40
1.645412496705873
 50
15.4156739722559895
 51
17.5389757981136611
  0
ARC
  5
15C4A
  8
0
 10
8665.3017810802175518
 20
2182.3152362378591533
 30
0.0
 40
0.3096876041943233
 50
17.5389757981136611
 51
27.123349223115369
  0
ARC
  5
15C4B
  8
0
 10
8665.5604687982686301
 20
2182.4477464853530364
 30
0.0
 40
0.0190360926541636
 50
27.123349223115369
 51
44.4458794762940883
  0
ARC
  5
15C4C
  8
0
 10
8665.5718079115868022
 20
2182.4588683665078861
 30
0.0
 40
0.0031530283646569
 50
44.4458794762940883
 51
82.9275573520255875
  0
ARC
  5
15C4D
  8
0
 10
8665.5726023645256646
 20
2182.4606982093227998
 30
0.0
 40
0.0013612265490732
 50
107.3636849546943068
 51
161.4372535404419864
  0
ARC
  5
15C4E
  8
0
 10
8665.5806121941604943
 20
2182.4578563942050096
 30
0.0
 40
0.0098600745430829
 50
160.5998857253646008
 51
181.1748792558090884
  0
ARC
  5
15C4F
  8
0
 10
8665.6225374171153817
 20
2182.4569225568379807
 30
0.0
 40
0.0517883933471597
 50
179.1904991324792888
 51
188.0158503274957127
  0
ARC
  5
15C50
  8
0
 10
8665.5576193920205696
 20
2182.4534313748999921
 30
0.0
 40
0.0141367401151395
 50
322.8588945791007063
 51
344.6989424358516203
  0
ARC
  5
15C51
  8
0
 10
8665.5541371022645762
 20
2182.4545704219190156
 30
0.0
 40
0.0176408751323569
 50
284.0803104445542999
 51
326.7416258388734036
  0
ARC
  5
15C52
  8
0
 10
8665.777990523904009
 20
2181.5365182673490381
 30
0.0
 40
0.9273093078301219
 50
103.6961525825925037
 51
106.1539096124027992
  0
ARC
  5
15C53
  8
0
 10
8665.525863131872029
 20
2182.4069593941690073
 30
0.0
 40
0.0210885968149355
 50
106.1539096124027992
 51
125.9848280739830955
  0
ARC
  5
15C54
  8
0
 10
8665.5289868719683
 20
2182.4060149124629788
 30
0.0
 40
0.0237702630838886
 50
130.7452817690046913
 51
193.6540796462597029
  0
ARC
  5
15C55
  8
0
 10
8665.8340923886444216
 20
2182.4554093247520541
 30
0.0
 40
0.3327814327725844
 50
189.5141101220274038
 51
204.5164001374774045
  0
ARC
  5
15C56
  8
0
 10
8665.7203996889365953
 20
2182.4213161906509413
 30
0.0
 40
0.2119393138899498
 50
193.6929229469272968
 51
200.2091598597901907
  0
ARC
  5
15C57
  8
0
 10
8665.5886988979655143
 20
2182.3728358279690838
 30
0.0
 40
0.0715988567573142
 50
200.2091598597901907
 51
207.8120349053328084
  0
ARC
  5
15C58
  8
0
 10
8665.5290634883258463
 20
2182.3413776331180998
 30
0.0
 40
0.004174824644997
 50
207.8120349053328084
 51
225.1348279871326952
  0
ARC
  5
15C59
  8
0
 10
8665.5270950563881343
 20
2182.3393999151157914
 30
0.0
 40
0.0013844675382359
 50
225.1348279871326952
 51
248.6433555108700943
  0
ARC
  5
15C5A
  8
0
 10
8665.5266627568234981
 20
2182.3382943548331241
 30
0.0
 40
0.0001973927921699
 50
248.643355510095688
 51
314.2818176667148009
  0
ARC
  5
15C5B
  8
0
 10
8665.5261607134598307
 20
2182.3388091445058308
 30
0.0
 40
0.0009164588144608
 50
314.2818176666402223
 51
332.0246219457459915
  0
ARC
  5
15C5C
  8
0
 10
8665.5259689414888271
 20
2182.3389110057860307
 30
0.0
 40
0.0011336044077365
 50
332.0246219457459915
 51
1.7993977817771329
  0
ARC
  5
15C5D
  8
0
 10
8665.5159305160705117
 20
2182.3397734157279046
 30
0.0
 40
0.0112020258349954
 50
355.7671853548338845
 51
6.3447544725290781
  0
ARC
  5
15C5E
  8
0
 10
8665.3851468863304035
 20
2182.3188790034459998
 30
0.0
 40
0.1436324758226219
 50
8.8640341633517732
 51
17.7693308111328214
  0
ARC
  5
15C5F
  8
0
 10
8665.249951422563754
 20
2182.2755523019968678
 30
0.0
 40
0.2856008401898816
 50
17.7693308111328214
 51
20.6625214307216893
  0
ARC
  5
15C60
  8
0
 10
8665.4790878626481572
 20
2182.3619645050707732
 30
0.0
 40
0.0407119326934069
 50
20.6625214307216893
 51
30.6680556762504501
  0
ARC
  5
15C61
  8
0
 10
8665.5113399013753224
 20
2182.3810900513958586
 30
0.0
 40
0.0032155258766048
 50
30.6680556762504501
 51
49.8993617369810991
  0
ARC
  5
15C62
  8
0
 10
8665.5129603419063642
 20
2182.3830143428831434
 30
0.0
 40
0.0006998300998057
 50
49.8993617372244529
 51
79.4458113477320751
  0
ARC
  5
15C63
  8
0
 10
8665.5130538283701753
 20
2182.383516101845089
 30
0.0
 40
0.0001894363556683
 50
79.4458113469862468
 51
113.7898867733964039
  0
ARC
  5
15C64
  8
0
 10
8665.5131406854234228
 20
2182.383319076366206
 30
0.0
 40
0.00040475747959
 50
113.7898867731950929
 51
150.3089948728425043
  0
ARC
  5
15C65
  8
0
 10
8665.5136847092890093
 20
2182.3830088838130905
 30
0.0
 40
0.0010310013524281
 50
150.308994872722991
 51
168.9514035479151062
  0
ARC
  5
15C66
  8
0
 10
8665.5194406908522069
 20
2182.3818849670001327
 30
0.0
 40
0.0068956848708931
 50
168.9514035478894982
 51
192.0893708936056044
  0
ARC
  5
15C67
  8
0
 10
8665.2938483375146461
 20
2182.3335659289568866
 30
0.0
 40
0.2238133078483499
 50
9.6662953570128956
 51
12.0893708936055901
  0
ARC
  5
15C68
  8
0
 10
8665.5870271368330577
 20
2182.4926098637201903
 30
0.0
 40
0.0215335113560041
 50
202.4986713581945992
 51
281.9348864906946233
  0
ARC
  5
15C69
  8
0
 10
8665.5633617136863904
 20
2182.6045724346658972
 30
0.0
 40
0.1359698235369399
 50
281.9348864906946233
 51
287.9134225021321072
  0
ARC
  5
15C6A
  8
0
 10
8665.689005332733359
 20
2182.2158836548042018
 30
0.0
 40
0.2725216532378107
 50
101.9148952024198991
 51
107.913422502132093
  0
ARC
  5
15C6B
  8
0
 10
8665.63712255709288
 20
2182.4617682464499921
 30
0.0
 40
0.0212229170352953
 50
78.4464801698965317
 51
101.9148952024198991
  0
ARC
  5
15C6C
  8
0
 10
8665.6383298355140141
 20
2182.467673967194969
 30
0.0
 40
0.0151950601435002
 50
48.6450128682763605
 51
78.4464801698965317
  0
ARC
  5
15C6D
  8
0
 10
8665.7209962386514235
 20
2182.5156271680289137
 30
0.0
 40
0.0813040147055157
 50
206.7125339520449927
 51
208.8337689106899973
  0
ARC
  5
15C6E
  8
0
 10
8665.4183500928393187
 20
2182.4534067645149662
 30
0.0
 40
0.2403909164066646
 50
8.6553258554226513
 51
15.4156739722559895
  0
ARC
  5
15C6F
  8
0
 10
8664.0638773645532638
 20
2182.0799241418540078
 30
0.0
 40
1.645412496705873
 50
15.4156739722559895
 51
17.5389757981136611
  0
ARC
  5
15C70
  8
0
 10
8665.3375073095703556
 20
2182.482450851061003
 30
0.0
 40
0.3096876041943233
 50
17.5389757981136611
 51
27.123349223115369
  0
ARC
  5
15C71
  8
0
 10
8665.5961950276196148
 20
2182.6149610985539766
 30
0.0
 40
0.0190360926541636
 50
27.123349223115369
 51
44.4458794762940883
  0
ARC
  5
15C72
  8
0
 10
8665.607534140937787
 20
2182.6260829797088263
 30
0.0
 40
0.0031530283646569
 50
44.4458794762940883
 51
82.9275573520255875
  0
ARC
  5
15C73
  8
0
 10
8665.6083285938766494
 20
2182.6279128225241948
 30
0.0
 40
0.0013612265490732
 50
107.3636849546943068
 51
161.4372535404419864
  0
ARC
  5
15C74
  8
0
 10
8665.616338423513298
 20
2182.6250710074050403
 30
0.0
 40
0.0098600745430829
 50
160.5998857253646008
 51
181.1748792558090884
  0
ARC
  5
15C75
  8
0
 10
8665.6582636464681855
 20
2182.6241371700389209
 30
0.0
 40
0.0517883933471597
 50
179.1904991324792888
 51
188.0158503274957127
  0
ARC
  5
15C76
  8
0
 10
8665.5933456213715544
 20
2182.6206459881018418
 30
0.0
 40
0.0141367401151395
 50
322.8588945791007063
 51
344.6989424358516203
  0
ARC
  5
15C77
  8
0
 10
8665.589863331615561
 20
2182.6217850351208654
 30
0.0
 40
0.0176408751323569
 50
284.0803104445542999
 51
326.7416258388734036
  0
ARC
  5
15C78
  8
0
 10
8665.8137167532586318
 20
2181.7037328805499783
 30
0.0
 40
0.9273093078301219
 50
103.6961525825925037
 51
106.1539096124027992
  0
ARC
  5
15C79
  8
0
 10
8665.5615893612248328
 20
2182.5741740073699475
 30
0.0
 40
0.0210885968149355
 50
106.1539096124027992
 51
125.9848280739830955
  0
ARC
  5
15C7A
  8
0
 10
8665.5647131013211037
 20
2182.573229525663919
 30
0.0
 40
0.0237702630838886
 50
130.7452817690046913
 51
193.6540796462597029
  0
ARC
  5
15C7B
  8
0
 10
8665.8698186179972254
 20
2182.6226239379539038
 30
0.0
 40
0.3327814327725844
 50
189.5141101220274038
 51
204.5164001374774045
  0
ARC
  5
15C7C
  8
0
 10
8665.7561259182893991
 20
2182.588530803850972
 30
0.0
 40
0.2119393138899498
 50
193.6929229469272968
 51
200.2091598597901907
  0
ARC
  5
15C7D
  8
0
 10
8665.6244251273164991
 20
2182.540050441170024
 30
0.0
 40
0.0715988567573142
 50
200.2091598597901907
 51
207.8120349053328084
  0
ARC
  5
15C7E
  8
0
 10
8665.5647897176750121
 20
2182.50859224631904
 30
0.0
 40
0.004174824644997
 50
207.8120349053328084
 51
225.1348279871326952
  0
ARC
  5
15C7F
  8
0
 10
8665.562821285740938
 20
2182.5066145283171863
 30
0.0
 40
0.0013844675382359
 50
225.1348279871326952
 51
248.6433555108700943
  0
ARC
  5
15C80
  8
0
 10
8665.5623889861744829
 20
2182.5055089680340643
 30
0.0
 40
0.0001973927921699
 50
248.643355510095688
 51
314.2818176667148009
  0
ARC
  5
15C81
  8
0
 10
8665.5618869428126345
 20
2182.5060237577072257
 30
0.0
 40
0.0009164588144608
 50
314.2818176666402223
 51
332.0246219457459915
  0
ARC
  5
15C82
  8
0
 10
8665.5616951708416309
 20
2182.5061256189869709
 30
0.0
 40
0.0011336044077365
 50
332.0246219457459915
 51
1.7993977817771329
  0
ARC
  5
15C83
  8
0
 10
8665.5516567454233154
 20
2182.5069880289288449
 30
0.0
 40
0.0112020258349954
 50
355.7671853548338845
 51
6.3447544725290781
  0
ARC
  5
15C84
  8
0
 10
8665.4208731156832073
 20
2182.4860936166469401
 30
0.0
 40
0.1436324758226219
 50
8.8640341633517732
 51
17.7693308111328214
  0
ARC
  5
15C85
  8
0
 10
8665.2856776519183768
 20
2182.442766915197808
 30
0.0
 40
0.2856008401898816
 50
17.7693308111328214
 51
20.6625214307216893
  0
ARC
  5
15C86
  8
0
 10
8665.5148140920045989
 20
2182.5291791182721681
 30
0.0
 40
0.0407119326934069
 50
20.6625214307216893
 51
30.6680556762504501
  0
ARC
  5
15C87
  8
0
 10
8665.5470661307263072
 20
2182.5483046645981631
 30
0.0
 40
0.0032155258766048
 50
30.6680556762504501
 51
49.8993617369810991
  0
ARC
  5
15C88
  8
0
 10
8665.548686571259168
 20
2182.5502289560840836
 30
0.0
 40
0.0006998300998057
 50
49.8993617372244529
 51
79.4458113477320751
  0
ARC
  5
15C89
  8
0
 10
8665.5487800577211601
 20
2182.5507307150451197
 30
0.0
 40
0.0001894363556683
 50
79.4458113469862468
 51
113.7898867733964039
  0
ARC
  5
15C8A
  8
0
 10
8665.5488669147725886
 20
2182.5505336895671462
 30
0.0
 40
0.00040475747959
 50
113.7898867731950929
 51
150.3089948728425043
  0
ARC
  5
15C8B
  8
0
 10
8665.5494109386381751
 20
2182.5502234970140307
 30
0.0
 40
0.0010310013524281
 50
150.308994872722991
 51
168.9514035479151062
  0
ARC
  5
15C8C
  8
0
 10
8665.5551669202050107
 20
2182.5490995802001635
 30
0.0
 40
0.0068956848708931
 50
168.9514035478894982
 51
192.0893708936056044
  0
ARC
  5
15C8D
  8
0
 10
8665.3295745668656309
 20
2182.5007805421591911
 30
0.0
 40
0.2238133078483499
 50
9.6662953570128956
 51
12.0893708936055901
  0
ARC
  5
15C8E
  8
0
 10
8665.4925211439713166
 20
2182.5864836033638312
 30
0.0
 40
0.0215335113560041
 50
202.4986713581945992
 51
281.9348864906946233
  0
ARC
  5
15C8F
  8
0
 10
8665.4688557208228303
 20
2182.6984461743099928
 30
0.0
 40
0.1359698235369399
 50
281.9348864906946233
 51
287.9134225021321072
  0
ARC
  5
15C90
  8
0
 10
8665.5944993398661609
 20
2182.3097573944478427
 30
0.0
 40
0.2725216532378107
 50
101.9148952024198991
 51
107.913422502132093
  0
ARC
  5
15C91
  8
0
 10
8665.5426165642293199
 20
2182.5556419860940878
 30
0.0
 40
0.0212229170352953
 50
93.7856101175034951
 51
101.9148952024198991
  0
ARC
  5
15C92
  8
0
 10
8665.3238440999757586
 20
2182.5472805041590618
 30
0.0
 40
0.2403909164066646
 50
11.5650378083986993
 51
15.4156739722559895
  0
ARC
  5
15C93
  8
0
 10
8663.9693713716878847
 20
2182.1737978814981034
 30
0.0
 40
1.645412496705873
 50
15.4156739722559895
 51
17.5389757981136611
  0
ARC
  5
15C94
  8
0
 10
8665.2430013167067955
 20
2182.5763245907050987
 30
0.0
 40
0.3096876041943233
 50
17.5389757981136611
 51
27.123349223115369
  0
ARC
  5
15C95
  8
0
 10
8665.5016890347578737
 20
2182.7088348381980722
 30
0.0
 40
0.0190360926541636
 50
27.123349223115369
 51
44.4458794762940883
  0
ARC
  5
15C96
  8
0
 10
8665.5130281480724079
 20
2182.7199567193529219
 30
0.0
 40
0.0031530283646569
 50
44.4458794762940883
 51
82.9275573520255875
  0
ARC
  5
15C97
  8
0
 10
8665.5138226010130893
 20
2182.7217865621691999
 30
0.0
 40
0.0013612265490732
 50
107.3636849546943068
 51
161.4372535404419864
  0
ARC
  5
15C98
  8
0
 10
8665.5218324306497379
 20
2182.7189447470491359
 30
0.0
 40
0.0098600745430829
 50
160.5998857253646008
 51
181.1748792558090884
  0
ARC
  5
15C99
  8
0
 10
8665.5637576536064444
 20
2182.7180109096830165
 30
0.0
 40
0.0517883933471597
 50
179.1904991324792888
 51
188.0158503274957127
  0
ARC
  5
15C9A
  8
0
 10
8665.4988396285098133
 20
2182.7145197277450279
 30
0.0
 40
0.0141367401151395
 50
322.8588945791007063
 51
344.6989424358516203
  0
ARC
  5
15C9B
  8
0
 10
8665.4953573387538199
 20
2182.7156587747640515
 30
0.0
 40
0.0176408751323569
 50
284.0803104445542999
 51
326.7416258388734036
  0
ARC
  5
15C9C
  8
0
 10
8665.7192107603950717
 20
2181.7976066201949834
 30
0.0
 40
0.9273093078301219
 50
103.6961525825925037
 51
106.1539096124027992
  0
ARC
  5
15C9D
  8
0
 10
8665.4670833683594537
 20
2182.6680477470140431
 30
0.0
 40
0.0210885968149355
 50
106.1539096124027992
 51
125.9848280739830955
  0
ARC
  5
15C9E
  8
0
 10
8665.4702071084575437
 20
2182.6671032653080147
 30
0.0
 40
0.0237702630838886
 50
130.7452817690046913
 51
193.6540796462597029
  0
ARC
  5
15C9F
  8
0
 10
8665.7744270968396449
 20
2182.7162889238411481
 30
0.0
 40
0.3318735853131103
 50
189.5038356088678881
 51
204.5796426501320866
  0
ARC
  5
15CA0
  8
0
 10
8665.66161992542402
 20
2182.6824045434959771
 30
0.0
 40
0.2119393138899498
 50
193.6929229469272968
 51
200.2091598597901907
  0
ARC
  5
15CA1
  8
0
 10
8665.529919134452939
 20
2182.6339241808141196
 30
0.0
 40
0.0715988567573142
 50
200.2091598597901907
 51
207.8120349053328084
  0
ARC
  5
15CA2
  8
0
 10
8665.470283724813271
 20
2182.6024659859640451
 30
0.0
 40
0.004174824644997
 50
207.8120349053328084
 51
225.1348279871326952
  0
ARC
  5
15CA3
  8
0
 10
8665.468315292875559
 20
2182.6004882679608272
 30
0.0
 40
0.0013844675382359
 50
225.1348279871326952
 51
248.6433555108700943
  0
ARC
  5
15CA4
  8
0
 10
8665.4678829933091038
 20
2182.5993827076790694
 30
0.0
 40
0.0001973927921699
 50
248.643355510095688
 51
314.2818176667148009
  0
ARC
  5
15CA5
  8
0
 10
8665.4673809499454364
 20
2182.5998974973508666
 30
0.0
 40
0.0009164588144608
 50
314.2818176666402223
 51
332.0246219457459915
  0
ARC
  5
15CA6
  8
0
 10
8665.4671891779798898
 20
2182.5999993586310666
 30
0.0
 40
0.0011336044077365
 50
332.0246219457459915
 51
1.7993977817771329
  0
ARC
  5
15CA7
  8
0
 10
8665.4571507525597553
 20
2182.6008617685729405
 30
0.0
 40
0.0112020258349954
 50
355.7671853548338845
 51
6.3447544725290781
  0
ARC
  5
15CA8
  8
0
 10
8665.3263671228178282
 20
2182.5799673562919452
 30
0.0
 40
0.1436324758226219
 50
8.8640341633517732
 51
17.7693308111328214
  0
ARC
  5
15CA9
  8
0
 10
8665.1911716590529977
 20
2182.5366406548419036
 30
0.0
 40
0.2856008401898816
 50
17.7693308111328214
 51
20.6625214307216893
  0
ARC
  5
15CAA
  8
0
 10
8665.4203080991374009
 20
2182.6230528579171732
 30
0.0
 40
0.0407119326934069
 50
20.6625214307216893
 51
30.6680556762504501
  0
ARC
  5
15CAB
  8
0
 10
8665.4525601378645661
 20
2182.6421784042418039
 30
0.0
 40
0.0032155258766048
 50
30.6680556762504501
 51
49.8993617369810991
  0
ARC
  5
15CAC
  8
0
 10
8665.4541805783974269
 20
2182.6441026957290887
 30
0.0
 40
0.0006998300998057
 50
49.8993617372244529
 51
79.4458113477320751
  0
ARC
  5
15CAD
  8
0
 10
8665.4542740648576
 20
2182.6446044546892153
 30
0.0
 40
0.0001894363556683
 50
79.4458113469862468
 51
113.7898867733964039
  0
ARC
  5
15CAE
  8
0
 10
8665.4543609219090285
 20
2182.6444074292107871
 30
0.0
 40
0.00040475747959
 50
113.7898867731950929
 51
150.3089948728425043
  0
ARC
  5
15CAF
  8
0
 10
8665.454904945776434
 20
2182.6440972366590358
 30
0.0
 40
0.0010310013524281
 50
150.308994872722991
 51
168.9514035479151062
  0
ARC
  5
15CB0
  8
0
 10
8665.4606609273414506
 20
2182.6429733198451686
 30
0.0
 40
0.0068956848708931
 50
168.9514035478894982
 51
192.0893708936056044
  0
ARC
  5
15CB1
  8
0
 10
8665.2350685740038898
 20
2182.5946542818019225
 30
0.0
 40
0.2238133078483499
 50
9.6662953570128956
 51
12.0893708936055901
  0
ARC
  5
15CB2
  8
0
 10
8665.3045455062001565
 20
2183.3879849406571338
 30
0.0
 40
0.0215335113560041
 50
202.4986713581945992
 51
281.9348864906946233
  0
ARC
  5
15CB3
  8
0
 10
8665.2808800830498512
 20
2183.4999475116028407
 30
0.0
 40
0.1359698235369399
 50
281.9348864906946233
 51
287.9134225021321072
  0
ARC
  5
15CB4
  8
0
 10
8665.4065237020986388
 20
2183.1112587317420548
 30
0.0
 40
0.2725216532378107
 50
101.9148952024198991
 51
107.913422502132093
  0
ARC
  5
15CB5
  8
0
 10
8665.3546409264617978
 20
2183.3571433233869357
 30
0.0
 40
0.0212229170352953
 50
78.4464801698965317
 51
101.9148952024198991
  0
ARC
  5
15CB6
  8
0
 10
8665.3558482048792939
 20
2183.363049044132822
 30
0.0
 40
0.0151950601435002
 50
48.6450128682763605
 51
78.4464801698965317
  0
ARC
  5
15CB7
  8
0
 10
8665.4385146080185223
 20
2183.4110022449658572
 30
0.0
 40
0.0813040147055157
 50
206.7125339520449927
 51
209.8168333878475096
  0
ARC
  5
15CB8
  8
0
 10
8665.388638105490827
 20
2183.3816002423309328
 30
0.0
 40
0.0234214233577073
 50
208.0804049873289046
 51
224.0130300209451946
  0
ARC
  5
15CB9
  8
0
 10
8665.3737841866968665
 20
2183.367249450026975
 30
0.0
 40
0.0027675098481934
 50
224.0130300207977996
 51
256.2973818158059771
  0
ARC
  5
15CBA
  8
0
 10
8665.3733545770264755
 20
2183.3654874702438065
 30
0.0
 40
0.0009539119800793
 50
256.2973818157046821
 51
303.6615143979308868
  0
ARC
  5
15CBB
  8
0
 10
8665.3730155828015995
 20
2183.365996511035064
 30
0.0
 40
0.0015654997583964
 50
303.6615143978007723
 51
337.6987933964363151
  0
ARC
  5
15CBC
  8
0
 10
8665.3673086009821418
 20
2183.3683372552591209
 30
0.0
 40
0.0077338646152117
 50
337.6987933964363151
 51
348.5956687841643884
  0
ARC
  5
15CBD
  8
0
 10
8665.3573914912267355
 20
2183.3703376755120189
 30
0.0
 40
0.017850719219349
 50
348.5956687841643884
 51
8.9603173761222177
  0
ARC
  5
15CBE
  8
0
 10
8665.1358684622064175
 20
2183.3487818414519097
 30
0.0
 40
0.2403909164066646
 50
5.8103193965319111
 51
15.4156739722559895
  0
ARC
  5
15CBF
  8
0
 10
8663.7813957339167246
 20
2182.9752992187909513
 30
0.0
 40
1.645412496705873
 50
15.4156739722559895
 51
17.5389757981136611
  0
ARC
  5
15CC0
  8
0
 10
8665.0550256789356354
 20
2183.3778259279979466
 30
0.0
 40
0.3096876041943233
 50
17.5389757981136611
 51
21.846147018125631
  0
ARC
  5
15CC1
  8
0
 10
8665.3073817009844788
 20
2183.5171601120578089
 30
0.0
 40
0.0176408751323569
 50
284.0803104445542999
 51
305.8749841045042217
  0
ARC
  5
15CC2
  8
0
 10
8665.5312351226257306
 20
2182.5991079574878313
 30
0.0
 40
0.9273093078301219
 50
103.6961525825925037
 51
106.1539096124027992
  0
ARC
  5
15CC3
  8
0
 10
8665.2791077305901126
 20
2183.469549084306891
 30
0.0
 40
0.0210885968149355
 50
106.1539096124027992
 51
125.9848280739830955
  0
ARC
  5
15CC4
  8
0
 10
8665.2822314706882025
 20
2183.4686046026022268
 30
0.0
 40
0.0237702630838886
 50
130.7452817690046913
 51
193.6540796462597029
  0
ARC
  5
15CC5
  8
0
 10
8665.5873369873625052
 20
2183.5179990148908473
 30
0.0
 40
0.3327814327725844
 50
189.5141101220274038
 51
204.5164001374774045
  0
ARC
  5
15CC6
  8
0
 10
8665.4736442876564979
 20
2183.483905880788825
 30
0.0
 40
0.2119393138899498
 50
193.6929229469272968
 51
200.2091598597901907
  0
ARC
  5
15CC7
  8
0
 10
8665.3419434966835979
 20
2183.435425518107877
 30
0.0
 40
0.0715988567573142
 50
200.2091598597901907
 51
207.8120349053328084
  0
ARC
  5
15CC8
  8
0
 10
8665.2823080870402919
 20
2183.403967323256893
 30
0.0
 40
0.004174824644997
 50
207.8120349053328084
 51
225.1348279871326952
  0
ARC
  5
15CC9
  8
0
 10
8665.2803396551062178
 20
2183.4019896052541299
 30
0.0
 40
0.0013844675382359
 50
225.1348279871326952
 51
248.6433555108700943
  0
ARC
  5
15CCA
  8
0
 10
8665.2799073555397626
 20
2183.4008840449719173
 30
0.0
 40
0.0001973927921699
 50
248.643355510095688
 51
314.2818176667148009
  0
ARC
  5
15CCB
  8
0
 10
8665.2794053121779143
 20
2183.4013988346441693
 30
0.0
 40
0.0009164588144608
 50
314.2818176666402223
 51
332.0246219457459915
  0
ARC
  5
15CCC
  8
0
 10
8665.2792135402087297
 20
2183.4015006959239145
 30
0.0
 40
0.0011336044077365
 50
332.0246219457459915
 51
1.7993977817771329
  0
ARC
  5
15CCD
  8
0
 10
8665.2691751147885952
 20
2183.4023631058657884
 30
0.0
 40
0.0112020258349954
 50
355.7671853548338845
 51
6.3447544725290781
  0
ARC
  5
15CCE
  8
0
 10
8665.1383914850484871
 20
2183.3814686935847931
 30
0.0
 40
0.1436324758226219
 50
8.8640341633517732
 51
17.7693308111328214
  0
ARC
  5
15CCF
  8
0
 10
8665.0031960212836566
 20
2183.3381419921352062
 30
0.0
 40
0.2856008401898816
 50
17.7693308111328214
 51
20.6625214307216893
  0
ARC
  5
15CD0
  8
0
 10
8665.2323324613680597
 20
2183.4245541952100211
 30
0.0
 40
0.0407119326934069
 50
20.6625214307216893
 51
30.6680556762504501
  0
ARC
  5
15CD1
  8
0
 10
8665.2645845000934059
 20
2183.4436797415351066
 30
0.0
 40
0.0032155258766048
 50
30.6680556762504501
 51
49.8993617369810991
  0
ARC
  5
15CD2
  8
0
 10
8665.2662049406262668
 20
2183.4456040330210271
 30
0.0
 40
0.0006998300998057
 50
49.8993617372244529
 51
79.4458113477320751
  0
ARC
  5
15CD3
  8
0
 10
8665.2662984270900779
 20
2183.4461057919829727
 30
0.0
 40
0.0001894363556683
 50
79.4458113469862468
 51
113.7898867733964039
  0
ARC
  5
15CD4
  8
0
 10
8665.2663852841396874
 20
2183.4459087665049992
 30
0.0
 40
0.00040475747959
 50
113.7898867731950929
 51
150.3089948728425043
  0
ARC
  5
15CD5
  8
0
 10
8665.2669293080070929
 20
2183.4455985739518837
 30
0.0
 40
0.0010310013524281
 50
150.308994872722991
 51
168.9514035479151062
  0
ARC
  5
15CD6
  8
0
 10
8665.2726852895702905
 20
2183.4444746571380165
 30
0.0
 40
0.0068956848708931
 50
168.9514035478894982
 51
192.0893708936056044
  0
ARC
  5
15CD7
  8
0
 10
8665.0470929362345487
 20
2183.3961556190961346
 30
0.0
 40
0.2238133078483499
 50
9.6662953570128956
 51
12.0893708936055901
  0
ARC
  5
15CD8
  8
0
 10
8665.3363200815911114
 20
2183.513813220090924
 30
0.0
 40
0.0215829930790309
 50
202.1196672578973903
 51
281.8874488766874151
  0
ARC
  5
15CD9
  8
0
 10
8665.3126474065356888
 20
2183.6257236907781589
 30
0.0
 40
0.1359698235369399
 50
281.9348864906946233
 51
287.9134225021321072
  0
ARC
  5
15CDA
  8
0
 10
8665.4382910255808383
 20
2183.2370349109160088
 30
0.0
 40
0.2725216532378107
 50
101.9148952024198991
 51
107.913422502132093
  0
ARC
  5
15CDB
  8
0
 10
8665.3864082499421784
 20
2183.4829195025631634
 30
0.0
 40
0.0212229170352953
 50
78.4464801698965317
 51
101.9148952024198991
  0
ARC
  5
15CDC
  8
0
 10
8665.3876155283614935
 20
2183.4888252233081403
 30
0.0
 40
0.0151950601435002
 50
48.6450128682763605
 51
78.4464801698965317
  0
ARC
  5
15CDD
  8
0
 10
8665.4702819314989028
 20
2183.5367784241411755
 30
0.0
 40
0.0813040147055157
 50
206.7125339520449927
 51
209.8168333878475096
  0
ARC
  5
15CDE
  8
0
 10
8665.4204054289730266
 20
2183.5073764215057963
 30
0.0
 40
0.0234214233577073
 50
208.0804049873289046
 51
224.0130300209451946
  0
ARC
  5
15CDF
  8
0
 10
8665.4055515101790661
 20
2183.4930256292032027
 30
0.0
 40
0.0027675098481934
 50
224.0130300207977996
 51
256.2973818158059771
  0
ARC
  5
15CE0
  8
0
 10
8665.405121900506856
 20
2183.4912636494200342
 30
0.0
 40
0.0009539119800793
 50
256.2973818157046821
 51
303.6615143979308868
  0
ARC
  5
15CE1
  8
0
 10
8665.4047829062819801
 20
2183.4917726902099275
 30
0.0
 40
0.0015654997583964
 50
303.6615143978007723
 51
337.6987933964363151
  0
ARC
  5
15CE2
  8
0
 10
8665.3990759244643414
 20
2183.4941134344339844
 30
0.0
 40
0.0077338646152117
 50
337.6987933964363151
 51
348.5956687841643884
  0
ARC
  5
15CE3
  8
0
 10
8665.3891588147107541
 20
2183.4961138546877919
 30
0.0
 40
0.017850719219349
 50
348.5956687841643884
 51
8.9603173761222177
  0
ARC
  5
15CE4
  8
0
 10
8665.167635785686798
 20
2183.4745580206267732
 30
0.0
 40
0.2403909164066646
 50
5.8103193965319111
 51
15.4156739722559895
  0
ARC
  5
15CE5
  8
0
 10
8663.8131630573989241
 20
2183.1010753979658148
 30
0.0
 40
1.645412496705873
 50
15.4156739722559895
 51
17.5389757981136611
  0
ARC
  5
15CE6
  8
0
 10
8665.0867930024178349
 20
2183.5036021071728101
 30
0.0
 40
0.3096876041943233
 50
17.5389757981136611
 51
27.123349223115369
  0
ARC
  5
15CE7
  8
0
 10
8665.3454807204689132
 20
2183.6361123546671479
 30
0.0
 40
0.0190360926541636
 50
27.123349223115369
 51
44.4458794762940883
  0
ARC
  5
15CE8
  8
0
 10
8665.3568198337852664
 20
2183.6472342358210881
 30
0.0
 40
0.0031530283646569
 50
44.4458794762940883
 51
82.9275573520255875
  0
ARC
  5
15CE9
  8
0
 10
8665.3576142867259477
 20
2183.6490640786369113
 30
0.0
 40
0.0013612265490732
 50
107.3636849546943068
 51
161.4372535404419864
  0
ARC
  5
15CEA
  8
0
 10
8665.3656241163625964
 20
2183.646222263519121
 30
0.0
 40
0.0098600745430829
 50
160.5998857253646008
 51
181.1748792558090884
  0
ARC
  5
15CEB
  8
0
 10
8665.4075493393193028
 20
2183.6452884261520921
 30
0.0
 40
0.0517883933471597
 50
179.1904991324792888
 51
188.0158503274957127
  0
ARC
  5
15CEC
  8
0
 10
8665.3426313142208528
 20
2183.6417972442141036
 30
0.0
 40
0.0141367401151395
 50
322.8588945791007063
 51
344.6989424358516203
  0
ARC
  5
15CED
  8
0
 10
8665.3391490244648594
 20
2183.6429362912331271
 30
0.0
 40
0.0176408751323569
 50
284.0803104445542999
 51
326.7416258388734036
  0
ARC
  5
15CEE
  8
0
 10
8665.5630024461061112
 20
2182.7248841366631495
 30
0.0
 40
0.9273093078301219
 50
103.6961525825925037
 51
106.1539096124027992
  0
ARC
  5
15CEF
  8
0
 10
8665.3108750540723122
 20
2183.5953252634831188
 30
0.0
 40
0.0210885968149355
 50
106.1539096124027992
 51
125.9848280739830955
  0
ARC
  5
15CF0
  8
0
 10
8665.3139987941685831
 20
2183.5943807817770903
 30
0.0
 40
0.0237702630838886
 50
130.7452817690046913
 51
193.6540796462597029
  0
ARC
  5
15CF1
  8
0
 10
8665.6191043108447047
 20
2183.6437751940661656
 30
0.0
 40
0.3327814327725844
 50
189.5141101220274038
 51
204.5164001374774045
  0
ARC
  5
15CF2
  8
0
 10
8665.5054116111368785
 20
2183.6096820599641433
 30
0.0
 40
0.2119393138899498
 50
193.6929229469272968
 51
200.2091598597901907
  0
ARC
  5
15CF3
  8
0
 10
8665.3737108201657975
 20
2183.5612016972831952
 30
0.0
 40
0.0715988567573142
 50
200.2091598597901907
 51
207.8120349053328084
  0
ARC
  5
15CF4
  8
0
 10
8665.3140754105261294
 20
2183.5297435024331207
 30
0.0
 40
0.004174824644997
 50
207.8120349053328084
 51
225.1348279871326952
  0
ARC
  5
15CF5
  8
0
 10
8665.3121069785865984
 20
2183.5277657844289934
 30
0.0
 40
0.0013844675382359
 50
225.1348279871326952
 51
248.6433555108700943
  0
ARC
  5
15CF6
  8
0
 10
8665.3116746790219622
 20
2183.5266602241467808
 30
0.0
 40
0.0001973927921699
 50
248.643355510095688
 51
314.2818176667148009
  0
ARC
  5
15CF7
  8
0
 10
8665.3111726356582949
 20
2183.5271750138199423
 30
0.0
 40
0.0009164588144608
 50
314.2818176666402223
 51
332.0246219457459915
  0
ARC
  5
15CF8
  8
0
 10
8665.3109808636927482
 20
2183.527276875098778
 30
0.0
 40
0.0011336044077365
 50
332.0246219457459915
 51
1.7993977817771329
  0
ARC
  5
15CF9
  8
0
 10
8665.3009424382707948
 20
2183.5281392850420161
 30
0.0
 40
0.0112020258349954
 50
355.7671853548338845
 51
6.3447544725290781
  0
ARC
  5
15CFA
  8
0
 10
8665.1701588085306867
 20
2183.5072448727601113
 30
0.0
 40
0.1436324758226219
 50
8.8640341633517732
 51
17.7693308111328214
  0
ARC
  5
15CFB
  8
0
 10
8665.0349633447658562
 20
2183.4639181713109792
 30
0.0
 40
0.2856008401898816
 50
17.7693308111328214
 51
20.6625214307216893
  0
ARC
  5
15CFC
  8
0
 10
8665.2640997848502593
 20
2183.5503303743848846
 30
0.0
 40
0.0407119326934069
 50
20.6625214307216893
 51
30.6680556762504501
  0
ARC
  5
15CFD
  8
0
 10
8665.2963518235756055
 20
2183.5694559207099701
 30
0.0
 40
0.0032155258766048
 50
30.6680556762504501
 51
49.8993617369810991
  0
ARC
  5
15CFE
  8
0
 10
8665.2979722641066473
 20
2183.5713802121958906
 30
0.0
 40
0.0006998300998057
 50
49.8993617372244529
 51
79.4458113477320751
  0
ARC
  5
15CFF
  8
0
 10
8665.2980657505704585
 20
2183.5718819711578362
 30
0.0
 40
0.0001894363556683
 50
79.4458113469862468
 51
113.7898867733964039
  0
ARC
  5
15D00
  8
0
 10
8665.298152607621887
 20
2183.5716849456798627
 30
0.0
 40
0.00040475747959
 50
113.7898867731950929
 51
150.3089948728425043
  0
ARC
  5
15D01
  8
0
 10
8665.2986966314892925
 20
2183.571374753127202
 30
0.0
 40
0.0010310013524281
 50
150.308994872722991
 51
168.9514035479151062
  0
ARC
  5
15D02
  8
0
 10
8665.3044526130524901
 20
2183.57025083631288
 30
0.0
 40
0.0068956848708931
 50
168.9514035478894982
 51
192.0893708936056044
  0
ARC
  5
15D03
  8
0
 10
8665.0788602597149293
 20
2183.5219317982709981
 30
0.0
 40
0.2238133078483499
 50
9.6662953570128956
 51
12.0893708936055901
  0
ARC
  5
15D04
  8
0
 10
8665.2258946805814048
 20
2183.9632064914139846
 30
0.0
 40
0.0215335113560041
 50
202.4986713581945992
 51
281.9348864906946233
  0
ARC
  5
15D05
  8
0
 10
8665.2022292574329185
 20
2184.0751690623601462
 30
0.0
 40
0.1359698235369399
 50
281.9348864906946233
 51
287.9134225021321072
  0
ARC
  5
15D06
  8
0
 10
8665.3278728764798871
 20
2183.6864802824979961
 30
0.0
 40
0.2725216532378107
 50
101.9148952024198991
 51
107.913422502132093
  0
ARC
  5
15D07
  8
0
 10
8665.2759901008412271
 20
2183.9323648741437864
 30
0.0
 40
0.0212229170352953
 50
78.4464801698965317
 51
101.9148952024198991
  0
ARC
  5
15D08
  8
0
 10
8665.2771973792623612
 20
2183.938270594889218
 30
0.0
 40
0.0151950601435002
 50
48.6450128682763605
 51
78.4464801698965317
  0
ARC
  5
15D09
  8
0
 10
8665.3598637823997706
 20
2183.9862237957217985
 30
0.0
 40
0.0813040147055157
 50
206.7125339520449927
 51
209.8168333878475096
  0
ARC
  5
15D0A
  8
0
 10
8665.3099872798720753
 20
2183.9568217930877836
 30
0.0
 40
0.0234214233577073
 50
208.0804049873289046
 51
224.0130300209451946
  0
ARC
  5
15D0B
  8
0
 10
8665.2951333610799338
 20
2183.9424710007838257
 30
0.0
 40
0.0027675098481934
 50
224.0130300207977996
 51
256.2973818158059771
  0
ARC
  5
15D0C
  8
0
 10
8665.2947037514077238
 20
2183.940709021001112
 30
0.0
 40
0.0009539119800793
 50
256.2973818157046821
 51
303.6615143979308868
  0
ARC
  5
15D0D
  8
0
 10
8665.2943647571828478
 20
2183.9412180617919148
 30
0.0
 40
0.0015654997583964
 50
303.6615143978007723
 51
337.6987933964363151
  0
ARC
  5
15D0E
  8
0
 10
8665.2886577753633901
 20
2183.9435588060150621
 30
0.0
 40
0.0077338646152117
 50
337.6987933964363151
 51
348.5956687841643884
  0
ARC
  5
15D0F
  8
0
 10
8665.2787406656098028
 20
2183.9455592262688697
 30
0.0
 40
0.017850719219349
 50
348.5956687841643884
 51
8.9603173761222177
  0
ARC
  5
15D10
  8
0
 10
8665.0572176365876658
 20
2183.9240033922092152
 30
0.0
 40
0.2403909164066646
 50
5.8103193965319111
 51
15.4156739722559895
  0
ARC
  5
15D11
  8
0
 10
8663.7027449082997919
 20
2183.5505207695468926
 30
0.0
 40
1.645412496705873
 50
15.4156739722559895
 51
16.4502127781541816
  0
ARC
  5
15D12
  8
0
 10
8665.2350625713661429
 20
2184.0855577262482257
 30
0.0
 40
0.0190360926541636
 50
35.9800413843607814
 51
44.4458794762940883
  0
ARC
  5
15D13
  8
0
 10
8665.2464016846843151
 20
2184.0966796074021659
 30
0.0
 40
0.0031530283646569
 50
44.4458794762940883
 51
82.9275573520255875
  0
ARC
  5
15D14
  8
0
 10
8665.2471961376268155
 20
2184.0985094502179891
 30
0.0
 40
0.0013612265490732
 50
107.3636849546943068
 51
161.4372535404419864
  0
ARC
  5
15D15
  8
0
 10
8665.2552059672616451
 20
2184.0956676351001988
 30
0.0
 40
0.0098600745430829
 50
160.5998857253646008
 51
181.1748792558090884
  0
ARC
  5
15D16
  8
0
 10
8665.2971311902165326
 20
2184.0947337977331699
 30
0.0
 40
0.0517883933471597
 50
179.1904991324792888
 51
188.0158503274957127
  0
ARC
  5
15D17
  8
0
 10
8665.2322131651217205
 20
2184.0912426157960908
 30
0.0
 40
0.0141367401151395
 50
322.8588945791007063
 51
344.6989424358516203
  0
ARC
  5
15D18
  8
0
 10
8665.2287308753657271
 20
2184.0923816628142049
 30
0.0
 40
0.0176408751323569
 50
284.0803104445542999
 51
326.7416258388734036
  0
ARC
  5
15D19
  8
0
 10
8665.4525842970069789
 20
2183.1743295082442273
 30
0.0
 40
0.9273093078301219
 50
103.6961525825925037
 51
106.1539096124027992
  0
ARC
  5
15D1A
  8
0
 10
8665.2004569049731799
 20
2184.0447706350641965
 30
0.0
 40
0.0210885968149355
 50
106.1539096124027992
 51
125.9848280739830955
  0
ARC
  5
15D1B
  8
0
 10
8665.2035806450694508
 20
2184.0438261533581681
 30
0.0
 40
0.0237702630838886
 50
130.7452817690046913
 51
193.6540796462597029
  0
ARC
  5
15D1C
  8
0
 10
8665.5086861617437535
 20
2184.0932205656467886
 30
0.0
 40
0.3327814327725844
 50
189.5141101220274038
 51
204.5164001374774045
  0
ARC
  5
15D1D
  8
0
 10
8665.3949934620341082
 20
2184.0591274315461305
 30
0.0
 40
0.2119393138899498
 50
193.6929229469272968
 51
200.2091598597901907
  0
ARC
  5
15D1E
  8
0
 10
8665.2632926710648462
 20
2184.0106470688638183
 30
0.0
 40
0.0715988567573142
 50
200.2091598597901907
 51
207.8120349053328084
  0
ARC
  5
15D1F
  8
0
 10
8665.2036572614251781
 20
2183.9791888740141985
 30
0.0
 40
0.004174824644997
 50
207.8120349053328084
 51
225.1348279871326952
  0
ARC
  5
15D20
  8
0
 10
8665.2016888294892851
 20
2183.9772111560109806
 30
0.0
 40
0.0013844675382359
 50
225.1348279871326952
 51
248.6433555108700943
  0
ARC
  5
15D21
  8
0
 10
8665.2012565299246489
 20
2183.9761055957292228
 30
0.0
 40
0.0001973927921699
 50
248.643355510095688
 51
314.2818176667148009
  0
ARC
  5
15D22
  8
0
 10
8665.2007544865591626
 20
2183.97662038540102
 30
0.0
 40
0.0009164588144608
 50
314.2818176666402223
 51
332.0246219457459915
  0
ARC
  5
15D23
  8
0
 10
8665.200562714589978
 20
2183.97672224668122
 30
0.0
 40
0.0011336044077365
 50
332.0246219457459915
 51
1.7993977817771329
  0
ARC
  5
15D24
  8
0
 10
8665.1905242891716625
 20
2183.9775846566230939
 30
0.0
 40
0.0112020258349954
 50
355.7671853548338845
 51
6.3447544725290781
  0
ARC
  5
15D25
  8
0
 10
8665.0597406594297354
 20
2183.9566902443411891
 30
0.0
 40
0.1436324758226219
 50
8.8640341633517732
 51
17.7693308111328214
  0
ARC
  5
15D26
  8
0
 10
8664.9245451956649049
 20
2183.913363542892057
 30
0.0
 40
0.2856008401898816
 50
17.7693308111328214
 51
20.6625214307216893
  0
ARC
  5
15D27
  8
0
 10
8665.1536816357474891
 20
2183.9997757459668719
 30
0.0
 40
0.0407119326934069
 50
20.6625214307216893
 51
30.6680556762504501
  0
ARC
  5
15D28
  8
0
 10
8665.1859336744764732
 20
2184.0189012922910479
 30
0.0
 40
0.0032155258766048
 50
30.6680556762504501
 51
49.8993617369810991
  0
ARC
  5
15D29
  8
0
 10
8665.1875541150075151
 20
2184.0208255837778779
 30
0.0
 40
0.0006998300998057
 50
49.8993617372244529
 51
79.4458113477320751
  0
ARC
  5
15D2A
  8
0
 10
8665.1876476014676882
 20
2184.0213273427398235
 30
0.0
 40
0.0001894363556683
 50
79.4458113469862468
 51
113.7898867733964039
  0
ARC
  5
15D2B
  8
0
 10
8665.1877344585209357
 20
2184.0211303172609405
 30
0.0
 40
0.00040475747959
 50
113.7898867731950929
 51
150.3089948728425043
  0
ARC
  5
15D2C
  8
0
 10
8665.1882784823865222
 20
2184.020820124707825
 30
0.0
 40
0.0010310013524281
 50
150.308994872722991
 51
168.9514035479151062
  0
ARC
  5
15D2D
  8
0
 10
8665.1940344639533578
 20
2184.0196962078948673
 30
0.0
 40
0.0068956848708931
 50
168.9514035478894982
 51
192.0893708936056044
  0
ARC
  5
15D2E
  8
0
 10
8664.968442110615797
 20
2183.9713771698520759
 30
0.0
 40
0.2238133078483499
 50
9.6662953570128956
 51
12.0893708936055901
  0
LINE
  5
15D2F
  8
0
 10
8665.5010214709527645
 20
2182.5663357756611731
 30
0.0
 11
8665.5261845231088955
 21
2182.4289846758770182
 31
0.0
  0
ARC
  5
15D30
  8
0
 10
8670.8049470634505269
 20
2183.9574874918648675
 30
0.0
 40
5.5072101310505159
 50
194.5317857206335077
 51
196.1552197747074899
  0
LINE
  5
15D31
  8
0
 10
8665.4477722738574812
 20
2182.6749584294389024
 30
0.0
 11
8665.429997034914777
 21
2182.7468081909601096
 31
0.0
  0
LINE
  5
15D32
  8
0
 10
8665.4906185662730422
 20
2182.6962990932770481
 30
0.0
 11
8665.4437251114777609
 21
2182.9167091352937859
 31
0.0
  0
LINE
  5
15D33
  8
0
 10
8665.306810385596691
 20
2183.366570869754014
 30
0.0
 11
8665.3673863203166547
 21
2183.1431614268599333
 31
0.0
  0
LINE
  5
15D34
  8
0
 10
8665.3481269109925051
 20
2183.0843171068549964
 30
0.0
 11
8665.3234416807135858
 21
2183.204070170059822
 31
0.0
  0
ARC
  5
15D35
  8
0
 10
8665.3051690758857148
 20
2183.2110356656939985
 30
0.0
 40
0.0078740157729602
 50
182.9241547657804858
 51
272.9241539730120962
  0
ARC
  5
15D36
  8
0
 10
8665.8661522214842989
 20
2172.2286949599911168
 30
0.0
 40
10.98878499802648
 50
92.8308569372698571
 51
92.9241539730120678
  0
ARC
  5
15D37
  8
0
 10
8665.2834349715103599
 20
2184.0131361664771248
 30
0.0
 40
0.8100545187456372
 50
272.8308569372698003
 51
273.0174521505817893
  0
ARC
  5
15D38
  8
0
 10
8665.3271166551676288
 20
2183.1844695606018831
 30
0.0
 40
0.0197625895257508
 50
74.922143622679954
 51
93.0174521506858696
  0
ARC
  5
15D39
  8
0
 10
8665.3271177917031309
 20
2183.1844737792598607
 30
0.0
 40
0.0197582204555262
 50
32.4232682802057965
 51
74.922143622679954
  0
ARC
  5
15D3A
  8
0
 10
8665.349096197529434
 20
2183.1984342232790368
 30
0.0
 40
0.0062791434649964
 50
212.4232682802058036
 51
222.2097297283081048
  0
LINE
  5
15D3B
  8
0
 10
8665.3299488777302031
 20
2183.281234049764862
 30
0.0
 11
8665.3557558407137549
 21
2183.1263211701598266
 31
0.0
  0
LINE
  5
15D3C
  8
0
 10
8665.2973053125133447
 20
2183.21063398087108
 30
0.0
 11
8665.2903586708307557
 21
2183.3717853785169609
 31
0.0
  0
LINE
  5
15D3D
  8
0
 10
8665.2656129588303884
 20
2183.4856002041137799
 30
0.0
 11
8665.2393955309526064
 21
2183.6275269409311477
 31
0.0
  0
LINE
  5
15D3E
  8
0
 10
8665.2380833144161443
 20
2183.7590213013490938
 30
0.0
 11
8665.224986067514692
 21
2183.8424592555102208
 31
0.0
  0
ARC
  5
15D3F
  8
0
 10
8665.175717446651106
 20
2184.1165519438081901
 30
0.0
 40
0.0221059713855082
 50
321.7702352408225011
 51
346.1964066593063762
  0
ARC
  5
15D40
  8
0
 10
8665.1715994302958279
 20
2184.1197959685778187
 30
0.0
 40
0.0273482757861264
 50
310.2861155375716748
 51
321.7702352408225011
  0
ARC
  5
15D41
  8
0
 10
8665.1698861533841409
 20
2184.1218171881050694
 30
0.0
 40
0.0299979259820089
 50
289.7407460364921121
 51
310.2861155375716748
  0
ARC
  5
15D42
  8
0
 10
8665.2043894324706343
 20
2184.0256687711930681
 30
0.0
 40
0.0721538940826401
 50
109.7407460364920979
 51
139.0266070763339883
  0
ARC
  5
15D43
  8
0
 10
8665.212939047774853
 20
2184.0182436716418124
 30
0.0
 40
0.0834776754830336
 50
139.0266070763339883
 51
164.6508982089005997
  0
ARC
  5
15D44
  8
0
 10
8665.1732278829331335
 20
2184.0291440045380114
 30
0.0
 40
0.0422976576313457
 50
164.6508982089005997
 51
175.1251910794904063
  0
ARC
  5
15D45
  8
0
 10
8665.2773211960557092
 20
2184.0202661606931542
 30
0.0
 40
0.1467688687281901
 50
175.1251910794904063
 51
189.8218896349814031
  0
ARC
  5
15D46
  8
0
 10
8662.1637044133476593
 20
2183.4812260391358905
 30
0.0
 40
3.0131636815338898
 50
8.509235679055811
 51
9.8218896349813907
  0
ARC
  5
15D47
  8
0
 10
8665.2820119661664648
 20
2183.9477741141549814
 30
0.0
 40
0.1398521922397648
 50
188.5092356790557915
 51
214.9693948042769023
  0
ARC
  5
15D48
  8
0
 10
8665.2034548315186839
 20
2183.8928303287771087
 30
0.0
 40
0.0439874805037179
 50
214.969394804255586
 51
255.3100876763780036
  0
ARC
  5
15D49
  8
0
 10
8665.3786348663597892
 20
2184.5610562025431136
 30
0.0
 40
0.7347941560487562
 50
255.3100876763780036
 51
257.6277547383448905
  0
ARC
  5
15D4A
  8
0
 10
8665.1753960540954722
 20
2183.6345332780219906
 30
0.0
 40
0.2137577637079056
 50
76.5856438772572687
 51
77.6277547383449189
  0
ARC
  5
15D4B
  8
0
 10
8665.2203884455102525
 20
2183.8231818852527795
 30
0.0
 40
0.0198180506645553
 50
41.6840225563321027
 51
76.5856438772572687
  0
ARC
  5
15D4C
  8
0
 10
8665.2193326906963193
 20
2183.8222417700098958
 30
0.0
 40
0.0212317107697192
 50
15.4402326676647004
 51
41.6840225563321027
  0
ARC
  5
15D4D
  8
0
 10
8665.2616602304406115
 20
2183.8339327002031496
 30
0.0
 40
0.0226806846278874
 50
195.4402326676647021
 51
208.4772331517494877
  0
ARC
  5
15D4E
  8
0
 10
8665.2445893242220336
 20
2183.8246727354180621
 30
0.0
 40
0.0032600052645826
 50
208.4772331517266934
 51
229.3095805667169031
  0
ARC
  5
15D4F
  8
0
 10
8665.2428467607187486
 20
2183.8226461330891652
 30
0.0
 40
0.0005872455369156
 50
229.3095805671069058
 51
323.6298303969596759
  0
ARC
  5
15D50
  8
0
 10
8665.2413429641310358
 20
2183.8237536195110806
 30
0.0
 40
0.0024548456943304
 50
323.6298303970215215
 51
348.4405097250245262
  0
ARC
  5
15D51
  8
0
 10
8665.2296275890421384
 20
2183.8261498097867843
 30
0.0
 40
0.0144127611191674
 50
348.4405097250245262
 51
355.1029760140411895
  0
ARC
  5
15D52
  8
0
 10
8665.0990203275341628
 20
2183.8373399681609044
 30
0.0
 40
0.1454985208459332
 50
355.1029760140411895
 51
357.4768564644560911
  0
ARC
  5
15D53
  8
0
 10
8664.9795440129910276
 20
2183.8426047697362264
 30
0.0
 40
0.2650907775866643
 50
357.4768564644560911
 51
11.6776042689699704
  0
ARC
  5
15D54
  8
0
 10
8665.5347360221239796
 20
2183.9573532059639547
 30
0.0
 40
0.3018354703680939
 50
182.7663515670919026
 51
191.6776042689699011
  0
ARC
  5
15D55
  8
0
 10
8665.2474592091512022
 20
2184.1134474002751631
 30
0.0
 40
0.0503140520841852
 50
171.8482098206719968
 51
182.1482420500699959
  0
ARC
  5
15D56
  8
0
 10
8665.20063314024992
 20
2184.1201549261882064
 30
0.0
 40
0.0030100180865113
 50
140.4337008336042913
 51
171.8482098207236106
  0
ARC
  5
15D57
  8
0
 10
8665.1984986115858192
 20
2184.1211488286548956
 30
0.0
 40
0.0009419096637375
 50
28.8646908812175589
 51
101.3803239060679999
  0
ARC
  5
15D58
  8
0
 10
8665.1883205868452933
 20
2184.1142437313251321
 30
0.0
 40
0.0132374743017135
 50
19.9409706693499089
 51
33.7783790587226065
  0
ARC
  5
15D59
  8
0
 10
8664.9212794895302068
 20
2184.0271086970988108
 30
0.0
 40
0.2941283451953546
 50
8.3769149618107352
 51
18.1555382930886893
  0
LINE
  5
15D5A
  8
0
 10
8665.4509686787532701
 20
2182.7475673484009349
 30
0.0
 11
8665.4426196339718445
 21
2182.7474529594860542
 31
0.0
  0
LINE
  5
15D5B
  8
0
 10
8665.4426196339718445
 20
2182.7474529594860542
 30
0.0
 11
8665.4272432826328441
 21
2182.7466675281029893
 31
0.0
  0
LINE
  5
15D5C
  8
0
 10
8665.4638298450136062
 20
2182.6891465529602101
 30
0.0
 11
8665.4509686787532701
 21
2182.7475673484009349
 31
0.0
  0
LINE
  5
15D5D
  8
0
 10
8665.4509686787532701
 20
2182.7475673484009349
 30
0.0
 11
8665.4079973906282248
 21
2182.92928607340491
 31
0.0
  0
ARC
  5
15D5E
  8
0
 10
8665.6036936272394087
 20
2183.1072108788980586
 30
0.0
 40
0.2565864703223714
 50
185.1251356861239117
 51
196.160230803557198
  0
ARC
  5
15D5F
  8
0
 10
8664.3176698766455957
 20
2182.7345542229268176
 30
0.0
 40
1.0823422321603999
 50
13.0636991944700291
 51
16.1602308035571802
  0
ARC
  5
15D60
  8
0
 10
8665.4321013760836649
 20
2182.9931463618768248
 30
0.0
 40
0.0616977414709006
 50
193.0636991944699901
 51
221.9249400703988897
  0
ARC
  5
15D61
  8
0
 10
8665.7216796625798452
 20
2183.2531977135708985
 30
0.0
 40
0.4509049992752354
 50
221.9249400703988897
 51
225.9191576879478021
  0
ARC
  5
15D62
  8
0
 10
8665.4535301713203808
 20
2183.0012742153407999
 30
0.0
 40
0.0851793795289805
 50
237.6864872266465909
 51
263.8628048743930776
  0
ARC
  5
15D63
  8
0
 10
8665.4855991528493178
 20
2183.1695382531779615
 30
0.0
 40
0.2562845475852972
 50
260.7546128138113204
 51
264.1400181703738781
  0
ARC
  5
15D64
  8
0
 10
8665.4564017262546258
 20
2182.8937674698581759
 30
0.0
 40
0.0210449483851342
 50
54.0347577052079515
 51
81.7182167255674017
  0
ARC
  5
15D65
  8
0
 10
8665.5336344186471251
 20
2182.9397634706401732
 30
0.0
 40
0.0710447980532576
 50
204.058504099620194
 51
211.7089818529570096
  0
ARC
  5
15D66
  8
0
 10
8665.4893842190758733
 20
2182.911070468392154
 30
0.0
 40
0.0183548727001364
 50
208.1111019176665025
 51
233.7209889772528868
  0
ARC
  5
15D67
  8
0
 10
8665.4802423923156312
 20
2182.8986158193811207
 30
0.0
 40
0.0029052358594549
 50
233.7209889772528868
 51
268.756931626156188
  0
ARC
  5
15D68
  8
0
 10
8665.480248420695716
 20
2182.8988936371601994
 30
0.0
 40
0.0031831190360486
 50
268.756931626156188
 51
314.0392259952282075
  0
ARC
  5
15D69
  8
0
 10
8665.4788929021560762
 20
2182.9002953959047773
 30
0.0
 40
0.0051330826479962
 50
314.0392259952282075
 51
339.3753262349870852
  0
ARC
  5
15D6A
  8
0
 10
8665.4544464666796557
 20
2182.9094962237800246
 30
0.0
 40
0.031253638558023
 50
339.3753262349870852
 51
8.1773349676684006
  0
ARC
  5
15D6B
  8
0
 10
8665.6736667647346621
 20
2182.9409978365470124
 30
0.0
 40
0.1902184605535219
 50
179.6374269181243051
 51
188.1773349676682869
  0
ARC
  5
15D6C
  8
0
 10
8665.347309329379641
 20
2182.9430630846618442
 30
0.0
 40
0.1361455093636276
 50
359.6374269181242767
 51
17.3861992351941517
  0
ARC
  5
15D6D
  8
0
 10
8665.4641024605298298
 20
2183.0645004648508802
 30
0.0
 40
0.1139033314691973
 50
173.745746962768095
 51
178.6010223604338876
  0
ARC
  5
15D6E
  8
0
 10
8665.3513894400075515
 20
2183.0768530152581661
 30
0.0
 40
0.0005154551467281
 50
39.0693012261277985
 51
173.7457469626127136
  0
ARC
  5
15D6F
  8
0
 10
8665.3487018155501573
 20
2183.0731536458902156
 30
0.0
 40
0.0050723874087846
 50
30.5470223885404195
 51
52.5008274141826305
  0
ARC
  5
15D70
  8
0
 10
8665.1504993311245926
 20
2182.9812009460201807
 30
0.0
 40
0.2235419887740116
 50
21.163259299653749
 51
25.016344511126519
  0
ARC
  5
15D71
  8
0
 10
8665.0690138842801389
 20
2182.9496549226128082
 30
0.0
 40
0.3109206454348141
 50
12.3603377086256803
 51
21.163259299653749
  0
ARC
  5
15D72
  8
0
 10
8669.9597311173147318
 20
2184.0214001884578465
 30
0.0
 40
4.6958500671470942
 50
192.3603377086257069
 51
192.6976543734309075
  0
ARC
  5
15D73
  8
0
 10
8665.3045102523537935
 20
2182.9725011140640163
 30
0.0
 40
0.0760751805732403
 50
0.6877016448179961
 51
12.6976543734308898
  0
ARC
  5
15D74
  8
0
 10
8665.3667277636614017
 20
2182.9732479254348618
 30
0.0
 40
0.0138531873507109
 50
352.1005515002287893
 51
0.6877016448179961
  0
ARC
  5
15D75
  8
0
 10
8665.378891729433235
 20
2182.9713455741439248
 30
0.0
 40
0.0015577665058979
 50
304.6137152015999163
 51
359.942560385429374
  0
ARC
  5
15D76
  8
0
 10
8665.3797307768727478
 20
2182.9711010214591624
 30
0.0
 40
0.0010385014380142
 50
221.6655826373317097
 51
272.5291942447689166
  0
ARC
  5
15D77
  8
0
 10
8664.8958544215383881
 20
2182.6725329178038919
 30
0.0
 40
0.5675537745865487
 50
31.6578052896761299
 51
33.1201358550244223
  0
LINE
  5
15D78
  8
0
 10
8665.377371986869548
 20
2182.9646629411058711
 30
0.0
 11
8665.4177736136407475
 21
2182.795571576706152
 31
0.0
  0
LINE
  5
15D79
  8
0
 10
8665.4147134133600048
 20
2182.9008850842510583
 30
0.0
 11
8665.418977834557154
 21
2182.7541296065428469
 31
0.0
  0
ARC
  5
15D7A
  8
0
 10
8665.4268415978731355
 20
2182.7545312913798625
 30
0.0
 40
0.0078740157595027
 50
182.9241546679718908
 51
272.9241539752044901
  0
ARC
  5
15D7B
  8
0
 10
8682.2091297748993384
 20
2186.2246735049388917
 30
0.0
 40
17.1579939524132996
 50
182.8129203882874947
 51
183.9128585529709028
  0
ARC
  5
15D7C
  8
0
 10
8665.0835436578436202
 20
2185.3832214464800927
 30
0.0
 40
0.0117482578207707
 50
121.7377854897381013
 51
182.8128930823353926
  0
ARC
  5
15D7D
  8
0
 10
8664.594854088003558
 20
2179.8801594998381006
 30
0.0
 40
1.716344537302273
 50
11.2092442097790297
 51
26.5186966591029005
  0
ARC
  5
15D7E
  8
0
 10
8665.3020468538197747
 20
2180.0598800145357927
 30
0.0
 40
0.9884685220558822
 50
2.6439553290666939
 51
8.9585489218281005
  0
ARC
  5
15D7F
  8
0
 10
8666.3118392809810757
 20
2180.1065107225731481
 30
0.0
 40
0.0224
 50
182.6439553290666993
 51
194.0642528558622928
  0
ARC
  5
15D80
  8
0
 10
8659.7853728837544622
 20
2178.4715037997211766
 30
0.0
 40
6.705750657639709
 50
11.2052983559021602
 51
14.0642528558623798
  0
ARC
  5
15D81
  8
0
 10
8666.3749400999113277
 20
2179.7769065115007834
 30
0.0
 40
0.011873352095946
 50
191.2053126227091866
 51
277.4795751391523027
  0
LINE
  5
15D82
  8
0
 10
8669.030913283369955
 20
2147.8447591738890878
 30
0.0
 11
8669.030913283369955
 21
2150.1124757093889457
 31
0.0
  0
LINE
  5
15D83
  8
0
 10
8663.1254014723690489
 20
2150.0691686226891761
 30
0.0
 11
8666.1258103399304673
 21
2150.0691686226891761
 31
0.0
  0
LINE
  5
15D84
  8
0
 10
8666.7161251661145798
 20
2150.0691686226891761
 30
0.0
 11
8668.9915432046673232
 21
2150.0691686226891761
 31
0.0
  0
ENDSEC
  0
EOF
