  0
SECTION
  2
HEADER
  9
$ACADVER
  1
AC1009
  9
$INSBASE
 10
8649.4232223476828949
 20
2163.6155297070022243
 30
0.0
  9
$EXTMIN
 10
8626.2412642454110028
 20
2134.2958088393811522
 30
-0.0000000000112498
  9
$EXTMAX
 10
8649.8971155179187917
 20
2191.2678343046650298
 30
0.0000000000002956
  9
$LIMMIN
 10
0.0
 20
0.0
  9
$LIMMAX
 10
11.6929133858000007
 20
8.2677165353999982
  9
$ORTHOMODE
 70
     0
  9
$REGENMODE
 70
     1
  9
$FILLMODE
 70
     1
  9
$QTEXTMODE
 70
     0
  9
$MIRRTEXT
 70
     0
  9
$DRAGMODE
 70
     2
  9
$LTSCALE
 40
0.6431102362
  9
$OSMODE
 70
  4095
  9
$ATTMODE
 70
     1
  9
$TEXTSIZE
 40
0.2
  9
$TRACEWID
 40
0.05
  9
$TEXTSTYLE
  7
STANDARD
  9
$CLAYER
  8
0
  9
$CELTYPE
  6
BYLAYER
  9
$CECOLOR
 62
   256
  9
$DIMSCALE
 40
1.0
  9
$DIMASZ
 40
0.1875
  9
$DIMEXO
 40
0.0625
  9
$DIMDLI
 40
0.4443307087
  9
$DIMRND
 40
0.0
  9
$DIMDLE
 40
0.0
  9
$DIMEXE
 40
0.125
  9
$DIMTP
 40
0.01
  9
$DIMTM
 40
0.01
  9
$DIMTXT
 40
2.0
  9
$DIMCEN
 40
0.1052362205
  9
$DIMTSZ
 40
0.0
  9
$DIMTOL
 70
     1
  9
$DIMLIM
 70
     0
  9
$DIMTIH
 70
     1
  9
$DIMTOH
 70
     1
  9
$DIMSE1
 70
     0
  9
$DIMSE2
 70
     0
  9
$DIMTAD
 70
     0
  9
$DIMZIN
 70
     0
  9
$DIMBLK
  1

  9
$DIMASO
 70
     1
  9
$DIMSHO
 70
     1
  9
$DIMPOST
  1
\X
  9
$DIMAPOST
  1

  9
$DIMALT
 70
     1
  9
$DIMALTD
 70
     2
  9
$DIMALTF
 40
25.3999999999999986
  9
$DIMLFAC
 40
1.0
  9
$DIMTOFL
 70
     0
  9
$DIMTVP
 40
0.0
  9
$DIMTIX
 70
     0
  9
$DIMSOXD
 70
     0
  9
$DIMSAH
 70
     0
  9
$DIMBLK1
  1

  9
$DIMBLK2
  1

  9
$DIMSTYLE
  2
STANDARD
  9
$DIMCLRD
 70
     0
  9
$DIMCLRE
 70
     0
  9
$DIMCLRT
 70
     0
  9
$DIMTFAC
 40
1.0
  9
$DIMGAP
 40
0.09
  9
$LUNITS
 70
     2
  9
$LUPREC
 70
     4
  9
$SKETCHINC
 40
0.1
  9
$FILLETRAD
 40
0.0
  9
$AUNITS
 70
     0
  9
$AUPREC
 70
     0
  9
$MENU
  1
.
  9
$ELEVATION
 40
0.0
  9
$PELEVATION
 40
0.0
  9
$THICKNESS
 40
0.0
  9
$LIMCHECK
 70
     0
  9
$BLIPMODE
 70
     0
  9
$CHAMFERA
 40
0.0
  9
$CHAMFERB
 40
0.0
  9
$SKPOLY
 70
     0
  9
$TDCREATE
 40
2458060.468368056230247
  9
$TDUPDATE
 40
2460054.6458796299993992
  9
$TDINDWG
 40
0.4611991898
  9
$TDUSRTIMER
 40
0.4611991898
  9
$USRTIMER
 70
     1
  9
$ANGBASE
 50
0.0
  9
$ANGDIR
 70
     0
  9
$PDMODE
 70
     0
  9
$PDSIZE
 40
0.3125
  9
$PLINEWID
 40
0.0
  9
$COORDS
 70
     1
  9
$SPLFRAME
 70
     0
  9
$SPLINETYPE
 70
     6
  9
$SPLINESEGS
 70
     8
  9
$ATTDIA
 70
     1
  9
$ATTREQ
 70
     1
  9
$HANDLING
 70
     1
  9
$HANDSEED
  5
15B9B
  9
$SURFTAB1
 70
     6
  9
$SURFTAB2
 70
     6
  9
$SURFTYPE
 70
     6
  9
$SURFU
 70
     6
  9
$SURFV
 70
     6
  9
$UCSNAME
  2

  9
$UCSORG
 10
0.0
 20
0.0
 30
0.0
  9
$UCSXDIR
 10
1.0
 20
0.0
 30
0.0
  9
$UCSYDIR
 10
0.0
 20
1.0
 30
0.0
  9
$PUCSNAME
  2

  9
$PUCSORG
 10
0.0
 20
0.0
 30
0.0
  9
$PUCSXDIR
 10
1.0
 20
0.0
 30
0.0
  9
$PUCSYDIR
 10
0.0
 20
1.0
 30
0.0
  9
$USERI1
 70
     0
  9
$USERI2
 70
     0
  9
$USERI3
 70
     0
  9
$USERI4
 70
     0
  9
$USERI5
 70
     0
  9
$USERR1
 40
0.0
  9
$USERR2
 40
0.0
  9
$USERR3
 40
0.0
  9
$USERR4
 40
0.0
  9
$USERR5
 40
0.0
  9
$WORLDVIEW
 70
     1
  9
$SHADEDGE
 70
     3
  9
$SHADEDIF
 70
    70
  9
$TILEMODE
 70
     1
  9
$MAXACTVP
 70
    64
  9
$PLIMCHECK
 70
     0
  9
$PEXTMIN
 10
1.0000000000000000E+20
 20
1.0000000000000000E+20
 30
1.0000000000000000E+20
  9
$PEXTMAX
 10
-1.0000000000000000E+20
 20
-1.0000000000000000E+20
 30
-1.0000000000000000E+20
  9
$PLIMMIN
 10
0.0
 20
0.0
  9
$PLIMMAX
 10
12.0
 20
9.0
  9
$UNITMODE
 70
     0
  9
$VISRETAIN
 70
     1
  9
$PLINEGEN
 70
     0
  9
$PSLTSCALE
 70
     1
  0
ENDSEC
  0
SECTION
  2
TABLES
  0
TABLE
  2
VPORT
 70
     1
  0
VPORT
  2
*ACTIVE
 70
     0
 10
0.0
 20
0.0
 11
1.0
 21
1.0
 12
3822.7708500379139878
 22
1914.9731973044440565
 13
0.0
 23
0.0
 14
1.0
 24
1.0
 15
0.0
 25
0.0
 16
0.0
 26
0.0
 36
9.5192988075487186
 17
4815.2983398437490905
 27
247.8086242675780966
 37
0.0
 40
57.4097106801259471
 41
1.593589743589743
 42
50.0
 43
0.0
 44
0.0
 50
0.0
 51
0.0
 71
     0
 72
   100
 73
     1
 74
     1
 75
     0
 76
     0
 77
     0
 78
     0
  0
ENDTAB
  0
TABLE
  2
LTYPE
 70
     2
  0
LTYPE
  2
CONTINUOUS
 70
     0
  3
Solid line
 72
    65
 73
     0
 40
0.0
  0
LTYPE
  2
PHANTOM2
 70
     0
  3
___ _ _ ___ _ _ ___ _ _ ___ _ _
 72
    65
 73
     6
 40
1.25
 49
0.625
 49
-0.125
 49
0.125
 49
-0.125
 49
0.125
 49
-0.125
  0
ENDTAB
  0
TABLE
  2
LAYER
 70
     2
  0
LAYER
  2
0
 70
     0
 62
   255
  6
CONTINUOUS
  0
LAYER
  2
DEFPOINTS
 70
     0
 62
     7
  6
CONTINUOUS
  0
ENDTAB
  0
TABLE
  2
STYLE
 70
     1
  0
STYLE
  2
STANDARD
 70
     0
 40
0.0
 41
0.8
 50
0.0
 71
     0
 42
0.2
  3
txt
  4

  0
ENDTAB
  0
TABLE
  2
VIEW
 70
     0
  0
ENDTAB
  0
TABLE
  2
UCS
 70
     0
  0
ENDTAB
  0
TABLE
  2
APPID
 70
    10
  0
APPID
  2
ACAD
 70
     0
  0
APPID
  2
ACAD_MLEADERVER
 70
     0
  0
APPID
  2
ACAD_EXEMPT_FROM_CAD_STANDARDS
 70
     0
  0
APPID
  2
ACAD_NAV_VCDISPLAY
 70
     0
  0
APPID
  2
ACAECLAYERSTANDARD
 70
     0
  0
APPID
  2
ACCMTRANSPARENCY
 70
     0
  0
APPID
  2
ACAD_DSTYLE_DIMJAG
 70
     0
  0
APPID
  2
ACAD_DSTYLE_DIMTALN
 70
     0
  0
APPID
  2
ACDBATTR
 70
     0
  0
APPID
  2
ACADANNOTATIVE
 70
     0
  0
ENDTAB
  0
TABLE
  2
DIMSTYLE
 70
     1
  0
DIMSTYLE
  2
STANDARD
 70
     0
  3

  4

  5

  6

  7

 40
1.0
 41
0.1875
 42
0.0625
 43
0.38
 44
0.125
 45
0.0
 46
0.0
 47
0.01
 48
0.01
140
0.15625
141
0.09
142
0.0
143
25.3999999999999986
144
1.0
145
0.0
146
1.0
147
0.09
 71
     1
 72
     0
 73
     1
 74
     1
 75
     0
 76
     0
 77
     0
 78
     4
170
     0
171
     2
172
     0
173
     0
174
     0
175
     0
176
     0
177
     0
178
     0
  0
ENDTAB
  0
ENDSEC
  0
SECTION
  2
BLOCKS
  0
BLOCK
  8
0
  2
$MODEL_SPACE
 70
     0
 10
0.0
 20
0.0
 30
0.0
  3
$MODEL_SPACE
  1

  0
ENDBLK
  5
21
  8
0
  0
BLOCK
 67
     1
  8
0
  2
$PAPER_SPACE
 70
     0
 10
0.0
 20
0.0
 30
0.0
  3
$PAPER_SPACE
  1

  0
ENDBLK
  5
1D
 67
     1
  8
0
  0
ENDSEC
  0
SECTION
  2
ENTITIES
  0
ATTDEF
  5
3930
  8
DEFPOINTS
 10
8649.4196840814838652
 20
2163.6191099756370022
 30
0.0
 40
0.001
  1
K-23752T-9
  3

  2
MODELNUMBER
 70
     0
1001
ACDBATTR
1070
     0
1070
     1
  0
ATTDEF
  5
3931
  8
DEFPOINTS
 10
8649.4196840814838652
 20
2163.617443308969996
 30
0.0
 40
0.001
  1
URBANITY+
  3

  2
TRADENAME
 70
     0
1001
ACDBATTR
1070
     0
1070
     1
  0
ATTDEF
  5
3932
  8
DEFPOINTS
 10
8649.4196840814838652
 20
2163.6157766423029898
 30
0.0
 40
0.001
  1
SHOWER COLUMN
  3

  2
PRODUCT
 70
     0
1001
ACDBATTR
1070
     0
1070
     1
  0
LINE
  5
15461
  8
0
 10
8631.6870018751815223
 20
2191.241513958952055
 30
0.0
 11
8645.2699861271794362
 21
2191.241513958952055
 31
0.0
  0
LINE
  5
15462
  8
0
 10
8632.4744034499817644
 20
2190.4541123841518129
 30
0.0
 11
8645.269584552381275
 21
2190.4541123841518129
 31
0.0
  0
LINE
  5
15463
  8
0
 10
8631.6870018751815223
 20
2191.241513958952055
 30
0.0
 11
8631.6870018751815223
 21
2189.6903328566518212
 31
0.0
  0
LINE
  5
15464
  8
0
 10
8631.6870018752833857
 20
2190.4777344314520633
 30
0.0
 11
8632.4744034499817644
 21
2190.4777344314520633
 31
0.0
  0
LINE
  5
15465
  8
0
 10
8632.4744034499817644
 20
2190.4777344314520633
 30
0.0
 11
8632.4744034499817644
 21
2189.6903328566518212
 31
0.0
  0
LINE
  5
15466
  8
0
 10
8648.0255845523824973
 20
2187.6981123841519548
 30
0.0
 11
8648.0255845523824973
 21
2182.4068682896518112
 31
0.0
  0
LINE
  5
15467
  8
0
 10
8648.0255845523824973
 20
2181.4226163211519633
 30
0.0
 11
8648.0255845523824973
 21
2173.469860415651965
 31
0.0
  0
LINE
  5
15468
  8
0
 10
8648.0255845523824973
 20
2172.2887580534520566
 30
0.0
 11
8648.0255845523824973
 21
2147.2060808881519733
 31
0.0
  0
LINE
  5
15469
  8
0
 10
8648.0255845523824973
 20
2147.2020808881520679
 30
0.0
 11
8648.0255845523824973
 21
2147.1470257699520516
 31
0.0
  0
LINE
  5
1546A
  8
0
 10
8648.8129861271827394
 20
2187.6985139589519349
 30
0.0
 11
8648.8129861271827394
 21
2182.4068682896518112
 31
0.0
  0
LINE
  5
1546B
  8
0
 10
8648.8129861271827394
 20
2181.4226163211519633
 30
0.0
 11
8648.8129861271827394
 21
2173.469860415651965
 31
0.0
  0
LINE
  5
1546C
  8
0
 10
8648.8129861271827394
 20
2172.2887580534520566
 30
0.0
 11
8648.8129861271827394
 21
2147.2060808881519733
 31
0.0
  0
LINE
  5
1546D
  8
0
 10
8648.8129861271827394
 20
2147.2020808881520679
 30
0.0
 11
8648.8129861271827394
 21
2147.1470257699520516
 31
0.0
  0
ARC
  5
1546E
  8
0
 10
8645.269584552381275
 20
2187.6981123841519548
 30
0.0
 40
2.7559999999999989
 50
0.0
 51
90.0
  0
ARC
  5
1546F
  8
0
 10
8645.2699861271794362
 20
2187.6985139589519349
 30
0.0
 40
3.5430000000000001
 50
0.0
 51
90.0
  0
LINE
  5
15470
  8
0
 10
8647.9271285433296725
 20
2182.4068682896518112
 30
0.0
 11
8649.4232223476828949
 21
2182.4068682896518112
 31
0.0
  0
ARC
  5
15471
  8
0
 10
8649.2077796064131689
 20
2182.3868682896518294
 30
0.0
 40
0.02
 50
90.0
 51
179.7205955491548934
  0
LINE
  5
15472
  8
0
 10
8647.8902938521423494
 20
2181.4226163211519633
 30
0.0
 11
8649.4232223476828949
 21
2181.4226163211519633
 31
0.0
  0
LINE
  5
15473
  8
0
 10
8647.9071315896308079
 20
2182.3872173494678464
 30
0.0
 11
8647.8902938521423494
 21
2181.4226163211519633
 31
0.0
  0
LINE
  5
15474
  8
0
 10
8649.4232223476828949
 20
2182.4068682896518112
 30
0.0
 11
8649.4232223476828949
 21
2181.4226163211519633
 31
0.0
  0
ARC
  5
15475
  8
0
 10
8647.9271285433296725
 20
2182.3868682896518294
 30
0.0
 40
0.02
 50
90.0
 51
178.9999665148185102
  0
LINE
  5
15476
  8
0
 10
8649.1830771299810294
 20
2181.4226163211519633
 30
0.0
 11
8649.1877798442164931
 21
2182.3869658198182151
 31
0.0
  0
LINE
  5
15477
  8
0
 10
8646.8202380343918776
 20
2173.469860415651965
 30
0.0
 11
8646.9936156181083788
 21
2173.469860415651965
 31
0.0
  0
LINE
  5
15478
  8
0
 10
8647.7849942282919073
 20
2173.469860415651965
 30
0.0
 11
8649.0575132044414204
 21
2173.469860415651965
 31
0.0
  0
LINE
  5
15479
  8
0
 10
8646.8046253679203801
 20
2172.2887580534520566
 30
0.0
 11
8647.1153767208579666
 21
2172.2887580534520566
 31
0.0
  0
LINE
  5
1547A
  8
0
 10
8647.7073824310482451
 20
2172.2887580534520566
 30
0.0
 11
8649.0731263824545749
 21
2172.2887580534520566
 31
0.0
  0
LINE
  5
1547B
  8
0
 10
8646.7887411048832291
 20
2173.4388002242699258
 30
0.0
 11
8646.7731284384153696
 21
2172.3206978620701193
 31
0.0
  0
LINE
  5
1547C
  8
0
 10
8649.089010133748161
 20
2173.4388002386767766
 30
0.0
 11
8649.1046233117613156
 21
2172.3206978764778796
 31
0.0
  0
ARC
  5
1547D
  8
0
 10
8649.0575132044414204
 20
2173.4383604156519141
 30
0.0
 40
0.0315
 50
0.8000260951157828
 51
90.0
  0
ARC
  5
1547E
  8
0
 10
8646.8202380343918776
 20
2173.4383604156519141
 30
0.0
 40
0.0315
 50
90.0
 51
179.2000001131426927
  0
ARC
  5
1547F
  8
0
 10
8646.8046253679203801
 20
2172.3202580534511981
 30
0.0
 40
0.0315
 50
179.2000001131426927
 51
270.0
  0
ARC
  5
15480
  8
0
 10
8649.0731263824545749
 20
2172.3202580534511981
 30
0.0
 40
0.0315
 50
270.0
 51
0.8000260951157828
  0
LINE
  5
15481
  8
0
 10
8647.0251125475115259
 20
2173.4388002316682105
 30
0.0
 11
8647.0407254766523693
 21
2172.3206978694679492
 31
0.0
  0
ARC
  5
15482
  8
0
 10
8646.9936156181083788
 20
2173.4383604156519141
 30
0.0
 40
0.0315
 50
0.8000133443798046
 51
90.0
  0
ARC
  5
15483
  8
0
 10
8647.0092285472474032
 20
2172.3202580534511981
 30
0.0
 40
0.0315
 50
270.0
 51
0.8000133443537523
  0
LINE
  5
15484
  8
0
 10
8647.7534972987850779
 20
2173.4388002243299525
 30
0.0
 11
8647.7378846301799058
 21
2172.3206978621310554
 31
0.0
  0
ARC
  5
15485
  8
0
 10
8647.7849942282919073
 20
2173.4383604156519141
 30
0.0
 40
0.0315
 50
90.0
 51
179.2000000036480003
  0
ARC
  5
15486
  8
0
 10
8647.7693815596830973
 20
2172.3202580534511981
 30
0.0
 40
0.0315
 50
179.2000000036480003
 51
270.0
  0
LINE
  5
15487
  8
0
 10
8646.9233267601794068
 20
2173.5198604156521469
 30
0.0
 11
8647.9063796249811276
 21
2173.5198604156521469
 31
0.0
  0
LINE
  5
15488
  8
0
 10
8646.9233267601794068
 20
2173.5198604156521469
 30
0.0
 11
8646.9282390947828389
 21
2173.469860415651965
 31
0.0
  0
LINE
  5
15489
  8
0
 10
8647.9063796249811276
 20
2173.5198604156521469
 30
0.0
 11
8647.901467290281289
 21
2173.469860415651965
 31
0.0
  0
LINE
  5
1548A
  8
0
 10
8647.0372966068825917
 20
2172.5662525219518102
 30
0.0
 11
8647.7413134428315971
 21
2172.5662525219518102
 31
0.0
  0
LINE
  5
1548B
  8
0
 10
8648.0255845523824973
 20
2147.2060808881519733
 30
0.0
 11
8648.8129861271827394
 21
2147.2060808881519733
 31
0.0
  0
ARC
  5
1548C
  8
0
 10
8648.8089861271819245
 20
2147.2020808881520679
 30
0.0
 40
0.004
 50
0.0
 51
89.9999999998957776
  0
ARC
  5
1548D
  8
0
 10
8648.0295845523796743
 20
2147.2020808881520679
 30
0.0
 40
0.004
 50
90.0000000002084306
 51
179.999999999947903
  0
LINE
  5
1548E
  8
0
 10
8643.5570806153846206
 20
2147.1470257699520516
 30
0.0
 11
8646.4992557800287614
 21
2147.1470257699520516
 31
0.0
  0
LINE
  5
1548F
  8
0
 10
8647.0895761411320564
 20
2147.1470257699520516
 30
0.0
 11
8649.3641672295834724
 21
2147.1470257699520516
 31
0.0
  0
LINE
  5
15490
  8
0
 10
8643.5570806153846206
 20
2147.1470257699520516
 30
0.0
 11
8643.4980254972815601
 21
2147.0879706518521743
 31
0.0
  0
LINE
  5
15491
  8
0
 10
8643.4980254972815601
 20
2147.0879706518521743
 30
0.0
 11
8643.4980254972815601
 21
2146.9895454550519389
 31
0.0
  0
LINE
  5
15492
  8
0
 10
8643.4980254972815601
 20
2146.9895454550519389
 30
0.0
 11
8646.4970984563206002
 21
2146.9895454550519389
 31
0.0
  0
LINE
  5
15493
  8
0
 10
8647.0874043971198262
 20
2146.9895454550519389
 30
0.0
 11
8649.3641672295834724
 21
2146.9895454550519389
 31
0.0
  0
LINE
  5
15494
  8
0
 10
8649.3641672295834724
 20
2147.1470257699520516
 30
0.0
 11
8649.3641672295834724
 21
2144.8241911243521827
 31
0.0
  0
LINE
  5
15495
  8
0
 10
8649.3641672295834724
 20
2147.1312777385519439
 30
0.0
 11
8649.4232223476828949
 21
2147.1312777385519439
 31
0.0
  0
LINE
  5
15496
  8
0
 10
8643.537395575982373
 20
2146.9775454550522227
 30
0.0
 11
8643.537395575982373
 21
2145.2495769511519939
 31
0.0
  0
ARC
  5
15497
  8
0
 10
8643.5493955759848177
 20
2146.9775454550522227
 30
0.0
 40
0.012
 50
90.0
 51
180.0
  0
LINE
  5
15498
  8
0
 10
8643.5493955759848177
 20
2145.2375769511518229
 30
0.0
 11
8645.499534782848059
 21
2145.2375769511518229
 31
0.0
  0
LINE
  5
15499
  8
0
 10
8645.905965030517109
 20
2145.2375769511518229
 30
0.0
 11
8646.4801353554703383
 21
2145.2375769511518229
 31
0.0
  0
LINE
  5
1549A
  8
0
 10
8647.070463761467181
 20
2145.2375769511518229
 30
0.0
 11
8649.3641672295834724
 21
2145.2375769511518229
 31
0.0
  0
ARC
  5
1549B
  8
0
 10
8643.5493955759848177
 20
2145.2495769511519939
 30
0.0
 40
0.012
 50
179.9999999999739089
 51
270.0
  0
LINE
  5
1549C
  8
0
 10
8643.4066081743821996
 20
2145.3950572660519356
 30
0.0
 11
8643.537395575982373
 21
2145.3950572660519356
 31
0.0
  0
LINE
  5
1549D
  8
0
 10
8643.4066081743821996
 20
2146.8517382086020007
 30
0.0
 11
8643.537395575982373
 21
2146.8517382086020007
 31
0.0
  0
LINE
  5
1549E
  8
0
 10
8643.3866081743817631
 20
2146.8317382086020189
 30
0.0
 11
8643.3866081743817631
 21
2145.4150572660519174
 31
0.0
  0
ARC
  5
1549F
  8
0
 10
8643.4066081743821996
 20
2146.8317382086020189
 30
0.0
 40
0.02
 50
90.0
 51
180.0
  0
ARC
  5
154A0
  8
0
 10
8643.4066081743821996
 20
2145.4150572660519174
 30
0.0
 40
0.02
 50
180.0
 51
270.0
  0
LINE
  5
154A1
  8
0
 10
8649.3641672295834724
 20
2144.8635612030520861
 30
0.0
 11
8649.4232223476828949
 21
2144.8635612030520861
 31
0.0
  0
LINE
  5
154A2
  8
0
 10
8649.3641672295834724
 20
2144.8241911243521827
 30
0.0
 11
8647.0690627984695311
 21
2144.9742556448409232
 31
0.0
  0
LINE
  5
154A3
  8
0
 10
8646.4787620869028615
 20
2145.0128522298259668
 30
0.0
 11
8644.2644841448327497
 21
2145.1576319414161844
 31
0.0
  0
LINE
  5
154A4
  8
0
 10
8644.2533328256577079
 20
2145.1683520309197775
 30
0.0
 11
8644.2471864075505437
 21
2145.2268312927149054
 31
0.0
  0
ARC
  5
154A5
  8
0
 10
8644.2652670884017425
 20
2145.1696063724821215
 30
0.0
 40
0.012
 50
186.0000000170950045
 51
266.259062450083718
  0
ARC
  5
154A6
  8
0
 10
8644.235252144808328
 20
2145.2255769511521066
 30
0.0
 40
0.012
 50
6.000000017095048
 51
90.0
  0
LINE
  5
154A7
  8
0
 10
8647.8059161649762245
 20
2144.926076770878808
 30
0.0
 11
8647.9666014519807504
 21
2143.5986005731519981
 31
0.0
  0
LINE
  5
154A8
  8
0
 10
8648.973336197583194
 20
2144.8497454610578643
 30
0.0
 11
8648.821890487382916
 21
2143.5986005731519981
 31
0.0
  0
LINE
  5
154A9
  8
0
 10
8647.9666014519807504
 20
2143.5986005731519981
 30
0.0
 11
8648.821890487382916
 21
2143.5986005731519981
 31
0.0
  0
LINE
  5
154AA
  8
0
 10
8648.098970379181992
 20
2143.5986005731519981
 30
0.0
 11
8648.098970379181992
 21
2140.7722931445027825
 31
0.0
  0
LINE
  5
154AB
  8
0
 10
8648.6895215602817188
 20
2143.5986005731519981
 30
0.0
 11
8648.6895215602817188
 21
2140.4210817894818319
 31
0.0
  0
ARC
  5
154AC
  8
0
 10
8207.5203876919258619
 20
2178.1341952483721798
 30
0.0
 40
439.6338516485595846
 50
358.9786233469392869
 51
359.274332159075982
  0
ARC
  5
154AD
  8
0
 10
8534.9417780684361787
 20
2173.1485841935800636
 30
0.0
 40
112.7688823579280069
 50
358.5450674501847175
 51
359.7041267532960092
  0
ARC
  5
154AE
  8
0
 10
9387544.6472490262240171
 20
-241674.4057802124880254
 30
0.0
 40
9382066.9222712460905313
 50
178.5106857691318964
 51
178.5108102790001965
  0
ARC
  5
154AF
  8
0
 10
8880.5631327502596832
 20
2143.8618284873659832
 30
0.0
 40
234.086930484214605
 50
178.5179553697024915
 51
179.566173848474989
  0
ARC
  5
154B0
  8
0
 10
8995.5871989676961675
 20
2142.9918547282768486
 30
0.0
 40
349.1142866344094955
 50
179.5663330379969125
 51
180.2373340877257135
  0
ARC
  5
154B1
  8
0
 10
8691.4672722239174618
 20
2141.316454733064802
 30
0.0
 40
44.9919490058686691
 50
179.7080161654488109
 51
185.7254626035827982
  0
ARC
  5
154B2
  8
0
 10
8655.5814591920698149
 20
2137.5743913826340759
 30
0.0
 40
8.9129957503051962
 50
184.8038764165901
 51
197.5400786504511075
  0
ARC
  5
154B3
  8
0
 10
8647.7996069468263158
 20
2135.1160173274051886
 30
0.0
 40
0.7520637377811936
 50
197.6287349932441089
 51
238.4211579106361114
  0
ARC
  5
154B4
  8
0
 10
8647.5846879734235699
 20
2134.866554334409102
 30
0.0
 40
0.4302044024704018
 50
245.4249823444808101
 51
329.906417878417983
  0
ARC
  5
154B5
  8
0
 10
8646.2485063723725034
 20
2135.6969193241939138
 30
0.0
 40
2.0032215429126241
 50
328.5202910477905789
 51
347.8876631630707834
  0
ARC
  5
154B6
  8
0
 10
8638.1673091954507981
 20
2137.7003821961397989
 30
0.0
 40
10.3282545063338898
 50
346.4274547309320837
 51
353.0322510694489893
  0
ARC
  5
154B7
  8
0
 10
8616.8099372375072562
 20
2140.3538669767331157
 30
0.0
 40
31.8498185414738089
 50
352.9548762689145178
 51
357.4995017273255939
  0
ARC
  5
154B8
  8
0
 10
8410.6596155858987913
 20
2149.5102671344770897
 30
0.0
 40
238.2033782892463023
 50
357.4625221760397835
 51
357.8132198713415164
  0
ARC
  5
154B9
  8
0
 10
-197046.6440819652925711
 20
7502.5586090871784108
 30
0.0
 40
205763.4218100004945882
 50
358.5093594515674909
 51
358.5150375192408205
  0
ARC
  5
154BA
  8
0
 10
8878.7789556843508763
 20
2143.8731409911401897
 30
0.0
 40
231.7125091890077897
 50
178.5093594515674909
 51
180.0185343605556056
  0
ARC
  5
154BB
  8
0
 10
5165.5376745594858221
 20
2142.6719608040521052
 30
0.0
 40
3481.5289662181148742
 50
359.9814656394443091
 51
0.0185343605556729
  0
ARC
  5
154BC
  8
0
 10
8693.7208655948415981
 20
2141.5306442494211296
 30
0.0
 40
46.6544094169861197
 50
179.9814656394443091
 51
186.3507244428251113
  0
ARC
  5
154BD
  8
0
 10
8654.892025584651492
 20
2137.3184708527628572
 30
0.0
 40
7.5986969612423083
 50
187.170352214941488
 51
195.863343613150505
  0
ARC
  5
154BE
  8
0
 10
8633.2664712755777146
 20
2138.7080628091080143
 30
0.0
 40
14.7299855960909891
 50
346.387956977370493
 51
357.1919043953158734
  0
ARC
  5
154BF
  8
0
 10
8595.3388672802248038
 20
2141.653191586578032
 30
0.0
 40
52.7674564582936512
 50
356.0153556666084
 51
359.043461426590909
  0
ARC
  5
154C0
  8
0
 10
8645.702749906682584
 20
2146.0840336440519422
 30
0.0
 40
0.8402736485000001
 50
294.894525176874879
 51
338.4002866226504125
  0
ARC
  5
154C1
  8
0
 10
8645.702749906682584
 20
2146.0840336440519422
 30
0.0
 40
0.8402736485000001
 50
20.5155017637571291
 51
245.1054748231250926
  0
ARC
  5
154C2
  8
0
 10
8645.702749906682584
 20
2146.0840336440519422
 30
0.0
 40
0.7897035813999996
 50
6.3576736150407438
 51
352.5581147713689916
  0
ARC
  5
154C3
  8
0
 10
8645.702749906682584
 20
2146.0840336440519422
 30
0.0
 40
0.8277025974513319
 50
18.1348164086880992
 51
340.7809719777202986
  0
LINE
  5
154C4
  8
0
 10
8645.3491558785754023
 20
2145.2992153379368574
 30
0.0
 11
8645.3489645688896417
 21
2145.3357505929338913
 31
0.0
  0
ARC
  5
154C5
  8
0
 10
8645.7027501021584612
 20
2146.0389860849131765
 30
0.0
 40
0.8267726807756512
 50
245.2126811507064872
 51
269.999986453534575
  0
ARC
  5
154C6
  8
0
 10
8645.3611557140648074
 20
2145.2992781727180045
 30
0.0
 40
0.012
 50
180.3000153513168868
 51
245.2126811512889049
  0
LINE
  5
154C7
  8
0
 10
8646.0563439347897656
 20
2145.2992153379368574
 30
0.0
 11
8646.0565352444737073
 21
2145.3357505929338913
 31
0.0
  0
ARC
  5
154C8
  8
0
 10
8645.7027497112103447
 20
2146.0389860849131765
 30
0.0
 40
0.8267726807756512
 50
270.000013546465425
 51
294.7873188492933991
  0
ARC
  5
154C9
  8
0
 10
8646.0443440993003605
 20
2145.2992781727180045
 30
0.0
 40
0.012
 50
294.7873188487110951
 51
359.6999846486830279
  0
LINE
  5
154CA
  8
0
 10
8649.4035373082824663
 20
2145.276947029852181
 30
0.0
 11
8649.3641672295834724
 21
2145.276947029852181
 31
0.0
  0
LINE
  5
154CB
  8
0
 10
8647.2521542076465266
 20
2177.8949791191898839
 30
0.0
 11
8645.9818781192043389
 21
2182.6609949527251047
 31
0.0
  0
ARC
  5
154CC
  8
0
 10
8637.4554653881841659
 20
2177.5051098353951602
 30
0.0
 40
9.9942181358480102
 50
24.1519019010621214
 51
30.9251956675997413
  0
ARC
  5
154CD
  8
0
 10
8633.8481386450694117
 20
2175.8875514208648383
 30
0.0
 40
13.9476092695435891
 50
10.6554310950186402
 51
24.1519019010621214
  0
ARC
  5
154CE
  8
0
 10
8628.6361972171562229
 20
2174.6225305107432177
 30
0.0
 40
19.3056094429154683
 50
7.211081883808184
 51
11.4849941792675398
  0
ARC
  5
154CF
  8
0
 10
8628.3161282569708419
 20
2174.5992215496289646
 30
0.0
 40
19.6260800669220608
 50
2.969635265321779
 51
7.1613005039995832
  0
ARC
  5
154D0
  8
0
 10
8629.4984525986346853
 20
2174.6491607178631966
 30
0.0
 40
18.4427597593848915
 50
356.8878481697652205
 51
3.0049900124909481
  0
ARC
  5
154D1
  8
0
 10
8644.7495269812407059
 20
2173.7693187665840924
 30
0.0
 40
3.1668144000526959
 50
355.6749266700858811
 51
357.802547380981423
  0
ARC
  5
154D2
  8
0
 10
8647.8958557603746158
 20
2173.531360415652216
 30
0.0
 40
0.0115
 50
270.0
 51
355.6749266700858811
  0
ARC
  5
154D3
  8
0
 10
8636.7845515276421793
 20
2175.3378873362271406
 30
0.0
 40
10.7754083102663802
 50
8.7758713657878094
 51
13.7277171281280594
  0
ARC
  5
154D4
  8
0
 10
8647.4307454562222119
 20
2176.888730955507981
 30
0.0
 40
0.0932070829957141
 50
69.2043842676358167
 51
88.1163847527829631
  0
ARC
  5
154D5
  8
0
 10
8631.3242041719004192
 20
2174.3702824203460295
 30
0.0
 40
16.3486030506462292
 50
357.0565258940175113
 51
9.1707090086158285
  0
ARC
  5
154D6
  8
0
 10
8647.6397533798626682
 20
2173.531360415652216
 30
0.0
 40
0.0115
 50
270.0
 51
357.0565258940436024
  0
ARC
  5
154D7
  8
0
 10
8651.7128691818561492
 20
2158.1257763685730424
 30
0.0
 40
25.1956585453184587
 50
103.1475459441681011
 51
104.3440061470185043
  0
ARC
  5
154D8
  8
0
 10
8645.9856631294023828
 20
2182.6040166718162254
 30
0.0
 40
0.0571038597427459
 50
40.7923917727844128
 51
93.8005175518437824
  0
LINE
  5
154D9
  8
0
 10
8645.4401672297844925
 20
2182.4960870278518996
 30
0.0
 11
8646.6234844303708087
 21
2178.0339254698737932
 31
0.0
  0
ARC
  5
154DA
  8
0
 10
8645.4795639008334547
 20
2182.4975382082120632
 30
0.0
 40
0.0394233891792613
 50
102.8200611276937053
 51
182.1095420814878878
  0
ARC
  5
154DB
  8
0
 10
8616.7230975913862494
 20
2171.2732459946792005
 30
0.0
 40
30.6551777043833305
 50
10.4778202015501201
 51
12.7407260547991701
  0
ARC
  5
154DC
  8
0
 10
8636.9197336504894338
 20
2174.9698997172340569
 30
0.0
 40
10.1231290969894392
 50
1.698031903780882
 51
10.6920105401074199
  0
ARC
  5
154DD
  8
0
 10
8618.1648286088311579
 20
2174.3593067538299692
 30
0.0
 40
28.8879430562823813
 50
359.0085677592073239
 51
1.8062872324492281
  0
ARC
  5
154DE
  8
0
 10
8978.7653721462193062
 20
2170.4005968033770841
 30
0.0
 40
331.7349577635717992
 50
179.4025894771673961
 51
179.4592417251959944
  0
ARC
  5
154DF
  8
0
 10
8647.056688585140364
 20
2173.531360415652216
 30
0.0
 40
0.0115
 50
179.4592417251699032
 51
270.0
  0
ARC
  5
154E0
  8
0
 10
8636.2928316293036914
 20
2174.8625030764251278
 30
0.0
 40
10.6204017999931999
 50
2.3448146610998601
 51
10.2654945115452101
  0
ARC
  5
154E1
  8
0
 10
8611.6995221785364265
 20
2174.0551518168717848
 30
0.0
 40
35.2267157094410308
 50
359.1483069932934882
 51
2.0202987451186609
  0
ARC
  5
154E2
  8
0
 10
8646.9338447767222533
 20
2173.531360415652216
 30
0.0
 40
0.0115
 50
179.1483069933456136
 51
270.0
  0
LINE
  5
154E3
  8
0
 10
8645.4430005823487591
 20
2182.4383947860228545
 30
0.0
 11
8646.4848365910420398
 21
2178.5049558759328647
 31
0.0
  0
ARC
  5
154E4
  8
0
 10
8535.1366755065118923
 20
2177.6387973263717868
 30
0.0
 40
110.4103869642242017
 50
2.4928095526737168
 51
2.5214298778646951
  0
ARC
  5
154E5
  8
0
 10
8645.4564744634426461
 20
2182.4419120603402007
 30
0.0
 40
0.0139253973507418
 50
183.8058781875650141
 51
194.6302251889661932
  0
ARC
  5
154E6
  8
0
 10
8648.9897010579516063
 20
2176.227633347846222
 30
0.0
 40
2.3086191675331129
 50
164.8578806588614043
 51
166.6553882408842071
  0
ARC
  5
154E7
  8
0
 10
8646.7555276827461057
 20
2176.7573888200768124
 30
0.0
 40
0.0125
 50
165.6837205084634945
 51
190.2654945115451994
  0
ARC
  5
154E8
  8
0
 10
8645.4629042693613883
 20
2177.1133206790241275
 30
0.0
 40
1.328740111012414
 50
347.7184800117416899
 51
351.5402364994433242
  0
ARC
  5
154E9
  8
0
 10
8645.9315349823646102
 20
2177.0498746618550285
 30
0.0
 40
0.8558968830277175
 50
351.1260710927625155
 51
3.8948541510782269
  0
ARC
  5
154EA
  8
0
 10
8646.0518193281823187
 20
2177.0578313383020941
 30
0.0
 40
0.7353499218480245
 50
3.912938315275555
 51
12.4548834427611297
  0
ARC
  5
154EB
  8
0
 10
8605.6203148771546694
 20
2168.4853706353887901
 30
0.0
 40
42.0656233697715933
 50
11.97927964531541
 51
12.7937248194016906
  0
ARC
  5
154EC
  8
0
 10
8615.1119801347558678
 20
2171.1542481845140173
 30
0.0
 40
32.2224925446717592
 50
11.9032574705953902
 51
13.1866193227793609
  0
ARC
  5
154ED
  8
0
 10
8620.8288460332896648
 20
2169.0863504988888053
 30
0.0
 40
27.0697790484963186
 50
18.4767324600122187
 51
19.9004662972434687
  0
ARC
  5
154EE
  8
0
 10
8646.3319103231897316
 20
2178.2246371922637991
 30
0.0
 40
0.0029544007172485
 50
107.5262596864079967
 51
136.4835298516273099
  0
ARC
  5
154EF
  8
0
 10
8646.3332275031043537
 20
2178.223386515393031
 30
0.0
 40
0.0047707584911513
 50
136.483529851589509
 51
165.822604457182706
  0
ARC
  5
154F0
  8
0
 10
8646.349273036195882
 20
2178.2193331063040205
 30
0.0
 40
0.0213203584077557
 50
165.822604457182706
 51
173.9118028779568874
  0
ARC
  5
154F1
  8
0
 10
8646.3911118196283496
 20
2178.2191952722541828
 30
0.0
 40
0.063084524636296
 50
177.8205609127936953
 51
190.0099884418899876
  0
ARC
  5
154F2
  8
0
 10
8646.6647883037458087
 20
2178.2658172139417729
 30
0.0
 40
0.3407028134778136
 50
189.7311339350005994
 51
196.2061436825192118
  0
ARC
  5
154F3
  8
0
 10
8647.7926688748757442
 20
2178.5774836760110702
 30
0.0
 40
1.510829459361088
 50
195.6182155815058081
 51
198.1897170595088085
  0
ARC
  5
154F4
  8
0
 10
8653.1325702041485783
 20
2180.3320920094452049
 30
0.0
 40
7.1316120214343206
 50
198.1897170595088085
 51
199.0445216564012867
  0
ARC
  5
154F5
  8
0
 10
8653.0019190932380297
 20
2180.286991634811784
 30
0.0
 40
6.9933956816853184
 50
199.0445216564012867
 51
199.6622065863919033
  0
ARC
  5
154F6
  8
0
 10
8650.3613494067903957
 20
2179.3296115238008497
 30
0.0
 40
4.1846772419197054
 50
199.4831947854451073
 51
200.9248338554093039
  0
ARC
  5
154F7
  8
0
 10
8647.376052553545378
 20
2178.1827325614640358
 30
0.0
 40
0.9866747603408429
 50
200.6307387682581975
 51
206.0766572657751112
  0
ARC
  5
154F8
  8
0
 10
8646.6379267676638847
 20
2177.8215012852551808
 30
0.0
 40
0.164897594257185
 50
206.0766572657751112
 51
218.3268893355098896
  0
ARC
  5
154F9
  8
0
 10
8646.5387179341687443
 20
2177.7430752426589606
 30
0.0
 40
0.0384340153086431
 50
218.3268893355098896
 51
237.1879993239979001
  0
ARC
  5
154FA
  8
0
 10
8646.5248693316789286
 20
2177.7215962993491303
 30
0.0
 40
0.0128776306540952
 50
237.1879993239979001
 51
259.8358798248888206
  0
ARC
  5
154FB
  8
0
 10
8646.5242459487380984
 20
2177.7181191905369815
 30
0.0
 40
0.0093450831341021
 50
259.8358798248888206
 51
295.2290728158914135
  0
ARC
  5
154FC
  8
0
 10
8646.5245507085928693
 20
2177.7174723949619874
 30
0.0
 40
0.0086300844718032
 50
295.229072815902498
 51
327.4764813970195974
  0
ARC
  5
154FD
  8
0
 10
8646.5050568506194395
 20
2177.7299026044620405
 30
0.0
 40
0.0317497861764768
 50
327.4764813970195974
 51
347.2592173334173822
  0
ARC
  5
154FE
  8
0
 10
8646.4602052358914079
 20
2177.740043904157119
 30
0.0
 40
0.0777336235883209
 50
347.2592173334173822
 51
353.320408040461416
  0
ARC
  5
154FF
  8
0
 10
8646.4177544784361089
 20
2177.7450153935969865
 30
0.0
 40
0.1204744999938705
 50
353.320408040461416
 51
5.3216623510693246
  0
ARC
  5
15500
  8
0
 10
8645.9857861487744231
 20
2177.7047781736700927
 30
0.0
 40
0.5543128013217974
 50
5.3216623510693246
 51
8.148808672722188
  0
ARC
  5
15501
  8
0
 10
8646.1599640767271922
 20
2177.7297187648650834
 30
0.0
 40
0.3783583081260298
 50
8.148808672722188
 51
18.0312485406965983
  0
ARC
  5
15502
  8
0
 10
8644.5198791092116153
 20
2177.1958337608598413
 30
0.0
 40
2.1031515995587711
 50
18.0312485406965983
 51
21.19266550424895
  0
ARC
  5
15503
  8
0
 10
8645.2218733442878147
 20
2177.4680160024950055
 30
0.0
 40
1.350237873597157
 50
21.19266550424895
 51
31.5862630145873311
  0
ARC
  5
15504
  8
0
 10
8645.7194458310204936
 20
2177.7739602165579527
 30
0.0
 40
0.7661315119882011
 50
31.5862630145873311
 51
35.0683716094071229
  0
ARC
  5
15505
  8
0
 10
8646.2979996581871092
 20
2178.1800977160360162
 30
0.0
 40
0.0592565588237902
 50
35.0683716094071229
 51
43.6021329143832617
  0
ARC
  5
15506
  8
0
 10
8646.2974351298726106
 20
2178.1795600829109389
 30
0.0
 40
0.0600361366565177
 50
43.6021329143832617
 51
51.1126745833421481
  0
ARC
  5
15507
  8
0
 10
8646.3313773904865229
 20
2178.2216442335679858
 30
0.0
 40
0.005969947663186
 50
51.1126745833421481
 51
78.9001246231376427
  0
ARC
  5
15508
  8
0
 10
8646.3318783548729698
 20
2178.2241976997797792
 30
0.0
 40
0.0033678033534982
 50
78.9001246231376427
 51
104.7549103140099049
  0
ARC
  5
15509
  8
0
 10
8596.1924650801138341
 20
2160.7150689547502225
 30
0.0
 40
53.0869777937277476
 50
19.3451508434526716
 51
19.6016478478035516
  0
ARC
  5
1550A
  8
0
 10
8646.3706442699476611
 20
2178.5468413408289052
 30
0.0
 40
0.0793490106417048
 50
183.8352610302127914
 51
189.3633252406040128
  0
ARC
  5
1550B
  8
0
 10
8646.3249758891943202
 20
2178.5437798198950077
 30
0.0
 40
0.0335781256700472
 50
177.4533188248825866
 51
183.8352610302127914
  0
ARC
  5
1550C
  8
0
 10
8646.3062316517680301
 20
2178.5446135123188469
 30
0.0
 40
0.0148153572247003
 50
163.4086285875889075
 51
177.4533188248825866
  0
ARC
  5
1550D
  8
0
 10
8646.2959462479757349
 20
2178.5476780378248804
 30
0.0
 40
0.0040831231727754
 50
131.4718064052065074
 51
163.4086285876138049
  0
ARC
  5
1550E
  8
0
 10
8646.2947665349984163
 20
2178.549012783651051
 30
0.0
 40
0.0023017559643521
 50
107.8212311903593985
 51
131.4718064051720035
  0
ARC
  5
1550F
  8
0
 10
8646.2951233156545641
 20
2178.5479029551179337
 30
0.0
 40
0.0034675225837568
 50
92.2833190314056679
 51
107.8212311904666052
  0
ARC
  5
15510
  8
0
 10
8646.2951386594086216
 20
2178.547518135097107
 30
0.0
 40
0.0038526483805377
 50
71.806611479156004
 51
92.2833190315097767
  0
ARC
  5
15511
  8
0
 10
8646.2934550731715717
 20
2178.5423954863140352
 30
0.0
 40
0.0092448643593461
 50
57.9961529310801396
 51
71.806611479156004
  0
ARC
  5
15512
  8
0
 10
8646.2675240222251887
 20
2178.5108565366699622
 30
0.0
 40
0.0500120913458153
 50
35.034192536894821
 51
51.941690879693553
  0
ARC
  5
15513
  8
0
 10
8645.9701682685317792
 20
2178.311170753002898
 30
0.0
 40
0.4081859454505551
 50
18.7115601552989688
 51
34.0239272960721166
  0
ARC
  5
15514
  8
0
 10
8646.1503383569179277
 20
2178.3721954825568901
 30
0.0
 40
0.2179616610752202
 50
11.7203555177522993
 51
18.7115601552989688
  0
ARC
  5
15515
  8
0
 10
8646.3118414646014571
 20
2178.4057010107471797
 30
0.0
 40
0.0530196281936331
 50
358.5600445100814113
 51
11.7203555177522993
  0
ARC
  5
15516
  8
0
 10
8646.3399599803124147
 20
2178.4049941883931751
 30
0.0
 40
0.0248922300985656
 50
347.8149463112641797
 51
358.5600445100814113
  0
ARC
  5
15517
  8
0
 10
8646.3601186471096298
 20
2178.4010667235361325
 30
0.0
 40
0.0044481912383033
 50
245.77848673460079
 51
309.3422134153527736
  0
ARC
  5
15518
  8
0
 10
8646.3603694420671673
 20
2178.4007607721509885
 30
0.0
 40
0.0040525849181329
 50
309.342213415336289
 51
345.4138823881961002
  0
ARC
  5
15519
  8
0
 10
8646.368004946893052
 20
2178.4171707973227967
 30
0.0
 40
0.0223776880753139
 50
216.9928042987245931
 51
244.280246071666312
  0
ARC
  5
1551A
  8
0
 10
8646.3082913910038769
 20
2178.3721851621280621
 30
0.0
 40
0.0523847097646397
 50
36.9928042987245931
 51
42.7664098767485115
  0
ARC
  5
1551B
  8
0
 10
8646.3428622563569661
 20
2178.3923571091208942
 30
0.0
 40
0.0158806925585714
 50
75.835086066604191
 51
104.9177449192364975
  0
LINE
  5
1551C
  8
0
 10
8646.3387740567286528
 20
2178.4077025651231452
 30
0.0
 11
8646.292434508444785
 21
2178.3953515766011151
 31
0.0
  0
ARC
  5
1551D
  8
0
 10
8646.2871564078141091
 20
2178.4158852804639537
 30
0.0
 40
0.0212012108283542
 50
261.4330661456331768
 51
284.4155524687959087
  0
ARC
  5
1551E
  8
0
 10
8646.2871979122992343
 20
2178.4161607281512261
 30
0.0
 40
0.0214797679145736
 50
235.7389023422261118
 51
261.4330410330500172
  0
ARC
  5
1551F
  8
0
 10
8646.2992094777073362
 20
2178.433794731900889
 30
0.0
 40
0.0428160232522475
 50
211.5992814302296949
 51
235.7389023422261118
  0
ARC
  5
15520
  8
0
 10
8646.5332560905535502
 20
2178.5777771226398727
 30
0.0
 40
0.317604570733665
 50
204.9068405177750094
 51
211.5992814302296949
  0
ARC
  5
15521
  8
0
 10
8646.4123173708794639
 20
2178.521621687149036
 30
0.0
 40
0.1842643785499413
 50
193.6257039994499962
 51
204.9068405177750094
  0
ARC
  5
15522
  8
0
 10
8646.3097588231394184
 20
2178.4967614553102067
 30
0.0
 40
0.0787357718063529
 50
181.9741989282643999
 51
193.6257039994499962
  0
ARC
  5
15523
  8
0
 10
8646.2528527029971883
 20
2178.4947999062569579
 30
0.0
 40
0.0217958544880057
 50
149.9100914505218043
 51
181.9741989282643999
  0
ARC
  5
15524
  8
0
 10
8646.2524917906375777
 20
2178.4950090349148013
 30
0.0
 40
0.0213787303730571
 50
106.5494745620933941
 51
149.9100914505218043
  0
ARC
  5
15525
  8
0
 10
8646.2543809974922624
 20
2178.4886513441351781
 30
0.0
 40
0.0280111759695303
 50
103.2988345602698956
 51
106.5494745620933941
  0
LINE
  5
15526
  8
0
 10
8646.2479375883103785
 20
2178.5159113598588192
 30
0.0
 11
8646.2814408794256451
 21
2178.5248410222229722
 31
0.0
  0
ARC
  5
15527
  8
0
 10
8646.27695589115865
 20
2178.5413183317168659
 30
0.0
 40
0.0170767926719674
 50
285.2265576772077793
 51
334.3702550413127028
  0
ARC
  5
15528
  8
0
 10
8646.2623760951992153
 20
2178.4336615172151141
 30
0.0
 40
0.0058830599626479
 50
223.7162454064136909
 51
240.8516135447964075
  0
ARC
  5
15529
  8
0
 10
8646.260319968652766
 20
2178.4299747172030948
 30
0.0
 40
0.0016616679274788
 50
240.851613544783703
 51
258.2565684613873032
  0
ARC
  5
1552A
  8
0
 10
8646.2602458802193723
 20
2178.429618318402845
 30
0.0
 40
0.0012976497957425
 50
258.2565684612799259
 51
273.9167638869989787
  0
ARC
  5
1552B
  8
0
 10
8646.260285168489645
 20
2178.4290444915050102
 30
0.0
 40
0.0007224794938116
 50
273.9167638871030022
 51
302.4945898925627716
  0
ARC
  5
1552C
  8
0
 10
8646.2601334942828544
 20
2178.4292826219361814
 30
0.0
 40
0.0010048111542966
 50
302.4945898923029972
 51
326.0264401293234755
  0
ARC
  5
1552D
  8
0
 10
8646.2595982319071481
 20
2178.4296433016938863
 30
0.0
 40
0.0016502534045626
 50
326.0264401294464847
 51
342.5538806699273096
  0
ARC
  5
1552E
  8
0
 10
8646.2573080135898635
 20
2178.430363037639836
 30
0.0
 40
0.0040509032704642
 50
342.5538806698959888
 51
357.404301723000799
  0
ARC
  5
1552F
  8
0
 10
8646.2488785191435454
 20
2178.4307451845597825
 30
0.0
 40
0.0124890554908465
 50
357.4043017229748216
 51
3.3010513036249169
  0
ARC
  5
15530
  8
0
 10
8646.2429856263206602
 20
2178.4304052940110523
 30
0.0
 40
0.0183917422850321
 50
3.3010513036249169
 51
12.6760305223072294
  0
ARC
  5
15531
  8
0
 10
8646.1815103247572551
 20
2178.4165782580230371
 30
0.0
 40
0.0814028494513043
 50
12.6760305223072294
 51
19.3599321843566514
  0
ARC
  5
15532
  8
0
 10
8646.1455233791948558
 20
2178.403933534179032
 30
0.0
 40
0.1195466470119366
 50
19.3599321843566514
 51
24.7413082874506394
  0
ARC
  5
15533
  8
0
 10
8646.1480972943500092
 20
2178.4051196519089899
 30
0.0
 40
0.1167125837605211
 50
24.7413082874506394
 51
32.4703708655295102
  0
ARC
  5
15534
  8
0
 10
8646.2303015507623059
 20
2178.4574297956769442
 30
0.0
 40
0.0192759843060343
 50
32.4703708655295102
 51
47.1022293409847777
  0
ARC
  5
15535
  8
0
 10
8646.2408196226442669
 20
2178.468749472278887
 30
0.0
 40
0.0038239645526854
 50
47.1022293409847777
 51
68.8361970189978649
  0
ARC
  5
15536
  8
0
 10
8646.241862934173696
 20
2178.4714443384118567
 30
0.0
 40
0.0009341890560208
 50
68.8361970187846737
 51
112.4473313172757969
  0
ARC
  5
15537
  8
0
 10
8646.2417347306272859
 20
2178.471754655670793
 30
0.0
 40
0.0005984317766152
 50
112.4473313175182057
 51
130.1246705405528132
  0
ARC
  5
15538
  8
0
 10
8646.2421271015991806
 20
2178.4712891071608283
 30
0.0
 40
0.0012072752660685
 50
130.1246705405359876
 51
162.3868036273671009
  0
ARC
  5
15539
  8
0
 10
8646.2452924039662321
 20
2178.4702842116521424
 30
0.0
 40
0.0045282621773488
 50
162.3868036274234896
 51
179.1591020398944067
  0
ARC
  5
1553A
  8
0
 10
8646.2551806778992614
 20
2178.47013907659084
 30
0.0
 40
0.0144176011631306
 50
179.1591020398944067
 51
187.8613850910772953
  0
ARC
  5
1553B
  8
0
 10
8646.282073035283247
 20
2178.4738522279940298
 30
0.0
 40
0.0415650942138777
 50
187.8613850910772953
 51
198.5608921966384059
  0
ARC
  5
1553C
  8
0
 10
8646.4190081798096799
 20
2178.5198319672449543
 30
0.0
 40
0.1860135979375275
 50
198.5608921966384059
 51
203.1598118175413106
  0
ARC
  5
1553D
  8
0
 10
8646.3265427876958711
 20
2178.4802779972969802
 30
0.0
 40
0.0854433971948292
 50
203.1598118175413106
 51
212.0178318340377928
  0
ARC
  5
1553E
  8
0
 10
8646.2882135348845623
 20
2178.456310631901033
 30
0.0
 40
0.0402375764956625
 50
212.0178318340377928
 51
221.6000787484493912
  0
ARC
  5
1553F
  8
0
 10
8646.3272823616462119
 20
2178.8199626728319345
 30
0.0
 40
0.0793490106417048
 50
183.8352610302127914
 51
189.3633252406040128
  0
ARC
  5
15540
  8
0
 10
8646.28161398089469
 20
2178.8169011518989464
 30
0.0
 40
0.0335781256700472
 50
177.4533188248825866
 51
183.8352610302127914
  0
ARC
  5
15541
  8
0
 10
8646.262869743466581
 20
2178.8177348443218762
 30
0.0
 40
0.0148153572247003
 50
163.4086285875889075
 51
177.4533188248825866
  0
ARC
  5
15542
  8
0
 10
8646.2525843396742857
 20
2178.8207993698279097
 30
0.0
 40
0.0040831231727754
 50
131.4718064052065074
 51
163.4086285876138049
  0
ARC
  5
15543
  8
0
 10
8646.2514046266933292
 20
2178.8221341156531707
 30
0.0
 40
0.0023017559643521
 50
107.8212311903593985
 51
131.4718064051720035
  0
ARC
  5
15544
  8
0
 10
8646.2517614073531149
 20
2178.8210242871200535
 30
0.0
 40
0.0034675225837568
 50
92.2833190314056679
 51
107.8212311904666052
  0
ARC
  5
15545
  8
0
 10
8646.2517767511071725
 20
2178.8206394671001362
 30
0.0
 40
0.0038526483805377
 50
71.806611479156004
 51
92.2833190315097767
  0
ARC
  5
15546
  8
0
 10
8646.2500931648701226
 20
2178.815516818317974
 30
0.0
 40
0.0092448643593461
 50
57.9961529310801396
 51
71.806611479156004
  0
ARC
  5
15547
  8
0
 10
8646.2241621139255585
 20
2178.783977868673901
 30
0.0
 40
0.0500120913458153
 50
35.034192536894821
 51
51.941690879693553
  0
ARC
  5
15548
  8
0
 10
8645.92680636023033
 20
2178.5842920850050177
 30
0.0
 40
0.4081859454505551
 50
18.7115601552989688
 51
34.0239272960721166
  0
ARC
  5
15549
  8
0
 10
8646.1069764486164786
 20
2178.6453168145590098
 30
0.0
 40
0.2179616610752202
 50
11.7203555177522993
 51
18.7115601552989688
  0
ARC
  5
1554A
  8
0
 10
8646.268479556301827
 20
2178.6788223427511184
 30
0.0
 40
0.0530196281936331
 50
358.5600445100814113
 51
11.7203555177522993
  0
ARC
  5
1554B
  8
0
 10
8646.2965980720109656
 20
2178.6781155203962044
 30
0.0
 40
0.0248922300985656
 50
347.8149463112641797
 51
358.5600445100814113
  0
ARC
  5
1554C
  8
0
 10
8646.3167567388081807
 20
2178.6741880555391617
 30
0.0
 40
0.0044481912383033
 50
245.77848673460079
 51
309.3422134153527736
  0
ARC
  5
1554D
  8
0
 10
8646.3170075337657181
 20
2178.6738821041540177
 30
0.0
 40
0.0040525849181329
 50
309.342213415336289
 51
345.4138823881961002
  0
ARC
  5
1554E
  8
0
 10
8646.3246430385916028
 20
2178.690292129325826
 30
0.0
 40
0.0223776880753139
 50
216.9928042987245931
 51
244.280246071666312
  0
ARC
  5
1554F
  8
0
 10
8646.2649294827024278
 20
2178.6453064941301818
 30
0.0
 40
0.0523847097646397
 50
36.9928042987245931
 51
42.7664098767485115
  0
ARC
  5
15550
  8
0
 10
8646.299500348055517
 20
2178.6654784411239234
 30
0.0
 40
0.0158806925585714
 50
75.835086066604191
 51
104.9177449192364975
  0
LINE
  5
15551
  8
0
 10
8646.2954121484253847
 20
2178.6808238971261744
 30
0.0
 11
8646.2490726001433359
 21
2178.6684729086041443
 31
0.0
  0
ARC
  5
15552
  8
0
 10
8646.243794499514479
 20
2178.6890066124669829
 30
0.0
 40
0.0212012108283542
 50
261.4330661456331768
 51
284.4155524687959087
  0
ARC
  5
15553
  8
0
 10
8646.2438360039959662
 20
2178.6892820601551648
 30
0.0
 40
0.0214797679145736
 50
235.7389023422261118
 51
261.4330410330500172
  0
ARC
  5
15554
  8
0
 10
8646.255847569405887
 20
2178.7069160639039183
 30
0.0
 40
0.0428160232522475
 50
211.5992814302296949
 51
235.7389023422261118
  0
ARC
  5
15555
  8
0
 10
8646.489894182250282
 20
2178.8508984546438114
 30
0.0
 40
0.317604570733665
 50
204.9068405177750094
 51
211.5992814302296949
  0
ARC
  5
15556
  8
0
 10
8646.3689554625743767
 20
2178.7947430191520652
 30
0.0
 40
0.1842643785499413
 50
193.6257039994499962
 51
204.9068405177750094
  0
ARC
  5
15557
  8
0
 10
8646.2663969148361502
 20
2178.7698827873127811
 30
0.0
 40
0.0787357718063529
 50
181.9741989282643999
 51
193.6257039994499962
  0
ARC
  5
15558
  8
0
 10
8646.2094907946957392
 20
2178.7679212382599871
 30
0.0
 40
0.0217958544880057
 50
149.9100914505218043
 51
181.9741989282643999
  0
ARC
  5
15559
  8
0
 10
8646.2091298823361285
 20
2178.7681303669178305
 30
0.0
 40
0.0213787303730571
 50
106.5494745620933941
 51
149.9100914505218043
  0
ARC
  5
1555A
  8
0
 10
8646.2110190891908132
 20
2178.7617726761382073
 30
0.0
 40
0.0280111759695303
 50
103.2988345602698956
 51
106.5494745620933941
  0
LINE
  5
1555B
  8
0
 10
8646.2045756800089293
 20
2178.7890326918632127
 30
0.0
 11
8646.2380789711260149
 21
2178.797962354226911
 31
0.0
  0
ARC
  5
1555C
  8
0
 10
8646.2335939828535629
 20
2178.8144396637208047
 30
0.0
 40
0.0170767926719674
 50
285.2265576772077793
 51
334.3702550413127028
  0
ARC
  5
1555D
  8
0
 10
8646.2190141868977662
 20
2178.7067828492190529
 30
0.0
 40
0.0058830599626479
 50
223.7162454064136909
 51
240.8516135447964075
  0
ARC
  5
1555E
  8
0
 10
8646.2169580603494978
 20
2178.703096049206124
 30
0.0
 40
0.0016616679274788
 50
240.851613544783703
 51
258.2565684613873032
  0
ARC
  5
1555F
  8
0
 10
8646.2168839719179232
 20
2178.7027396504058743
 30
0.0
 40
0.0012976497957425
 50
258.2565684612799259
 51
273.9167638869989787
  0
ARC
  5
15560
  8
0
 10
8646.2169232601881959
 20
2178.702165823508949
 30
0.0
 40
0.0007224794938116
 50
273.9167638871030022
 51
302.4945898925627716
  0
ARC
  5
15561
  8
0
 10
8646.2167715859814052
 20
2178.7024039539392106
 30
0.0
 40
0.0010048111542966
 50
302.4945898923029972
 51
326.0264401293234755
  0
ARC
  5
15562
  8
0
 10
8646.216236323607518
 20
2178.7027646336969156
 30
0.0
 40
0.0016502534045626
 50
326.0264401294464847
 51
342.5538806699273096
  0
ARC
  5
15563
  8
0
 10
8646.2139461052884144
 20
2178.7034843696428652
 30
0.0
 40
0.0040509032704642
 50
342.5538806698959888
 51
357.404301723000799
  0
ARC
  5
15564
  8
0
 10
8646.2055166108420963
 20
2178.7038665165628117
 30
0.0
 40
0.0124890554908465
 50
357.4043017229748216
 51
3.3010513036249169
  0
ARC
  5
15565
  8
0
 10
8646.1996237180173921
 20
2178.7035266260140816
 30
0.0
 40
0.0183917422850321
 50
3.3010513036249169
 51
12.6760305223072294
  0
ARC
  5
15566
  8
0
 10
8646.138148416457625
 20
2178.6896995900260663
 30
0.0
 40
0.0814028494513043
 50
12.6760305223072294
 51
19.3599321843566514
  0
ARC
  5
15567
  8
0
 10
8646.1021614708897687
 20
2178.6770548661820612
 30
0.0
 40
0.1195466470119366
 50
19.3599321843566514
 51
24.7413082874506394
  0
ARC
  5
15568
  8
0
 10
8646.104735386050379
 20
2178.6782409839129286
 30
0.0
 40
0.1167125837605211
 50
24.7413082874506394
 51
32.4703708655295102
  0
ARC
  5
15569
  8
0
 10
8646.1869396424590377
 20
2178.7305511276799734
 30
0.0
 40
0.0192759843060343
 50
32.4703708655295102
 51
47.1022293409847777
  0
ARC
  5
1556A
  8
0
 10
8646.1974577143428178
 20
2178.7418708042819162
 30
0.0
 40
0.0038239645526854
 50
47.1022293409847777
 51
68.8361970189978649
  0
ARC
  5
1556B
  8
0
 10
8646.1985010258686088
 20
2178.744565670414886
 30
0.0
 40
0.0009341890560208
 50
68.8361970187846737
 51
112.4473313172757969
  0
ARC
  5
1556C
  8
0
 10
8646.1983728223258368
 20
2178.7448759876738222
 30
0.0
 40
0.0005984317766152
 50
112.4473313175182057
 51
130.1246705405528132
  0
ARC
  5
1556D
  8
0
 10
8646.1987651932977315
 20
2178.7444104391638575
 30
0.0
 40
0.0012072752660685
 50
130.1246705405359876
 51
162.3868036273671009
  0
ARC
  5
1556E
  8
0
 10
8646.2019304956647829
 20
2178.7434055436551716
 30
0.0
 40
0.0045282621773488
 50
162.3868036274234896
 51
179.1591020398944067
  0
ARC
  5
1556F
  8
0
 10
8646.2118187695978122
 20
2178.7432604085947787
 30
0.0
 40
0.0144176011631306
 50
179.1591020398944067
 51
187.8613850910772953
  0
ARC
  5
15570
  8
0
 10
8646.2387111269817979
 20
2178.7469735599970591
 30
0.0
 40
0.0415650942138777
 50
187.8613850910772953
 51
198.5608921966384059
  0
ARC
  5
15571
  8
0
 10
8646.3756462715082307
 20
2178.792953299248893
 30
0.0
 40
0.1860135979375275
 50
198.5608921966384059
 51
203.1598118175413106
  0
ARC
  5
15572
  8
0
 10
8646.2831808793944219
 20
2178.7533993293000094
 30
0.0
 40
0.0854433971948292
 50
203.1598118175413106
 51
212.0178318340377928
  0
ARC
  5
15573
  8
0
 10
8646.2448516265831131
 20
2178.7294319639040623
 30
0.0
 40
0.0402375764956625
 50
212.0178318340377928
 51
221.6000787484493912
  0
ARC
  5
15574
  8
0
 10
8646.2069413980589161
 20
2178.8493657932808674
 30
0.0
 40
0.0793490106417048
 50
183.8352610302127914
 51
189.3633252406040128
  0
ARC
  5
15575
  8
0
 10
8646.1612730173055752
 20
2178.8463042723460603
 30
0.0
 40
0.0335781256700472
 50
177.4533188248825866
 51
183.8352610302127914
  0
ARC
  5
15576
  8
0
 10
8646.1425287798792851
 20
2178.8471379647698996
 30
0.0
 40
0.0148153572247003
 50
163.4086285875889075
 51
177.4533188248825866
  0
ARC
  5
15577
  8
0
 10
8646.1322433760851709
 20
2178.8502024902768426
 30
0.0
 40
0.0040831231727754
 50
131.4718064052065074
 51
163.4086285876138049
  0
ARC
  5
15578
  8
0
 10
8646.1310636631096713
 20
2178.8515372361021036
 30
0.0
 40
0.0023017559643521
 50
107.8212311903593985
 51
131.4718064051720035
  0
ARC
  5
15579
  8
0
 10
8646.1314204437694571
 20
2178.8504274075689864
 30
0.0
 40
0.0034675225837568
 50
92.2833190314056679
 51
107.8212311904666052
  0
ARC
  5
1557A
  8
0
 10
8646.1314357875198766
 20
2178.8500425875481596
 30
0.0
 40
0.0038526483805377
 50
71.806611479156004
 51
92.2833190315097767
  0
ARC
  5
1557B
  8
0
 10
8646.1297522012846457
 20
2178.8449199387659974
 30
0.0
 40
0.0092448643593461
 50
57.9961529310801396
 51
71.806611479156004
  0
ARC
  5
1557C
  8
0
 10
8646.1038211503400817
 20
2178.8133809891210149
 30
0.0
 40
0.0500120913458153
 50
35.034192536894821
 51
51.941690879693553
  0
ARC
  5
1557D
  8
0
 10
8645.8064653966448532
 20
2178.6136952054539506
 30
0.0
 40
0.4081859454505551
 50
20.5145805273082793
 51
34.0239272960721166
  0
ARC
  5
1557E
  8
0
 10
8645.9866354850273638
 20
2178.6747199350079427
 30
0.0
 40
0.2179616610752202
 50
11.7203555177522993
 51
12.8650421256332503
  0
ARC
  5
1557F
  8
0
 10
8646.1481385927127121
 20
2178.7082254631991418
 30
0.0
 40
0.0530196281936331
 50
358.5600445100814113
 51
11.7203555177522993
  0
ARC
  5
15580
  8
0
 10
8646.1762571084236697
 20
2178.707518640843773
 30
0.0
 40
0.0248922300985656
 50
347.8149463112641797
 51
358.5600445100814113
  0
ARC
  5
15581
  8
0
 10
8646.1964157752208848
 20
2178.7035911759871851
 30
0.0
 40
0.0044481912383033
 50
245.77848673460079
 51
309.3422134153527736
  0
ARC
  5
15582
  8
0
 10
8646.1966665701802413
 20
2178.7032852246029506
 30
0.0
 40
0.0040525849181329
 50
309.342213415336289
 51
345.4138823881961002
  0
ARC
  5
15583
  8
0
 10
8646.204302075004307
 20
2178.7196952497752136
 30
0.0
 40
0.0223776880753139
 50
216.9928042987245931
 51
244.280246071666312
  0
ARC
  5
15584
  8
0
 10
8646.1445885191151319
 20
2178.6747096145791147
 30
0.0
 40
0.0523847097646397
 50
36.9928042987245931
 51
42.7664098767485115
  0
ARC
  5
15585
  8
0
 10
8646.1791593844682211
 20
2178.6948815615719468
 30
0.0
 40
0.0158806925585714
 50
75.835086066604191
 51
104.9177449192364975
  0
LINE
  5
15586
  8
0
 10
8646.1750711848380888
 20
2178.7102270175751073
 30
0.0
 11
8646.12873163655604
 21
2178.6978760290521677
 31
0.0
  0
ARC
  5
15587
  8
0
 10
8646.1234535359290021
 20
2178.7184097329150063
 30
0.0
 40
0.0212012108283542
 50
261.4330661456331768
 51
284.4155524687959087
  0
ARC
  5
15588
  8
0
 10
8646.1234950404086703
 20
2178.7186851806031882
 30
0.0
 40
0.0214797679145736
 50
235.7389023422261118
 51
261.4330410330500172
  0
ARC
  5
15589
  8
0
 10
8646.1355066058185912
 20
2178.7363191843519417
 30
0.0
 40
0.0428160232522475
 50
211.5992814302296949
 51
235.7389023422261118
  0
ARC
  5
1558A
  8
0
 10
8646.3695532186629862
 20
2178.8803015750909253
 30
0.0
 40
0.317604570733665
 50
204.9068405177750094
 51
211.5992814302296949
  0
ARC
  5
1558B
  8
0
 10
8646.2486144989907189
 20
2178.8241461396000886
 30
0.0
 40
0.1842643785499413
 50
193.6257039994499962
 51
204.9068405177750094
  0
ARC
  5
1558C
  8
0
 10
8646.1460559512506734
 20
2178.7992859077608045
 30
0.0
 40
0.0787357718063529
 50
181.9741989282643999
 51
193.6257039994499962
  0
ARC
  5
1558D
  8
0
 10
8646.0891498311102623
 20
2178.7973243587080105
 30
0.0
 40
0.0217958544880057
 50
149.9100914505218043
 51
181.9741989282643999
  0
ARC
  5
1558E
  8
0
 10
8646.0887889187506516
 20
2178.7975334873672182
 30
0.0
 40
0.0213787303730571
 50
106.5494745620933941
 51
149.9100914505218043
  0
ARC
  5
1558F
  8
0
 10
8646.0906781256035174
 20
2178.791175796585776
 30
0.0
 40
0.0280111759695303
 50
103.2988345602698956
 51
106.5494745620933941
  0
LINE
  5
15590
  8
0
 10
8646.0842347164216335
 20
2178.8184358123107813
 30
0.0
 11
8646.1177380075387191
 21
2178.8273654746749344
 31
0.0
  0
ARC
  5
15591
  8
0
 10
8646.1132530192699051
 20
2178.8438427841688281
 30
0.0
 40
0.0170767926719674
 50
285.2265576772077793
 51
334.3702550413127028
  0
ARC
  5
15592
  8
0
 10
8646.0986732233122893
 20
2178.7361859696670763
 30
0.0
 40
0.0058830599626479
 50
223.7162454064136909
 51
240.8516135447964075
  0
ARC
  5
15593
  8
0
 10
8646.096617096764021
 20
2178.7324991696550569
 30
0.0
 40
0.0016616679274788
 50
240.851613544783703
 51
258.2565684613873032
  0
ARC
  5
15594
  8
0
 10
8646.0965430083306273
 20
2178.7321427708538977
 30
0.0
 40
0.0012976497957425
 50
258.2565684612799259
 51
273.9167638869989787
  0
ARC
  5
15595
  8
0
 10
8646.096582296602719
 20
2178.7315689439569724
 30
0.0
 40
0.0007224794938116
 50
273.9167638871030022
 51
302.4945898925627716
  0
ARC
  5
15596
  8
0
 10
8646.0964306223959284
 20
2178.7318070743867793
 30
0.0
 40
0.0010048111542966
 50
302.4945898923029972
 51
326.0264401293234755
  0
ARC
  5
15597
  8
0
 10
8646.0958953600184032
 20
2178.732167754144939
 30
0.0
 40
0.0016502534045626
 50
326.0264401294464847
 51
342.5538806699273096
  0
ARC
  5
15598
  8
0
 10
8646.0936051416992996
 20
2178.7328874900917981
 30
0.0
 40
0.0040509032704642
 50
342.5538806698959888
 51
357.404301723000799
  0
ARC
  5
15599
  8
0
 10
8646.0851756472566194
 20
2178.7332696370121994
 30
0.0
 40
0.0124890554908465
 50
357.4043017229748216
 51
3.3010513036249169
  0
ARC
  5
1559A
  8
0
 10
8646.0792827544337342
 20
2178.7329297464630145
 30
0.0
 40
0.0183917422850321
 50
3.3010513036249169
 51
12.6760305223072294
  0
ARC
  5
1559B
  8
0
 10
8646.0178074528721481
 20
2178.7191027104749992
 30
0.0
 40
0.0814028494513043
 50
12.6760305223072294
 51
19.3599321843566514
  0
ARC
  5
1559C
  8
0
 10
8645.9818205073042918
 20
2178.7064579866309941
 30
0.0
 40
0.1195466470119366
 50
19.3599321843566514
 51
24.7413082874506394
  0
ARC
  5
1559D
  8
0
 10
8645.9843944224630832
 20
2178.707644104360952
 30
0.0
 40
0.1167125837605211
 50
24.7413082874506394
 51
32.4703708655295102
  0
ARC
  5
1559E
  8
0
 10
8646.0665986788753798
 20
2178.7599542481279968
 30
0.0
 40
0.0192759843060343
 50
32.4703708655295102
 51
47.1022293409847777
  0
ARC
  5
1559F
  8
0
 10
8646.0771167507555219
 20
2178.7712739247308491
 30
0.0
 40
0.0038239645526854
 50
47.1022293409847777
 51
68.8361970189978649
  0
ARC
  5
155A0
  8
0
 10
8646.07816006228677
 20
2178.7739687908638189
 30
0.0
 40
0.0009341890560208
 50
68.8361970187846737
 51
112.4473313172757969
  0
ARC
  5
155A1
  8
0
 10
8646.0780318587385409
 20
2178.7742791081232099
 30
0.0
 40
0.0005984317766152
 50
112.4473313175182057
 51
130.1246705405528132
  0
ARC
  5
155A2
  8
0
 10
8646.0784242297104356
 20
2178.7738135596127904
 30
0.0
 40
0.0012072752660685
 50
130.1246705405359876
 51
162.3868036273671009
  0
ARC
  5
155A3
  8
0
 10
8646.0815895320774871
 20
2178.7728086641041045
 30
0.0
 40
0.0045282621773488
 50
162.3868036274234896
 51
179.1591020398944067
  0
ARC
  5
155A4
  8
0
 10
8646.0914778060123353
 20
2178.7726635290428021
 30
0.0
 40
0.0144176011631306
 50
179.1591020398944067
 51
187.8613850910772953
  0
ARC
  5
155A5
  8
0
 10
8646.118370163394502
 20
2178.7763766804450825
 30
0.0
 40
0.0415650942138777
 50
187.8613850910772953
 51
198.5608921966384059
  0
ARC
  5
155A6
  8
0
 10
8646.2553053079209349
 20
2178.8223564196969164
 30
0.0
 40
0.1860135979375275
 50
198.5608921966384059
 51
203.1598118175413106
  0
ARC
  5
155A7
  8
0
 10
8646.1628399158071261
 20
2178.7828024497489423
 30
0.0
 40
0.0854433971948292
 50
203.1598118175413106
 51
212.0178318340377928
  0
ARC
  5
155A8
  8
0
 10
8646.1245106629958173
 20
2178.7588350843520857
 30
0.0
 40
0.0402375764956625
 50
212.0178318340377928
 51
221.6000787484493912
  0
ARC
  5
155A9
  8
0
 10
8646.2530234670266509
 20
2179.1578221979998489
 30
0.0
 40
0.0793490106417048
 50
183.8352610302127914
 51
189.3633252406040128
  0
ARC
  5
155AA
  8
0
 10
8646.20735508627331
 20
2179.1547606770659513
 30
0.0
 40
0.0335781256700472
 50
177.4533188248825866
 51
183.8352610302127914
  0
ARC
  5
155AB
  8
0
 10
8646.18861084884702
 20
2179.1555943694897906
 30
0.0
 40
0.0148153572247003
 50
163.4086285875889075
 51
177.4533188248825866
  0
ARC
  5
155AC
  8
0
 10
8646.1783254450547247
 20
2179.1586588949958241
 30
0.0
 40
0.0040831231727754
 50
131.4718064052065074
 51
163.4086285876138049
  0
ARC
  5
155AD
  8
0
 10
8646.1771457320774061
 20
2179.1599936408219946
 30
0.0
 40
0.0023017559643521
 50
107.8212311903593985
 51
131.4718064051720035
  0
ARC
  5
155AE
  8
0
 10
8646.1775025127353729
 20
2179.1588838122888774
 30
0.0
 40
0.0034675225837568
 50
92.2833190314056679
 51
107.8212311904666052
  0
ARC
  5
155AF
  8
0
 10
8646.1775178564894304
 20
2179.1584989922680506
 30
0.0
 40
0.0038526483805377
 50
71.806611479156004
 51
92.2833190315097767
  0
ARC
  5
155B0
  8
0
 10
8646.1758342702523805
 20
2179.1533763434858884
 30
0.0
 40
0.0092448643593461
 50
57.9961529310801396
 51
71.806611479156004
  0
ARC
  5
155B1
  8
0
 10
8646.1499032193078165
 20
2179.1218373938409059
 30
0.0
 40
0.0500120913458153
 50
35.034192536894821
 51
51.941690879693553
  0
ARC
  5
155B2
  8
0
 10
8645.852547465612588
 20
2178.9221516101738416
 30
0.0
 40
0.4081859454505551
 50
18.7115601552989688
 51
34.0239272960721166
  0
ARC
  5
155B3
  8
0
 10
8646.0327175539987365
 20
2178.9831763397278337
 30
0.0
 40
0.2179616610752202
 50
11.7203555177522993
 51
18.7115601552989688
  0
ARC
  5
155B4
  8
0
 10
8646.1942206616822659
 20
2179.0166818679190328
 30
0.0
 40
0.0530196281936331
 50
358.5600445100814113
 51
11.7203555177522993
  0
ARC
  5
155B5
  8
0
 10
8646.2223391773914045
 20
2179.0159750455632093
 30
0.0
 40
0.0248922300985656
 50
347.8149463112641797
 51
358.5600445100814113
  0
ARC
  5
155B6
  8
0
 10
8646.2424978441886196
 20
2179.0120475807070761
 30
0.0
 40
0.0044481912383033
 50
245.77848673460079
 51
309.3422134153527736
  0
ARC
  5
155B7
  8
0
 10
8646.2427486391461571
 20
2179.0117416293219321
 30
0.0
 40
0.0040525849181329
 50
309.342213415336289
 51
345.4138823881961002
  0
ARC
  5
155B8
  8
0
 10
8646.2503841439738608
 20
2179.0281516544941951
 30
0.0
 40
0.0223776880753139
 50
216.9928042987245931
 51
244.280246071666312
  0
ARC
  5
155B9
  8
0
 10
8646.1906705880846857
 20
2178.9831660192990057
 30
0.0
 40
0.0523847097646397
 50
36.9928042987245931
 51
42.7664098767485115
  0
ARC
  5
155BA
  8
0
 10
8646.2252414534359559
 20
2179.0033379662918378
 30
0.0
 40
0.0158806925585714
 50
75.835086066604191
 51
104.9177449192364975
  0
LINE
  5
155BB
  8
0
 10
8646.2211532538058236
 20
2179.0186834222949983
 30
0.0
 11
8646.1748137055255938
 21
2179.0063324337720587
 31
0.0
  0
ARC
  5
155BC
  8
0
 10
8646.1695356048949179
 20
2179.0268661376348973
 30
0.0
 40
0.0212012108283542
 50
261.4330661456331768
 51
284.4155524687959087
  0
ARC
  5
155BD
  8
0
 10
8646.1695771093764051
 20
2179.0271415853221697
 30
0.0
 40
0.0214797679145736
 50
235.7389023422261118
 51
261.4330410330500172
  0
ARC
  5
155BE
  8
0
 10
8646.181588674786326
 20
2179.0447755890718327
 30
0.0
 40
0.0428160232522475
 50
211.5992814302296949
 51
235.7389023422261118
  0
ARC
  5
155BF
  8
0
 10
8646.415635287630721
 20
2179.1887579798121806
 30
0.0
 40
0.317604570733665
 50
204.9068405177750094
 51
211.5992814302296949
  0
ARC
  5
155C0
  8
0
 10
8646.2946965679566347
 20
2179.1326025443208891
 30
0.0
 40
0.1842643785499413
 50
193.6257039994499962
 51
204.9068405177750094
  0
ARC
  5
155C1
  8
0
 10
8646.1921380202184082
 20
2179.1077423124811503
 30
0.0
 40
0.0787357718063529
 50
181.9741989282643999
 51
193.6257039994499962
  0
ARC
  5
155C2
  8
0
 10
8646.1352319000779971
 20
2179.1057807634269921
 30
0.0
 40
0.0217958544880057
 50
149.9100914505218043
 51
181.9741989282643999
  0
ARC
  5
155C3
  8
0
 10
8646.1348709877183865
 20
2179.1059898920861997
 30
0.0
 40
0.0213787303730571
 50
106.5494745620933941
 51
149.9100914505218043
  0
ARC
  5
155C4
  8
0
 10
8646.1367601945694332
 20
2179.0996322013061217
 30
0.0
 40
0.0280111759695303
 50
103.2988345602698956
 51
106.5494745620933941
  0
LINE
  5
155C5
  8
0
 10
8646.1303167853893683
 20
2179.1268922170311271
 30
0.0
 11
8646.1638200765064539
 21
2179.1358218793948254
 31
0.0
  0
ARC
  5
155C6
  8
0
 10
8646.1593350882358209
 20
2179.1522991888878096
 30
0.0
 40
0.0170767926719674
 50
285.2265576772077793
 51
334.3702550413127028
  0
ARC
  5
155C7
  8
0
 10
8646.1447552922818431
 20
2179.0446423743869673
 30
0.0
 40
0.0058830599626479
 50
223.7162454064136909
 51
240.8516135447964075
  0
ARC
  5
155C8
  8
0
 10
8646.1426991657317558
 20
2179.0409555743740384
 30
0.0
 40
0.0016616679274788
 50
240.851613544783703
 51
258.2565684613873032
  0
ARC
  5
155C9
  8
0
 10
8646.1426250772983622
 20
2179.0405991755751529
 30
0.0
 40
0.0012976497957425
 50
258.2565684612799259
 51
273.9167638869989787
  0
ARC
  5
155CA
  8
0
 10
8646.1426643655686348
 20
2179.0400253486768634
 30
0.0
 40
0.0007224794938116
 50
273.9167638871030022
 51
302.4945898925627716
  0
ARC
  5
155CB
  8
0
 10
8646.1425126913636632
 20
2179.040263479107125
 30
0.0
 40
0.0010048111542966
 50
302.4945898923029972
 51
326.0264401293234755
  0
ARC
  5
155CC
  8
0
 10
8646.141977428986138
 20
2179.04062415886483
 30
0.0
 40
0.0016502534045626
 50
326.0264401294464847
 51
342.5538806699273096
  0
ARC
  5
155CD
  8
0
 10
8646.1396872106688534
 20
2179.0413438948107796
 30
0.0
 40
0.0040509032704642
 50
342.5538806698959888
 51
357.404301723000799
  0
ARC
  5
155CE
  8
0
 10
8646.1312577162225352
 20
2179.0417260417311809
 30
0.0
 40
0.0124890554908465
 50
357.4043017229748216
 51
3.3010513036249169
  0
ARC
  5
155CF
  8
0
 10
8646.125364823403288
 20
2179.0413861511829055
 30
0.0
 40
0.0183917422850321
 50
3.3010513036249169
 51
12.6760305223072294
  0
ARC
  5
155D0
  8
0
 10
8646.0638895218398829
 20
2179.0275591151948902
 30
0.0
 40
0.0814028494513043
 50
12.6760305223072294
 51
19.3599321843566514
  0
ARC
  5
155D1
  8
0
 10
8646.0279025762702076
 20
2179.0149143913499756
 30
0.0
 40
0.1195466470119366
 50
19.3599321843566514
 51
24.7413082874506394
  0
ARC
  5
155D2
  8
0
 10
8646.030476491430818
 20
2179.0161005090799335
 30
0.0
 40
0.1167125837605211
 50
24.7413082874506394
 51
32.4703708655295102
  0
ARC
  5
155D3
  8
0
 10
8646.1126807478431147
 20
2179.0684106528478878
 30
0.0
 40
0.0192759843060343
 50
32.4703708655295102
 51
47.1022293409847777
  0
ARC
  5
155D4
  8
0
 10
8646.1231988197232567
 20
2179.0797303294498306
 30
0.0
 40
0.0038239645526854
 50
47.1022293409847777
 51
68.8361970189978649
  0
ARC
  5
155D5
  8
0
 10
8646.1242421312545048
 20
2179.0824251955828004
 30
0.0
 40
0.0009341890560208
 50
68.8361970187846737
 51
112.4473313172757969
  0
ARC
  5
155D6
  8
0
 10
8646.1241139277062757
 20
2179.0827355128431009
 30
0.0
 40
0.0005984317766152
 50
112.4473313175182057
 51
130.1246705405528132
  0
ARC
  5
155D7
  8
0
 10
8646.1245062986781704
 20
2179.0822699643322267
 30
0.0
 40
0.0012072752660685
 50
130.1246705405359876
 51
162.3868036273671009
  0
ARC
  5
155D8
  8
0
 10
8646.1276716010488599
 20
2179.081265068823086
 30
0.0
 40
0.0045282621773488
 50
162.3868036274234896
 51
179.1591020398944067
  0
ARC
  5
155D9
  8
0
 10
8646.1375598749782512
 20
2179.0811199337617836
 30
0.0
 40
0.0144176011631306
 50
179.1591020398944067
 51
187.8613850910772953
  0
ARC
  5
155DA
  8
0
 10
8646.1644522323622368
 20
2179.0848330851649735
 30
0.0
 40
0.0415650942138777
 50
187.8613850910772953
 51
198.5608921966384059
  0
ARC
  5
155DB
  8
0
 10
8646.3013873768886697
 20
2179.1308128244168074
 30
0.0
 40
0.1860135979375275
 50
198.5608921966384059
 51
203.1598118175413106
  0
ARC
  5
155DC
  8
0
 10
8646.2089219847766799
 20
2179.0912588544679238
 30
0.0
 40
0.0854433971948292
 50
203.1598118175413106
 51
212.0178318340377928
  0
ARC
  5
155DD
  8
0
 10
8646.1705927319635521
 20
2179.0672914890719767
 30
0.0
 40
0.0402375764956625
 50
212.0178318340377928
 51
221.6000787484493912
  0
LINE
  5
155DE
  8
0
 10
8646.1480374265265709
 20
2178.5142345206231766
 30
0.0
 11
8646.1903472659269028
 21
2178.5255111825231324
 31
0.0
  0
ARC
  5
155DF
  8
0
 10
8646.1953648808648722
 20
2178.5066851785109066
 30
0.0
 40
0.0194831949826448
 50
90.7703040305452049
 51
104.9238792920693015
  0
ARC
  5
155E0
  8
0
 10
8646.1953591279416287
 20
2178.5071130593009912
 30
0.0
 40
0.0190552755203177
 50
75.4201675608225344
 51
90.7703040305452049
  0
ARC
  5
155E1
  8
0
 10
8646.1949318731421954
 20
2178.505470432770835
 30
0.0
 40
0.0207525582244273
 50
67.3132949150146942
 51
75.4201675608225344
  0
ARC
  5
155E2
  8
0
 10
8646.1958576192464534
 20
2178.507684943291224
 30
0.0
 40
0.0183523368401977
 50
38.4875515369447001
 51
67.3132949150146942
  0
ARC
  5
155E3
  8
0
 10
8646.2691465540156059
 20
2178.5462029316108783
 30
0.0
 40
0.0648554616922561
 50
204.6956717303604023
 51
208.0035641617351985
  0
ARC
  5
155E4
  8
0
 10
8646.2332214679663593
 20
2178.5271808001980389
 30
0.0
 40
0.0242052575781004
 50
208.1758638292602086
 51
211.9318326058491095
  0
ARC
  5
155E5
  8
0
 10
8646.220077590773144
 20
2178.518989321889876
 30
0.0
 40
0.0087177844293609
 50
211.9318326058491095
 51
218.4426051362621024
  0
ARC
  5
155E6
  8
0
 10
8646.2151175216404226
 20
2178.5150520106972181
 30
0.0
 40
0.0023849568431202
 50
218.4426051361600116
 51
232.3403441252964114
  0
ARC
  5
155E7
  8
0
 10
8646.2139288996968389
 20
2178.5135118735170181
 30
0.0
 40
0.0004394891217431
 50
232.3403441255250925
 51
266.6789054857429733
  0
ARC
  5
155E8
  8
0
 10
8646.2138958406903839
 20
2178.5132821807228538
 30
0.0
 40
0.0002091962813681
 50
272.0816316849267764
 51
322.2599061297084972
  0
ARC
  5
155E9
  8
0
 10
8646.2134634731864935
 20
2178.513581644353053
 30
0.0
 40
0.0007349334752789
 50
324.4300097666670126
 51
355.8352542025490948
  0
ARC
  5
155EA
  8
0
 10
8646.209358232534214
 20
2178.5141113143818075
 30
0.0
 40
0.0048732374506735
 50
353.1285539571774734
 51
5.8655122718876909
  0
ARC
  5
155EB
  8
0
 10
8646.1712045517833758
 20
2178.5101917244642209
 30
0.0
 40
0.0432277227162627
 50
5.8655122718876909
 51
7.981385397287287
  0
ARC
  5
155EC
  8
0
 10
8646.1778693362393824
 20
2178.5111261908718916
 30
0.0
 40
0.0364977465400307
 50
7.981385397287287
 51
14.0953943838481202
  0
ARC
  5
155ED
  8
0
 10
8646.4647233986197534
 20
2178.5831544385678171
 30
0.0
 40
0.2592611443977273
 50
192.9402728907537039
 51
194.0953943838480882
  0
ARC
  5
155EE
  8
0
 10
8645.9894375067560759
 20
2178.4739477813682242
 30
0.0
 40
0.2284096184937314
 50
12.9402728907537306
 51
19.5270778852094011
  0
ARC
  5
155EF
  8
0
 10
8649.4015463688429008
 20
2179.6840539760592037
 30
0.0
 40
3.3919279195211498
 50
198.4151234690114904
 51
199.527077885209394
  0
ARC
  5
155F0
  8
0
 10
8645.7472576016498351
 20
2178.4673625012442244
 30
0.0
 40
0.459586657748817
 50
18.4151234690115118
 51
24.8715079143567586
  0
ARC
  5
155F1
  8
0
 10
8645.9070600473714876
 20
2178.541443759995218
 30
0.0
 40
0.2834479210759194
 50
24.8715079143567586
 51
26.7573892056031504
  0
ARC
  5
155F2
  8
0
 10
8646.1511586326232646
 20
2178.6645190564881887
 30
0.0
 40
0.0100770229748091
 50
26.7573892056264206
 51
38.8544723184243281
  0
ARC
  5
155F3
  8
0
 10
8646.1574629549431847
 20
2178.6695977375698021
 30
0.0
 40
0.0019815006666105
 50
38.8544723185505774
 51
56.6159721102817386
  0
ARC
  5
155F4
  8
0
 10
8646.1584271969422844
 20
2178.6709837597531987
 30
0.0
 40
0.0002966564413463
 50
64.8502380486939529
 51
86.8056939619976191
  0
ARC
  5
155F5
  8
0
 10
8646.158438182568716
 20
2178.6711187579749094
 30
0.0
 40
0.0001612926403321
 50
88.0299583025522736
 51
120.544107824929398
  0
ARC
  5
155F6
  8
0
 10
8646.158453222926255
 20
2178.6710932694040821
 30
0.0
 40
0.0001908879034855
 50
120.5441078257960044
 51
148.8522024933699868
  0
ARC
  5
155F7
  8
0
 10
8646.158810425296906
 20
2178.670877384529831
 30
0.0
 40
0.0006082604142928
 50
148.8522024935037962
 51
174.0500200828464017
  0
ARC
  5
155F8
  8
0
 10
8646.1623679486037872
 20
2178.6705066135568813
 30
0.0
 40
0.0041850527174575
 50
174.0500200828722939
 51
182.4977350149378026
  0
ARC
  5
155F9
  8
0
 10
8646.1692012032344792
 20
2178.6708046892549646
 30
0.0
 40
0.0110248054877802
 50
182.4977350149378026
 51
193.1158796352711988
  0
ARC
  5
155FA
  8
0
 10
8645.702500013372628
 20
2178.5620635599070738
 30
0.0
 40
0.4681772748799255
 50
12.6771347160821399
 51
13.1158796352712006
  0
ARC
  5
155FB
  8
0
 10
8646.1432818320063234
 20
2178.66406822864883
 30
0.0
 40
0.0159994495926462
 50
349.6724762880119215
 51
2.6511580438275559
  0
ARC
  5
155FC
  8
0
 10
8646.1397813805178885
 20
2178.6647061057301471
 30
0.0
 40
0.0195575456834896
 50
287.3998956476693252
 51
349.6724762880119215
  0
LINE
  5
155FD
  8
0
 10
8646.1456298504854203
 20
2178.646043496260063
 30
0.0
 11
8646.1082947026261536
 21
2178.636060834222917
 31
0.0
  0
ARC
  5
155FE
  8
0
 10
8646.1131156110732263
 20
2178.6180306405722149
 30
0.0
 40
0.0186635752556878
 50
104.9695539281993035
 51
126.7915541359098057
  0
ARC
  5
155FF
  8
0
 10
8646.1131333710636682
 20
2178.6180068930079869
 30
0.0
 40
0.0186932293282876
 50
126.7915541359098057
 51
180.3903123115071025
  0
ARC
  5
15600
  8
0
 10
8646.1229645791736402
 20
2178.6180738665439094
 30
0.0
 40
0.0285246655598016
 50
180.3903123115071025
 51
195.4274159490717864
  0
ARC
  5
15601
  8
0
 10
8646.8324154085476039
 20
2178.8138544574721891
 30
0.0
 40
0.7644937675493684
 50
195.4274159490717864
 51
196.2784323413802952
  0
ARC
  5
15602
  8
0
 10
8646.5602982795644493
 20
2178.7343930191791515
 30
0.0
 40
0.4810121066590338
 50
196.2784323413802952
 51
200.4359551582776078
  0
ARC
  5
15603
  8
0
 10
8644.5140655609302485
 20
2177.9719438686261128
 30
0.0
 40
1.7026538581771411
 50
19.6461364314802012
 51
20.4359551582776113
  0
ARC
  5
15604
  8
0
 10
8646.304637117904349
 20
2178.6111628305379782
 30
0.0
 40
0.1985950423901507
 50
199.646136431480187
 51
204.3290743039565882
  0
ARC
  5
15605
  8
0
 10
8646.1822413091977069
 20
2178.5558242159090696
 30
0.0
 40
0.06427044948974
 50
204.3290743039565882
 51
212.001313269426106
  0
ARC
  5
15606
  8
0
 10
8646.1411790184047277
 20
2178.5301643401739966
 30
0.0
 40
0.0158499894754322
 50
212.0013132694481897
 51
245.395273992045702
  0
ARC
  5
15607
  8
0
 10
8646.1453873555401515
 20
2178.5393541429211837
 30
0.0
 40
0.0259575399191805
 50
245.395273992045702
 51
260.8039256987947851
  0
ARC
  5
15608
  8
0
 10
8646.1432593617864768
 20
2178.5325708448390287
 30
0.0
 40
0.0189486328906997
 50
263.8792783964109958
 51
284.605296351205709
  0
ARC
  5
15609
  8
0
 10
8646.1024678957401193
 20
2178.5504969579078534
 30
0.0
 40
0.0159140739621654
 50
349.8530315028713744
 51
351.3230245247793277
  0
ARC
  5
1560A
  8
0
 10
8646.1120642866117123
 20
2178.5475328104471373
 30
0.0
 40
0.0061613432504503
 50
5.2455217005666412
 51
10.7444117099678298
  0
ARC
  5
1560B
  8
0
 10
8646.1075956455588312
 20
2178.5471160074198451
 30
0.0
 40
0.0106377832378964
 50
8.4623531596381927
 51
16.26151570395524
  0
ARC
  5
1560C
  8
0
 10
8646.0000634597763565
 20
2178.5197760088690302
 30
0.0
 40
0.1215852441671968
 50
14.43979682673063
 51
17.3766358224648698
  0
ARC
  5
1560D
  8
0
 10
8645.7705036116694828
 20
2178.4479391036347806
 30
0.0
 40
0.3621226940914289
 50
17.3766358224648698
 51
18.79528374836881
  0
ARC
  5
1560E
  8
0
 10
8644.99937349623724
 20
2178.1854958282538064
 30
0.0
 40
1.17668891467604
 50
18.79528374836881
 51
19.2583938852614516
  0
ARC
  5
1560F
  8
0
 10
8645.7367593687667977
 20
2178.4400628873058849
 30
0.0
 40
0.3966135716878713
 50
19.6758279849801596
 51
21.3572842729065684
  0
ARC
  5
15610
  8
0
 10
8646.0158711915701133
 20
2178.5502502967769942
 30
0.0
 40
0.0965456024032773
 50
20.7798885422005917
 51
25.6046010320584791
  0
ARC
  5
15611
  8
0
 10
8646.0987060264778847
 20
2178.5899462789948302
 30
0.0
 40
0.0046903854666791
 50
25.6046010320584791
 51
36.893831058925791
  0
ARC
  5
15612
  8
0
 10
8646.1021049059327197
 20
2178.5924976576711742
 30
0.0
 40
0.0004404543263981
 50
36.8938310592592913
 51
59.1969051037646921
  0
ARC
  5
15613
  8
0
 10
8646.1022977196080319
 20
2178.5928210658989883
 30
0.0
 40
0.0000639307619725
 50
59.1969051022006667
 51
109.5685201098151964
  0
ARC
  5
15614
  8
0
 10
8646.1031522708799457
 20
2178.5925656529070693
 30
0.0
 40
0.0009311006188256
 50
160.1835093940098886
 51
185.6239713358359893
  0
LINE
  5
15615
  8
0
 10
8646.1022256521264353
 20
2178.5924744057228963
 30
0.0
 11
8646.1035126940241753
 21
2178.5873259218237763
 31
0.0
  0
ARC
  5
15616
  8
0
 10
8646.1464567923085269
 20
2178.5980612868202115
 30
0.0
 40
0.0442656033385194
 50
194.0354152299605914
 51
200.1787690635233048
  0
ARC
  5
15617
  8
0
 10
8645.9768641988575837
 20
2178.5357347018339169
 30
0.0
 40
0.1364171322766406
 50
16.4062811279991401
 51
20.1787690635232693
  0
ARC
  5
15618
  8
0
 10
8646.192406541085802
 20
2178.5991979397290379
 30
0.0
 40
0.0882739531206963
 50
196.4062811279991081
 51
202.1771085147699978
  0
ARC
  5
15619
  8
0
 10
8645.9530697765403602
 20
2178.5016379447220061
 30
0.0
 40
0.1701830829383627
 50
18.7644514468163983
 51
22.1771085147700013
  0
ARC
  5
1561A
  8
0
 10
8646.1700481297666556
 20
2178.57535320966781
 30
0.0
 40
0.0589752598171931
 50
198.7644514467916963
 51
205.8973951177025015
  0
ARC
  5
1561B
  8
0
 10
8646.18600003902975
 20
2178.5830981444159988
 30
0.0
 40
0.0767079252500915
 50
205.8973951177025015
 51
206.914902560861691
  0
ARC
  5
1561C
  8
0
 10
8646.1207442453378462
 20
2178.5499706464429437
 30
0.0
 40
0.0035249372528622
 50
206.9149025607912904
 51
215.2466319276674938
  0
ARC
  5
1561D
  8
0
 10
8646.1191482392114267
 20
2178.5488428415051203
 30
0.0
 40
0.0015706651293233
 50
215.2466319277914124
 51
225.1625273766132977
  0
ARC
  5
1561E
  8
0
 10
8646.1181317558985029
 20
2178.5478205749800509
 30
0.0
 40
0.0001290454934018
 50
225.1625273748813925
 51
255.2045534549644117
  0
ARC
  5
1561F
  8
0
 10
8646.1181306899416086
 20
2178.5478165392019037
 30
0.0
 40
0.0001248713148701
 50
255.2045534543198926
 51
265.5782850220592763
  0
ARC
  5
15620
  8
0
 10
8646.1181236154534417
 20
2178.5477250513181389
 30
0.0
 40
0.0000331103140935
 50
265.5782850236279842
 51
286.5719083896049142
  0
LINE
  5
15621
  8
0
 10
8646.0639263147259044
 20
2179.036526738622797
 30
0.0
 11
8646.1062361541262362
 21
2179.0478034005232075
 31
0.0
  0
ARC
  5
15622
  8
0
 10
8646.1112537690623867
 20
2179.0289773965109816
 30
0.0
 40
0.0194831949826448
 50
90.7703040305452049
 51
104.9238792920693015
  0
ARC
  5
15623
  8
0
 10
8646.1112480161427811
 20
2179.0294052773010662
 30
0.0
 40
0.0190552755203177
 50
75.4201675608225344
 51
90.7703040305452049
  0
ARC
  5
15624
  8
0
 10
8646.1108207613415289
 20
2179.0277626507709101
 30
0.0
 40
0.0207525582244273
 50
67.3132949150146942
 51
75.4201675608225344
  0
ARC
  5
15625
  8
0
 10
8646.1117465074494248
 20
2179.0299771612922086
 30
0.0
 40
0.0183523368401977
 50
38.4875515369447001
 51
67.3132949150146942
  0
ARC
  5
15626
  8
0
 10
8646.1850354422131204
 20
2179.0684951496109534
 30
0.0
 40
0.0648554616922561
 50
204.6956717303604023
 51
208.0035641617351985
  0
ARC
  5
15627
  8
0
 10
8646.1491103561656928
 20
2179.049473018198114
 30
0.0
 40
0.0242052575781004
 50
208.1758638292602086
 51
211.9318326058491095
  0
ARC
  5
15628
  8
0
 10
8646.1359664789742965
 20
2179.0412815398890416
 30
0.0
 40
0.0087177844293609
 50
211.9318326058491095
 51
218.4426051362621024
  0
ARC
  5
15629
  8
0
 10
8646.1310064098397561
 20
2179.0373442286959289
 30
0.0
 40
0.0023849568431202
 50
218.4426051361600116
 51
232.3403441252964114
  0
ARC
  5
1562A
  8
0
 10
8646.1298177878998104
 20
2179.0358040915170932
 30
0.0
 40
0.0004394891217431
 50
232.3403441255250925
 51
266.6789054857429733
  0
ARC
  5
1562B
  8
0
 10
8646.1297847288915364
 20
2179.0355743987229289
 30
0.0
 40
0.0002091962813681
 50
272.0816316849267764
 51
322.2599061297084972
  0
ARC
  5
1562C
  8
0
 10
8646.129352361384008
 20
2179.0358738623531281
 30
0.0
 40
0.0007349334752789
 50
324.4300097666670126
 51
355.8352542025490948
  0
ARC
  5
1562D
  8
0
 10
8646.1252471207335475
 20
2179.0364035323818825
 30
0.0
 40
0.0048732374506735
 50
353.1285539571774734
 51
5.8655122718876909
  0
ARC
  5
1562E
  8
0
 10
8646.0870934399845282
 20
2179.0324839424638412
 30
0.0
 40
0.0432277227162627
 50
5.8655122718876909
 51
7.981385397287287
  0
ARC
  5
1562F
  8
0
 10
8646.0937582244405348
 20
2179.0334184088719667
 30
0.0
 40
0.0364977465400307
 50
7.981385397287287
 51
14.0953943838481202
  0
ARC
  5
15630
  8
0
 10
8646.3806122868172679
 20
2179.1054466565678922
 30
0.0
 40
0.2592611443977273
 50
192.9402728907537039
 51
194.0953943838480882
  0
ARC
  5
15631
  8
0
 10
8645.9053263949572283
 20
2178.9962399993678446
 30
0.0
 40
0.2284096184937314
 50
12.9402728907537306
 51
18.0792966063870111
  0
ARC
  5
15632
  8
0
 10
8649.3174352570440533
 20
2180.2063461940579145
 30
0.0
 40
3.3919279195211498
 50
198.4151234690114904
 51
199.4407194781884982
  0
ARC
  5
15633
  8
0
 10
8645.6631464898491686
 20
2178.9896547192438447
 30
0.0
 40
0.459586657748817
 50
18.4151234690115118
 51
24.8715079143567586
  0
ARC
  5
15634
  8
0
 10
8645.82294893557264
 20
2179.0637359779948383
 30
0.0
 40
0.2834479210759194
 50
24.8715079143567586
 51
26.7573892056031504
  0
ARC
  5
15635
  8
0
 10
8646.067047520822598
 20
2179.186811274487809
 30
0.0
 40
0.0100770229748091
 50
26.7573892056264206
 51
38.8544723184243281
  0
ARC
  5
15636
  8
0
 10
8646.0733518431425182
 20
2179.1918899555698772
 30
0.0
 40
0.0019815006666105
 50
38.8544723185505774
 51
56.6159721102817386
  0
ARC
  5
15637
  8
0
 10
8646.0743160851416178
 20
2179.1932759777541833
 30
0.0
 40
0.0002966564413463
 50
64.8502380486939529
 51
86.8056939619976191
  0
ARC
  5
15638
  8
0
 10
8646.0743270707698684
 20
2179.1934109759749845
 30
0.0
 40
0.0001612926403321
 50
88.0299583025522736
 51
120.544107824929398
  0
ARC
  5
15639
  8
0
 10
8646.0743421111255884
 20
2179.1933854874041572
 30
0.0
 40
0.0001908879034855
 50
120.5441078257960044
 51
148.8522024933699868
  0
ARC
  5
1563A
  8
0
 10
8646.0746993134980585
 20
2179.1931696025299061
 30
0.0
 40
0.0006082604142928
 50
148.8522024935037962
 51
174.0500200828464017
  0
ARC
  5
1563B
  8
0
 10
8646.0782568368031207
 20
2179.1927988315569564
 30
0.0
 40
0.0041850527174575
 50
174.0500200828722939
 51
182.4977350149378026
  0
ARC
  5
1563C
  8
0
 10
8646.0850900914319936
 20
2179.1930969072550397
 30
0.0
 40
0.0110248054877802
 50
182.4977350149378026
 51
193.1158796352711988
  0
ARC
  5
1563D
  8
0
 10
8645.6183889015719615
 20
2179.0843557779080584
 30
0.0
 40
0.4681772748799255
 50
12.6771347160821399
 51
13.1158796352712006
  0
ARC
  5
1563E
  8
0
 10
8646.0591707202056568
 20
2179.1863604466489051
 30
0.0
 40
0.0159994495926462
 50
349.6724762880119215
 51
2.6511580438275559
  0
ARC
  5
1563F
  8
0
 10
8646.0556702687172219
 20
2179.1869983237302222
 30
0.0
 40
0.0195575456834896
 50
287.3998956476693252
 51
349.6724762880119215
  0
LINE
  5
15640
  8
0
 10
8646.0615187386829348
 20
2179.168335714260138
 30
0.0
 11
8646.024183590827306
 21
2179.1583530522229921
 31
0.0
  0
ARC
  5
15641
  8
0
 10
8646.0290044992743788
 20
2179.1403228585731995
 30
0.0
 40
0.0186635752556878
 50
104.9695539281993035
 51
126.7915541359098057
  0
ARC
  5
15642
  8
0
 10
8646.0290222592630016
 20
2179.1402991110089715
 30
0.0
 40
0.0186932293282876
 50
126.7915541359098057
 51
180.3903123115071025
  0
ARC
  5
15643
  8
0
 10
8646.0388534673711547
 20
2179.1403660845439845
 30
0.0
 40
0.0285246655598016
 50
180.3903123115071025
 51
195.4274159490717864
  0
ARC
  5
15644
  8
0
 10
8646.7483042967487563
 20
2179.3361466754718094
 30
0.0
 40
0.7644937675493684
 50
195.4274159490717864
 51
196.2784323413802952
  0
ARC
  5
15645
  8
0
 10
8646.4761871677656018
 20
2179.2566852371792265
 30
0.0
 40
0.4810121066590338
 50
196.2784323413802952
 51
200.4359551582776078
  0
ARC
  5
15646
  8
0
 10
8644.4299544491314009
 20
2178.4942360866261879
 30
0.0
 40
1.7026538581771411
 50
19.6461364314802012
 51
20.4359551582776113
  0
ARC
  5
15647
  8
0
 10
8646.2205260061036824
 20
2179.1334550485380532
 30
0.0
 40
0.1985950423901507
 50
199.646136431480187
 51
204.3290743039565882
  0
ARC
  5
15648
  8
0
 10
8646.0981301973988593
 20
2179.0781164339091447
 30
0.0
 40
0.06427044948974
 50
204.3290743039565882
 51
212.001313269426106
  0
ARC
  5
15649
  8
0
 10
8646.0570679066022421
 20
2179.0524565581740717
 30
0.0
 40
0.0158499894754322
 50
212.0013132694481897
 51
245.395273992045702
  0
ARC
  5
1564A
  8
0
 10
8646.0612762437413039
 20
2179.061646360920804
 30
0.0
 40
0.0259575399191805
 50
245.395273992045702
 51
260.8039256987947851
  0
ARC
  5
1564B
  8
0
 10
8646.0591482499876292
 20
2179.0548630628400133
 30
0.0
 40
0.0189486328906997
 50
263.8792783964109958
 51
284.605296351205709
  0
ARC
  5
1564C
  8
0
 10
8646.0183567839394527
 20
2179.0727891759079284
 30
0.0
 40
0.0159140739621654
 50
349.8530315028713744
 51
351.3230245247793277
  0
ARC
  5
1564D
  8
0
 10
8646.0279531748128647
 20
2179.0698250284472124
 30
0.0
 40
0.0061613432504503
 50
5.2455217005666412
 51
10.7444117099678298
  0
ARC
  5
1564E
  8
0
 10
8646.0234845337581646
 20
2179.0694082254199202
 30
0.0
 40
0.0106377832378964
 50
8.4623531596381927
 51
16.26151570395524
  0
ARC
  5
1564F
  8
0
 10
8645.9159523479756899
 20
2179.0420682268691053
 30
0.0
 40
0.1215852441671968
 50
14.43979682673063
 51
17.3766358224648698
  0
ARC
  5
15650
  8
0
 10
8645.6863924998724542
 20
2178.9702313216348557
 30
0.0
 40
0.3621226940914289
 50
17.3766358224648698
 51
18.79528374836881
  0
ARC
  5
15651
  8
0
 10
8644.9152623844383925
 20
2178.7077880462538815
 30
0.0
 40
1.17668891467604
 50
18.79528374836881
 51
19.2583938852614516
  0
ARC
  5
15652
  8
0
 10
8645.6526482569661312
 20
2178.9623551053050505
 30
0.0
 40
0.3966135716878713
 50
19.6758279849801596
 51
21.3572842729065684
  0
ARC
  5
15653
  8
0
 10
8645.9317600797712657
 20
2179.0725425147770693
 30
0.0
 40
0.0965456024032773
 50
20.7798885422005917
 51
25.6046010320584791
  0
ARC
  5
15654
  8
0
 10
8646.0145949146808562
 20
2179.1122384969949053
 30
0.0
 40
0.0046903854666791
 50
25.6046010320584791
 51
36.893831058925791
  0
ARC
  5
15655
  8
0
 10
8646.0179937941338721
 20
2179.1147898756707946
 30
0.0
 40
0.0004404543263981
 50
36.8938310592592913
 51
59.1969051037646921
  0
ARC
  5
15656
  8
0
 10
8646.0181866078073654
 20
2179.1151132838990634
 30
0.0
 40
0.0000639307619725
 50
59.1969051022006667
 51
109.5685201098151964
  0
ARC
  5
15657
  8
0
 10
8646.0190411590792792
 20
2179.1148578709071444
 30
0.0
 40
0.0009311006188256
 50
160.1835093940098886
 51
185.6239713358359893
  0
LINE
  5
15658
  8
0
 10
8646.0181145403257688
 20
2179.1147666237229714
 30
0.0
 11
8646.0194015822271467
 21
2179.1096181398229419
 31
0.0
  0
ARC
  5
15659
  8
0
 10
8646.0623456805096794
 20
2179.1203535048198319
 30
0.0
 40
0.0442656033385194
 50
194.0354152299605914
 51
200.1787690635233048
  0
ARC
  5
1565A
  8
0
 10
8645.8927530870587361
 20
2179.058026919833992
 30
0.0
 40
0.1364171322766406
 50
16.4062811279991401
 51
20.1787690635232693
  0
ARC
  5
1565B
  8
0
 10
8646.1082954292833165
 20
2179.121490157729113
 30
0.0
 40
0.0882739531206963
 50
196.4062811279991081
 51
202.1771085147699978
  0
ARC
  5
1565C
  8
0
 10
8645.8689586647415126
 20
2179.0239301627220811
 30
0.0
 40
0.1701830829383627
 50
18.7644514468163983
 51
22.1771085147700013
  0
ARC
  5
1565D
  8
0
 10
8646.0859370179659891
 20
2179.0976454276678851
 30
0.0
 40
0.0589752598171931
 50
198.7644514467916963
 51
205.8973951177025015
  0
ARC
  5
1565E
  8
0
 10
8646.1018889272309025
 20
2179.1053903624160739
 30
0.0
 40
0.0767079252500915
 50
205.8973951177025015
 51
206.914902560861691
  0
ARC
  5
1565F
  8
0
 10
8646.0366331335371797
 20
2179.0722628644439283
 30
0.0
 40
0.0035249372528622
 50
206.9149025607912904
 51
215.2466319276674938
  0
ARC
  5
15660
  8
0
 10
8646.0350371274125791
 20
2179.0711350595051954
 30
0.0
 40
0.0015706651293233
 50
215.2466319277914124
 51
225.1625273766132977
  0
ARC
  5
15661
  8
0
 10
8646.0340206440978363
 20
2179.0701127929810355
 30
0.0
 40
0.0001290454934018
 50
225.1625273748813925
 51
255.2045534549644117
  0
ARC
  5
15662
  8
0
 10
8646.034019578142761
 20
2179.0701087572028882
 30
0.0
 40
0.0001248713148701
 50
255.2045534543198926
 51
265.5782850220592763
  0
ARC
  5
15663
  8
0
 10
8646.0340125036527752
 20
2179.0700172693191234
 30
0.0
 40
0.0000331103140935
 50
265.5782850236279842
 51
286.5719083896049142
  0
LINE
  5
15664
  8
0
 10
8646.007959390153701
 20
2178.9128859918027956
 30
0.0
 11
8646.0502692295540328
 21
2178.9241626537032062
 31
0.0
  0
ARC
  5
15665
  8
0
 10
8646.0552868444901833
 20
2178.9053366496909803
 30
0.0
 40
0.0194831949826448
 50
90.7703040305452049
 51
104.9238792920693015
  0
ARC
  5
15666
  8
0
 10
8646.0552810915687587
 20
2178.9057645304810649
 30
0.0
 40
0.0190552755203177
 50
75.4201675608225344
 51
90.7703040305452049
  0
ARC
  5
15667
  8
0
 10
8646.0548538367693254
 20
2178.9041219039518182
 30
0.0
 40
0.0207525582244273
 50
67.3132949150146942
 51
75.4201675608225344
  0
ARC
  5
15668
  8
0
 10
8646.0557795828735834
 20
2178.9063364144722073
 30
0.0
 40
0.0183523368401977
 50
38.4875515369447001
 51
67.3132949150146942
  0
ARC
  5
15669
  8
0
 10
8646.129068517640917
 20
2178.944854402790952
 30
0.0
 40
0.0648554616922561
 50
204.6956717303604023
 51
208.0035641617351985
  0
ARC
  5
1566A
  8
0
 10
8646.0931434315934894
 20
2178.9258322713781126
 30
0.0
 40
0.0242052575781004
 50
208.1758638292602086
 51
211.9318326058491095
  0
ARC
  5
1566B
  8
0
 10
8646.0799995544002741
 20
2178.9176407930699497
 30
0.0
 40
0.0087177844293609
 50
211.9318326058491095
 51
218.4426051362621024
  0
ARC
  5
1566C
  8
0
 10
8646.0750394852675527
 20
2178.913703481876837
 30
0.0
 40
0.0023849568431202
 50
218.4426051361600116
 51
232.3403441252964114
  0
ARC
  5
1566D
  8
0
 10
8646.073850863323969
 20
2178.9121633446980013
 30
0.0
 40
0.0004394891217431
 50
232.3403441255250925
 51
266.6789054857429733
  0
ARC
  5
1566E
  8
0
 10
8646.0738178043175139
 20
2178.911933651903837
 30
0.0
 40
0.0002091962813681
 50
272.0816316849267764
 51
322.2599061297084972
  0
ARC
  5
1566F
  8
0
 10
8646.0733854368118045
 20
2178.9122331155331267
 30
0.0
 40
0.0007349334752789
 50
324.4300097666670126
 51
355.8352542025490948
  0
ARC
  5
15670
  8
0
 10
8646.0692801961613441
 20
2178.9127627855627907
 30
0.0
 40
0.0048732374506735
 50
353.1285539571774734
 51
5.8655122718876909
  0
ARC
  5
15671
  8
0
 10
8646.0311265154105058
 20
2178.9088431956452041
 30
0.0
 40
0.0432277227162627
 50
5.8655122718876909
 51
7.981385397287287
  0
ARC
  5
15672
  8
0
 10
8646.0377912998665124
 20
2178.9097776620519653
 30
0.0
 40
0.0364977465400307
 50
7.981385397287287
 51
14.0953943838481202
  0
ARC
  5
15673
  8
0
 10
8646.3246453622450645
 20
2178.9818059097488003
 30
0.0
 40
0.2592611443977273
 50
192.9402728907537039
 51
194.0953943838480882
  0
ARC
  5
15674
  8
0
 10
8645.8493594703832059
 20
2178.8725992525478432
 30
0.0
 40
0.2284096184937314
 50
12.9402728907537306
 51
19.5270778852094011
  0
ARC
  5
15675
  8
0
 10
8649.2614683324700309
 20
2180.0827054472388227
 30
0.0
 40
3.3919279195211498
 50
198.5708688706895941
 51
199.527077885209394
  0
LINE
  5
15676
  8
0
 10
8645.9682269435561466
 20
2179.03471505334619
 30
0.0
 11
8645.9682166662514646
 21
2179.0347123054029908
 31
0.0
  0
ARC
  5
15677
  8
0
 10
8645.9730375747003563
 20
2179.0166821117541076
 30
0.0
 40
0.0186635752556878
 50
104.9695539281993035
 51
126.7915541359098057
  0
ARC
  5
15678
  8
0
 10
8645.9730553346889792
 20
2179.0166583641880607
 30
0.0
 40
0.0186932293282876
 50
126.7915541359098057
 51
180.3903123115071025
  0
ARC
  5
15679
  8
0
 10
8645.9828865428007703
 20
2179.0167253377239831
 30
0.0
 40
0.0285246655598016
 50
180.3903123115071025
 51
195.4274159490717864
  0
ARC
  5
1567A
  8
0
 10
8646.6923373721765529
 20
2179.2125059286518081
 30
0.0
 40
0.7644937675493684
 50
195.4274159490717864
 51
196.2784323413802952
  0
ARC
  5
1567B
  8
0
 10
8646.4202202431915794
 20
2179.1330444903601347
 30
0.0
 40
0.4810121066590338
 50
196.2784323413802952
 51
200.4359551582776078
  0
ARC
  5
1567C
  8
0
 10
8644.3739875245591975
 20
2178.3705953398061865
 30
0.0
 40
1.7026538581771411
 50
19.6461364314802012
 51
20.4359551582776113
  0
ARC
  5
1567D
  8
0
 10
8646.164559081531479
 20
2179.0098143017180519
 30
0.0
 40
0.1985950423901507
 50
199.646136431480187
 51
204.3290743039565882
  0
ARC
  5
1567E
  8
0
 10
8646.0421632728248369
 20
2178.9544756870891433
 30
0.0
 40
0.06427044948974
 50
204.3290743039565882
 51
212.001313269426106
  0
ARC
  5
1567F
  8
0
 10
8646.0011009820318577
 20
2178.9288158113549798
 30
0.0
 40
0.0158499894754322
 50
212.0013132694481897
 51
245.395273992045702
  0
ARC
  5
15680
  8
0
 10
8646.0053093191672815
 20
2178.9380056141008026
 30
0.0
 40
0.0259575399191805
 50
245.395273992045702
 51
260.8039256987947851
  0
ARC
  5
15681
  8
0
 10
8646.0031813254136068
 20
2178.9312223160200119
 30
0.0
 40
0.0189486328906997
 50
263.8792783964109958
 51
284.605296351205709
  0
ARC
  5
15682
  8
0
 10
8645.9623898593672493
 20
2178.9491484290879271
 30
0.0
 40
0.0159140739621654
 50
349.8530315028713744
 51
351.3230245247793277
  0
ARC
  5
15683
  8
0
 10
8645.9719862502388423
 20
2178.9461842816281205
 30
0.0
 40
0.0061613432504503
 50
5.2455217005666412
 51
10.7444117099678298
  0
ARC
  5
15684
  8
0
 10
8645.9675176091859612
 20
2178.9457674785999188
 30
0.0
 40
0.0106377832378964
 50
8.4623531596381927
 51
16.26151570395524
  0
ARC
  5
15685
  8
0
 10
8645.8599854234034865
 20
2178.9184274800500134
 30
0.0
 40
0.1215852441671968
 50
14.43979682673063
 51
17.3766358224648698
  0
ARC
  5
15686
  8
0
 10
8645.6304255752966128
 20
2178.8465905748148543
 30
0.0
 40
0.3621226940914289
 50
17.3766358224648698
 51
18.79528374836881
  0
ARC
  5
15687
  8
0
 10
8644.859295459866189
 20
2178.5841472994347896
 30
0.0
 40
1.17668891467604
 50
18.79528374836881
 51
19.2583938852614516
  0
ARC
  5
15688
  8
0
 10
8645.5966813323939277
 20
2178.8387143584850492
 30
0.0
 40
0.3966135716878713
 50
19.6758279849801596
 51
21.3572842729065684
  0
ARC
  5
15689
  8
0
 10
8645.8757931551954243
 20
2178.9489017679570679
 30
0.0
 40
0.0965456024032773
 50
20.7798885422005917
 51
25.6046010320584791
  0
ARC
  5
1568A
  8
0
 10
8645.9586279901031958
 20
2178.9885977501749039
 30
0.0
 40
0.0046903854666791
 50
25.6046010320584791
 51
36.893831058925791
  0
ARC
  5
1568B
  8
0
 10
8645.9620268695598497
 20
2178.9911491288507932
 30
0.0
 40
0.0004404543263981
 50
36.8938310592592913
 51
59.1969051037646921
  0
ARC
  5
1568C
  8
0
 10
8645.9622196832351619
 20
2178.991472537079062
 30
0.0
 40
0.0000639307619725
 50
59.1969051022006667
 51
109.5685201098151964
  0
ARC
  5
1568D
  8
0
 10
8645.9630742345052568
 20
2178.991217124087143
 30
0.0
 40
0.0009311006188256
 50
160.1835093940098886
 51
185.6239713358359893
  0
LINE
  5
1568E
  8
0
 10
8645.9621476157535653
 20
2178.99112587690297
 30
0.0
 11
8645.9634346576531243
 21
2178.9859773930029405
 31
0.0
  0
ARC
  5
1568F
  8
0
 10
8646.006378755935657
 20
2178.9967127579998305
 30
0.0
 40
0.0442656033385194
 50
194.0354152299605914
 51
200.1787690635233048
  0
ARC
  5
15690
  8
0
 10
8645.8367861624847137
 20
2178.9343861730139906
 30
0.0
 40
0.1364171322766406
 50
16.4062811279991401
 51
20.1787690635232693
  0
ARC
  5
15691
  8
0
 10
8646.052328504714751
 20
2178.9978494109100211
 30
0.0
 40
0.0882739531206963
 50
196.4062811279991081
 51
202.1771085147699978
  0
ARC
  5
15692
  8
0
 10
8645.8129917401674902
 20
2178.9002894159029893
 30
0.0
 40
0.1701830829383627
 50
18.7644514468163983
 51
22.1771085147700013
  0
ARC
  5
15693
  8
0
 10
8646.0299700933937856
 20
2178.9740046808478837
 30
0.0
 40
0.0589752598171931
 50
198.7644514467916963
 51
205.8973951177025015
  0
ARC
  5
15694
  8
0
 10
8646.0459220026568801
 20
2178.9817496155960725
 30
0.0
 40
0.0767079252500915
 50
205.8973951177025015
 51
206.914902560861691
  0
ARC
  5
15695
  8
0
 10
8645.9806662089649762
 20
2178.9486221176239269
 30
0.0
 40
0.0035249372528622
 50
206.9149025607912904
 51
215.2466319276674938
  0
ARC
  5
15696
  8
0
 10
8645.9790702028385567
 20
2178.947494312685194
 30
0.0
 40
0.0015706651293233
 50
215.2466319277914124
 51
225.1625273766132977
  0
ARC
  5
15697
  8
0
 10
8645.9780537195256329
 20
2178.9464720461610341
 30
0.0
 40
0.0001290454934018
 50
225.1625273748813925
 51
255.2045534549644117
  0
ARC
  5
15698
  8
0
 10
8645.9780526535687386
 20
2178.9464680103828869
 30
0.0
 40
0.0001248713148701
 50
255.2045534543198926
 51
265.5782850220592763
  0
ARC
  5
15699
  8
0
 10
8645.9780455790805718
 20
2178.9463765224991221
 30
0.0
 40
0.0000331103140935
 50
265.5782850236279842
 51
286.5719083896049142
  0
LINE
  5
1569A
  8
0
 10
8646.157585850718533
 20
2178.6566129954489952
 30
0.0
 11
8646.1421639215004689
 21
2178.7014561674718607
 31
0.0
  0
LINE
  5
1569B
  8
0
 10
8646.1009863619801763
 20
2178.8229006434930852
 30
0.0
 11
8646.0692477260272426
 21
2178.9188030654850081
 31
0.0
  0
ARC
  5
1569C
  8
0
 10
8646.3729433457956475
 20
2179.1268312258371225
 30
0.0
 40
0.3405942843446752
 50
201.9354618606581937
 51
207.0379976804269972
  0
ARC
  5
1569D
  8
0
 10
8646.111885674050427
 20
2178.9935975479111221
 30
0.0
 40
0.0475033071539229
 50
207.0379976804269972
 51
215.9626647092389931
  0
ARC
  5
1569E
  8
0
 10
8646.0838898847796372
 20
2178.9732852756142165
 30
0.0
 40
0.0129149764239611
 50
215.9626647092389931
 51
236.0593650475830998
  0
ARC
  5
1569F
  8
0
 10
8646.0771813634037244
 20
2178.9633172208777978
 30
0.0
 40
0.0008997205266115
 50
236.0593650472218883
 51
310.5937086762775721
  0
ARC
  5
156A0
  8
0
 10
8646.0759060123946256
 20
2178.9648055291390847
 30
0.0
 40
0.002859715850606
 50
310.5937086763736943
 51
347.835461432869522
  0
ARC
  5
156A1
  8
0
 10
8646.0604284412147535
 20
2178.9681418726640914
 30
0.0
 40
0.0186927950761623
 50
347.835461432869522
 51
359.1393558798362733
  0
ARC
  5
156A2
  8
0
 10
8646.0159465792385163
 20
2178.9688100882431172
 30
0.0
 40
0.0631796758061548
 50
359.1393558798362733
 51
10.2156586695833198
  0
ARC
  5
156A3
  8
0
 10
8645.1996654298563953
 20
2178.8217076082760286
 30
0.0
 40
0.892609633334225
 50
10.2156586695833198
 51
13.0620568886020791
  0
ARC
  5
156A4
  8
0
 10
8645.7187677593647095
 20
2178.9421441780050372
 30
0.0
 40
0.3597192169926538
 50
13.0620568886020791
 51
15.2915515129289492
  0
ARC
  5
156A5
  8
0
 10
8646.0456153330396774
 20
2178.97835241731309
 30
0.0
 40
0.0241067541753476
 50
61.8018605136386299
 51
88.7135566772487181
  0
ARC
  5
156A6
  8
0
 10
8646.0344047098751616
 20
2179.2461456666610502
 30
0.0
 40
0.2439757672767269
 50
267.8252766498661117
 51
272.7608947104134245
  0
ARC
  5
156A7
  8
0
 10
8646.0275660041806987
 20
2179.0728295681951749
 30
0.0
 40
0.0705254589332598
 50
212.7133414955100079
 51
268.03403430197028
  0
ARC
  5
156A8
  8
0
 10
8646.0872871734372893
 20
2179.1111895180920328
 30
0.0
 40
0.1415050603233963
 50
195.912074847570409
 51
212.7133414955100079
  0
ARC
  5
156A9
  8
0
 10
8646.8387973834505829
 20
2179.4158266762801759
 30
0.0
 40
0.9517182959924234
 50
195.7549408787820084
 51
201.1527233397351893
  0
ARC
  5
156AA
  8
0
 10
8645.9931236327101942
 20
2179.1764277515080721
 30
0.0
 40
0.0728167737841238
 50
147.6673330189831006
 51
195.1373366731046133
  0
ARC
  5
156AB
  8
0
 10
8645.9907010245788115
 20
2179.1779611947390549
 30
0.0
 40
0.0699496361317166
 50
126.5945827286456051
 51
147.6673330189831006
  0
ARC
  5
156AC
  8
0
 10
8648.2322983461508557
 20
2176.1590515601419611
 30
0.0
 40
3.830079146394513
 50
126.2662571761969019
 51
126.5945827286456051
  0
ARC
  5
156AD
  8
0
 10
8645.9490576781718119
 20
2179.2711467672697836
 30
0.0
 40
0.0297556332499197
 50
306.266257176166107
 51
332.7159877454893717
  0
ARC
  5
156AE
  8
0
 10
8646.3820385515300586
 20
2179.3525824570961049
 30
0.0
 40
0.4175052884782222
 50
192.0084675842770991
 51
193.1630750766952929
  0
ARC
  5
156AF
  8
0
 10
8646.5727733772873762
 20
2179.393153858497044
 30
0.0
 40
0.6125073714635046
 50
190.5781359280884999
 51
192.0084675842770991
  0
ARC
  5
156B0
  8
0
 10
8646.072680683557337
 20
2179.2997615596959804
 30
0.0
 40
0.1037689084021288
 50
185.5658709685673955
 51
190.5781359281141079
  0
ARC
  5
156B1
  8
0
 10
8646.0281787590502063
 20
2179.2954248693299633
 30
0.0
 40
0.059056179029072
 50
180.9938051638376919
 51
185.5658709685673955
  0
ARC
  5
156B2
  8
0
 10
8645.980488811921532
 20
2179.2945975960178657
 30
0.0
 40
0.0113590571192283
 50
162.5056064087933976
 51
180.9938051638376919
  0
ARC
  5
156B3
  8
0
 10
8645.970658660375193
 20
2179.2976959734210141
 30
0.0
 40
0.0010521748587966
 50
124.5931226053771042
 51
162.5056064086940069
  0
ARC
  5
156B4
  8
0
 10
8645.9706986043147481
 20
2179.2976380565150976
 30
0.0
 40
0.0011225302860929
 50
89.983654889561663
 51
124.5931226053771042
  0
ARC
  5
156B5
  8
0
 10
8645.970698613771674
 20
2179.2976712109389155
 30
0.0
 40
0.0010893758604674
 50
53.7131068953590614
 51
89.983654889561663
  0
ARC
  5
156B6
  8
0
 10
8645.9760136190834601
 20
2179.3049101840801995
 30
0.0
 40
0.0078912707533753
 50
233.7131068953590898
 51
238.235280050562892
  0
ARC
  5
156B7
  8
0
 10
8645.9434651291958289
 20
2179.2720978586630736
 30
0.0
 40
0.0385694550567562
 50
25.9895059221617295
 51
42.5925244313804185
  0
ARC
  5
156B8
  8
0
 10
8644.9706121478666319
 20
2178.8150278737330154
 30
0.0
 40
1.1134404298619249
 50
18.0343440789688891
 51
25.1938293327153495
  0
ARC
  5
156B9
  8
0
 10
8645.9543741955312726
 20
2179.155656302089028
 30
0.0
 40
0.0300164624424533
 50
183.1239224311759983
 51
189.7596467217798022
  0
ARC
  5
156BA
  8
0
 10
8645.9248959171945899
 20
2179.1540474712978721
 30
0.0
 40
0.0004943143148067
 50
146.0333229828493131
 51
183.1239224309159113
  0
ARC
  5
156BB
  8
0
 10
8645.9245817309256381
 20
2179.1542591268521392
 30
0.0
 40
0.0001154857447594
 50
95.2282166424430443
 51
146.0333229860216875
  0
ARC
  5
156BC
  8
0
 10
8645.9245874834396091
 20
2179.1541962603960201
 30
0.0
 40
0.0001786148400636
 50
58.4922421618201298
 51
95.2282166426506365
  0
ARC
  5
156BD
  8
0
 10
8645.9240467496510973
 20
2179.1533141311779218
 30
0.0
 40
0.0012132862791222
 50
28.8165936270847816
 51
58.4922421618065087
  0
ARC
  5
156BE
  8
0
 10
8645.9136757838368794
 20
2179.1460991992380514
 30
0.0
 40
0.0138409734406772
 50
27.2331610358915093
 51
34.2999793639656829
  0
ARC
  5
156BF
  8
0
 10
8645.3999054475007142
 20
2178.9140626504367901
 30
0.0
 40
0.5775616843495111
 50
16.6090809783586089
 51
24.3757172454689517
  0
ARC
  5
156C0
  8
0
 10
8657.6848534575728991
 20
2182.5784849300907808
 30
0.0
 40
12.2422642994064006
 50
196.6090809783586053
 51
196.7320159690719947
  0
ARC
  5
156C1
  8
0
 10
8645.9477630197270628
 20
2179.0500390248939766
 30
0.0
 40
0.0137229089772349
 50
7.8431432864247297
 51
16.7320159690720303
  0
ARC
  5
156C2
  8
0
 10
8645.7547265956345655
 20
2179.0234482262580968
 30
0.0
 40
0.208582169979775
 50
7.3417670280242291
 51
7.8431432864247297
  0
ARC
  5
156C3
  8
0
 10
8645.9606929725905502
 20
2179.0499857496120057
 30
0.0
 40
0.0009132301187006
 50
346.9933886441017989
 51
7.3417670280242291
  0
ARC
  5
156C4
  8
0
 10
8645.9606731218227651
 20
2179.0499903349359556
 30
0.0
 40
0.0009336035877662
 50
332.5143519380666248
 51
346.9933886440765036
  0
ARC
  5
156C5
  8
0
 10
8645.961430057990583
 20
2179.049596539860886
 30
0.0
 40
0.0000803586502553
 50
254.8364963453070118
 51
332.5143519390235838
  0
ARC
  5
156C6
  8
0
 10
8645.961546213928159
 20
2179.0500251435792052
 30
0.0
 40
0.0005244232278475
 50
230.8125330262502075
 51
254.8364963454212102
  0
ARC
  5
156C7
  8
0
 10
8645.9662817687967618
 20
2179.054104262635974
 30
0.0
 40
0.0067671388001676
 50
206.8581618024749105
 51
221.5175089436482097
  0
ARC
  5
156C8
  8
0
 10
8646.0091140906351939
 20
2179.0772851881051793
 30
0.0
 40
0.0554677286428935
 50
204.1763826935950874
 51
208.2315203815452946
  0
ARC
  5
156C9
  8
0
 10
8645.4372765918687946
 20
2178.8415052505588392
 30
0.0
 40
0.5631001580164975
 50
22.2330925941165205
 51
23.9591463332069416
  0
LINE
  5
156CA
  8
0
 10
8645.9660722803819226
 20
2179.2467247433769444
 30
0.0
 11
8645.9420810445262759
 21
2179.3267815213230278
 31
0.0
  0
ARC
  5
156CB
  8
0
 10
8646.1757759092470224
 20
2179.4364258202358542
 30
0.0
 40
0.059084901759771
 50
213.8374935574697986
 51
226.0848615691151053
  0
ARC
  5
156CC
  8
0
 10
8646.1443597593570303
 20
2179.4038009109790437
 30
0.0
 40
0.0137929693191189
 50
226.0965059073323005
 51
246.9387138099284016
  0
ARC
  5
156CD
  8
0
 10
8646.1415821904902259
 20
2179.3972767801519694
 30
0.0
 40
0.0067021885533647
 50
246.9387138099284016
 51
274.8794680325885906
  0
ARC
  5
156CE
  8
0
 10
8646.1418611241169856
 20
2179.3940094026679617
 30
0.0
 40
0.0034229265034491
 50
274.8794680325885906
 51
313.802233824765608
  0
ARC
  5
156CF
  8
0
 10
8646.138114982195475
 20
2179.3979155384831756
 30
0.0
 40
0.0088350865440055
 50
313.802233824765608
 51
340.4551956862954967
  0
ARC
  5
156D0
  8
0
 10
8646.1250157450649567
 20
2179.40256575272997
 30
0.0
 40
0.0227352486272672
 50
340.4551956862954967
 51
348.9058709869817108
  0
ARC
  5
156D1
  8
0
 10
8646.1105291720268724
 20
2179.4054063638468506
 30
0.0
 40
0.0374976965911619
 50
348.9058709869817108
 51
359.4294290906864831
  0
ARC
  5
156D2
  8
0
 10
8646.0292084161465027
 20
2179.4062162104328308
 30
0.0
 40
0.1188224848690832
 50
359.4294290906864831
 51
11.0677695913015892
  0
ARC
  5
156D3
  8
0
 10
8645.6276834651616809
 20
2179.3276746836299935
 30
0.0
 40
0.5279570076055184
 50
11.0677695913015892
 51
13.3638404629782901
  0
ARC
  5
156D4
  8
0
 10
8645.8674684549914673
 20
2179.3846396322592227
 30
0.0
 40
0.2814983970432986
 50
13.3638404629782901
 51
22.1224493666507485
  0
ARC
  5
156D5
  8
0
 10
8645.8088012083571812
 20
2179.3607905526228024
 30
0.0
 40
0.3448278880200489
 50
22.1224493666507485
 51
30.9354089281763684
  0
ARC
  5
156D6
  8
0
 10
8646.0764195623214619
 20
2179.5211815454567841
 30
0.0
 40
0.0328265194964553
 50
30.9354089281763684
 51
51.9369251901360514
  0
ARC
  5
156D7
  8
0
 10
8646.0875682875393977
 20
2179.5351208867518835
 30
0.0
 40
0.0149792420298518
 50
52.6397941095541029
 51
73.8487107631025594
  0
ARC
  5
156D8
  8
0
 10
8646.0910720582814974
 20
2179.5451482888461214
 30
0.0
 40
0.0044107424376507
 50
81.3538571538134363
 51
110.1419818160767932
  0
ARC
  5
156D9
  8
0
 10
8646.0908986925805948
 20
2179.5456209594522079
 30
0.0
 40
0.0039072812494929
 50
110.1419818161746065
 51
139.7547420039053065
  0
ARC
  5
156DA
  8
0
 10
8646.0949661344020569
 20
2179.5421781936288426
 30
0.0
 40
0.0092361384902086
 50
139.7547420039053065
 51
161.6806014531451865
  0
ARC
  5
156DB
  8
0
 10
8646.1097745099996246
 20
2179.537275228999988
 30
0.0
 40
0.0248350823645896
 50
161.6806014531451865
 51
172.8558049314459879
  0
ARC
  5
156DC
  8
0
 10
8646.1409462773008272
 20
2179.5333681604279263
 30
0.0
 40
0.0562507514081343
 50
172.8558049314459879
 51
178.9403136602848008
  0
ARC
  5
156DD
  8
0
 10
8646.1535705480073375
 20
2179.5331346477178158
 30
0.0
 40
0.0688771815848824
 50
178.9403136602848008
 51
182.8066652833545049
  0
ARC
  5
156DE
  8
0
 10
8646.0731974684931629
 20
2179.5387936866782184
 30
0.0
 40
0.0146844576674725
 50
283.9775504794108087
 51
322.0444430269424174
  0
LINE
  5
156DF
  8
0
 10
8646.0767443773256673
 20
2179.5245440293228967
 30
0.0
 11
8646.0392031577284797
 21
2179.5145381963038744
 31
0.0
  0
ARC
  5
156E0
  8
0
 10
8646.0439797790440934
 20
2179.4941626550012188
 30
0.0
 40
0.0209279429170933
 50
103.1935526525216034
 51
143.2705554612635979
  0
ARC
  5
156E1
  8
0
 10
8646.0478552683744056
 20
2179.4912708549400122
 30
0.0
 40
0.0257634289466237
 50
143.2705554612635979
 51
176.047198149943398
  0
ARC
  5
156E2
  8
0
 10
8646.110613794055098
 20
2179.4869342992869861
 30
0.0
 40
0.0886716021887082
 50
176.047198149943398
 51
181.8497167144116986
  0
ARC
  5
156E3
  8
0
 10
8646.1089212410352047
 20
2179.4868796385121641
 30
0.0
 40
0.0869781667680407
 50
181.8497167144116986
 51
196.0363815508138998
  0
ARC
  5
156E4
  8
0
 10
8646.3627197473306296
 20
2179.5598296280700197
 30
0.0
 40
0.3510527448216705
 50
196.0363815508138998
 51
204.3861298017104104
  0
ARC
  5
156E5
  8
0
 10
8646.0898444086233212
 20
2179.4361275265709992
 30
0.0
 40
0.0514477375369814
 50
204.3861298017104104
 51
229.3091867341587999
  0
ARC
  5
156E6
  8
0
 10
8646.0718229121830518
 20
2179.4151688075571656
 30
0.0
 40
0.0238064235903254
 50
229.3091867342378123
 51
258.8394472280895116
  0
ARC
  5
156E7
  8
0
 10
8646.0713106843304558
 20
2179.4125724875448213
 30
0.0
 40
0.0211600572178822
 50
258.8394472280895116
 51
285.7941201520977188
  0
LINE
  5
156E8
  8
0
 10
8646.0770700604480226
 20
2179.3922113085959609
 30
0.0
 11
8646.1197888939295808
 21
2179.4035809057631923
 31
0.0
  0
ARC
  5
156E9
  8
0
 10
8646.1232548026018776
 20
2179.3883997828329484
 30
0.0
 40
0.0155718489959761
 50
78.6931913734587454
 51
102.7583964909635057
  0
ARC
  5
156EA
  8
0
 10
8646.1260456425952725
 20
2179.4023579400532071
 30
0.0
 40
0.0013374209836298
 50
60.7667946048958072
 51
78.6931913734587454
  0
ARC
  5
156EB
  8
0
 10
8645.3895725858656078
 20
2182.0799366098390237
 30
0.0
 40
0.0750801690750194
 50
356.8558368743553046
 51
359.5404279033604098
  0
ARC
  5
156EC
  8
0
 10
8645.446018082628143
 20
2182.0786802743209591
 30
0.0
 40
0.0187414233639119
 50
340.0486106479867772
 51
351.2169405087855125
  0
ARC
  5
156ED
  8
0
 10
8645.4450437172636157
 20
2182.0791479671688649
 30
0.0
 40
0.019817186828858
 50
306.8990989722548761
 51
339.7388227281330728
  0
ARC
  5
156EE
  8
0
 10
8645.4452262821359909
 20
2182.0789045889769113
 30
0.0
 40
0.0195129453778604
 50
284.9320877551318745
 51
306.8994809149701837
  0
LINE
  5
156EF
  8
0
 10
8645.4029676586269488
 20
2182.0474453862229893
 30
0.0
 11
8645.4502542600239394
 21
2182.0600505582228834
 31
0.0
  0
ARC
  5
156F0
  8
0
 10
8645.4080463612808671
 20
2182.0295068706641359
 30
0.0
 40
0.0186435930319194
 50
105.8077310745275952
 51
145.1185226068488134
  0
ARC
  5
156F1
  8
0
 10
8645.4086524675913097
 20
2182.0292153628538472
 30
0.0
 40
0.0193078112185327
 50
145.4374878825578037
 51
181.4511209302951045
  0
ARC
  5
156F2
  8
0
 10
8645.9202644367978792
 20
2182.0421756475961956
 30
0.0
 40
0.5310839107162559
 50
181.4511209302951045
 51
186.0070939748291039
  0
ARC
  5
156F3
  8
0
 10
8644.6525201957247191
 20
2181.9087716591061508
 30
0.0
 40
0.7436600184395008
 50
2.5538838574009799
 51
6.0070939748291519
  0
ARC
  5
156F4
  8
0
 10
8645.4397038115785108
 20
2181.9438825873248788
 30
0.0
 40
0.044306238672759
 50
182.5538838574009901
 51
192.4044719912984931
  0
ARC
  5
156F5
  8
0
 10
8645.4181069251080771
 20
2181.9391324367029483
 30
0.0
 40
0.0221931331443069
 50
192.4044719912984931
 51
220.5025896049212122
  0
ARC
  5
156F6
  8
0
 10
8645.4138320238598681
 20
2181.9354809919468607
 30
0.0
 40
0.0165710490564213
 50
220.5025896049608036
 51
265.9161197828451009
  0
ARC
  5
156F7
  8
0
 10
8645.2966586240672768
 20
2181.9993153841669482
 30
0.0
 40
0.0946660609768959
 50
357.6331099435299734
 51
1.7486107617570761
  0
ARC
  5
156F8
  8
0
 10
8645.3934969785677822
 20
2182.0022717132819707
 30
0.0
 40
0.0022174091505172
 50
169.9966435122859991
 51
181.7486107618352094
  0
ARC
  5
156F9
  8
0
 10
8645.3914117259955674
 20
2182.0026395255290481
 30
0.0
 40
0.0000999663221213
 50
148.4436370947825878
 51
169.9966435122422013
  0
ARC
  5
156FA
  8
0
 10
8645.3913350716611603
 20
2182.002686603150778
 30
0.0
 40
0.0000100097245679
 50
80.4220853819071237
 51
148.4436371065484082
  0
LINE
  5
156FB
  8
0
 10
8645.3913985540257272
 20
2182.0025604063230276
 30
0.0
 11
8645.391336737167876
 21
2182.002696473342894
 31
0.0
  0
ARC
  5
156FC
  8
0
 10
8645.3866565479183919
 20
2182.0014170875178934
 30
0.0
 40
0.0048778888711214
 50
7.780396515601339
 51
13.5555525008874707
  0
ARC
  5
156FD
  8
0
 10
8645.2860341462765064
 20
2181.9876686048878582
 30
0.0
 40
0.1064352051327538
 50
6.491128078842741
 51
7.780396515601339
  0
ARC
  5
156FE
  8
0
 10
8645.2683732300156407
 20
2181.9856591677921642
 30
0.0
 40
0.1242100694284282
 50
5.2178400001530534
 51
6.491128078842741
  0
ARC
  5
156FF
  8
0
 10
8640.887536972104499
 20
2181.5855964530110214
 30
0.0
 40
4.5232754808957871
 50
5.1406541506681958
 51
5.2178400001530534
  0
ARC
  5
15700
  8
0
 10
8644.9849777728759364
 20
2181.9542139797958953
 30
0.0
 40
0.4092871487667863
 50
4.2559996177648376
 51
5.1406541506681958
  0
ARC
  5
15701
  8
0
 10
8647.1691213907815836
 20
2182.1167538611148302
 30
0.0
 40
1.7808960756811241
 50
184.2559996177647861
 51
184.4622702015255982
  0
ARC
  5
15702
  8
0
 10
8644.865926610016686
 20
2181.9370144910508316
 30
0.0
 40
0.5293014135592133
 50
3.5025792003733911
 51
4.4622702015255991
  0
ARC
  5
15703
  8
0
 10
8645.2605240640277771
 20
2181.9584726260309253
 30
0.0
 40
0.1341570531562493
 50
359.0526007846710854
 51
4.6511917861786278
  0
ARC
  5
15704
  8
0
 10
8645.4712599714675889
 20
2182.079154768493936
 30
0.0
 40
0.0066120720885445
 50
171.046170560482409
 51
178.4432875541513965
  0
ARC
  5
15705
  8
0
 10
8645.4654355836864852
 20
2182.0800724503110359
 30
0.0
 40
0.00071583320464
 50
157.0663287282590943
 51
171.0461705604986093
  0
ARC
  5
15706
  8
0
 10
8645.4648898957966594
 20
2182.0803033359029541
 30
0.0
 40
0.0001233102715188
 50
131.0572040204762061
 51
157.0663287284916123
  0
ARC
  5
15707
  8
0
 10
8645.4648291235644137
 20
2182.0803731055520984
 30
0.0
 40
0.0000307842312232
 50
78.8219590929070932
 51
131.057204015196703
  0
ARC
  5
15708
  8
0
 10
8645.464825032695444
 20
2182.0803524035191003
 30
0.0
 40
0.0000518865857182
 50
50.6109260194140091
 51
78.8219590970461041
  0
ARC
  5
15709
  8
0
 10
8645.4647805039185187
 20
2182.0802981722149525
 30
0.0
 40
0.0001220567110196
 50
33.8571224429990068
 51
50.6109260192507975
  0
ARC
  5
1570A
  8
0
 10
8645.4644416930477746
 20
2182.0800708686151665
 30
0.0
 40
0.0005300514789718
 50
19.62571984327883
 51
33.8571224430206499
  0
ARC
  5
1570B
  8
0
 10
8645.4614234629643761
 20
2182.0789945983178768
 30
0.0
 40
0.0037344345081142
 50
13.4774231732658301
 51
19.6257198433279108
  0
ARC
  5
1570C
  8
0
 10
8645.4513606340642582
 20
2182.0765829201468478
 30
0.0
 40
0.0140822225357987
 50
9.1080246454443738
 51
13.4774231732658301
  0
ARC
  5
1570D
  8
0
 10
8645.2372543825040339
 20
2182.0422578979669197
 30
0.0
 40
0.2309224727326409
 50
8.7666717195339299
 51
9.1080246454443738
  0
ARC
  5
1570E
  8
0
 10
8645.3332213509947906
 20
2182.0570572140718468
 30
0.0
 40
0.1338210886100319
 50
5.0417574048579938
 51
8.7666717195339299
  0
ARC
  5
1570F
  8
0
 10
8606.2018144536286854
 20
2178.6047634583451327
 30
0.0
 40
39.4172188278977131
 50
4.954414913697434
 51
5.0417574048579938
  0
ARC
  5
15710
  8
0
 10
8643.9363943211501464
 20
2181.8758617191961093
 30
0.0
 40
1.541123442936758
 50
3.3056765259497598
 51
4.954414913697434
  0
ARC
  5
15711
  8
0
 10
8646.1103538856004889
 20
2179.4703243383410154
 30
0.0
 40
0.0794993854013985
 50
199.0726038046379074
 51
210.2361448720116925
  0
ARC
  5
15712
  8
0
 10
8646.0563285687148891
 20
2179.4388352097380448
 30
0.0
 40
0.0169669931170617
 50
210.2361448720116925
 51
225.9643545909621878
  0
ARC
  5
15713
  8
0
 10
8646.0472949653358228
 20
2179.4294922787048563
 30
0.0
 40
0.0039709802554483
 50
225.9643545909621878
 51
245.9852132147794919
  0
ARC
  5
15714
  8
0
 10
8646.046383263397729
 20
2179.4274459840571581
 30
0.0
 40
0.0017307744142904
 50
245.9852132149065085
 51
268.9656566107793765
  0
ARC
  5
15715
  8
0
 10
8646.0463710026415356
 20
2179.4267668930319815
 30
0.0
 40
0.0010515727158777
 50
268.9656566106751256
 51
302.6032105476688798
  0
ARC
  5
15716
  8
0
 10
8646.0460425004421268
 20
2179.4272804941961112
 30
0.0
 40
0.0016612446364733
 50
302.6032105476970173
 51
340.3175714498848947
  0
ARC
  5
15717
  8
0
 10
8646.0394051571511227
 20
2179.4296547109120183
 30
0.0
 40
0.0087104453695897
 50
340.3175714498848947
 51
355.08593285522511
  0
ARC
  5
15718
  8
0
 10
8646.0254899037408904
 20
2179.4308511105791695
 30
0.0
 40
0.0226770358495986
 50
355.08593285522511
 51
12.3950273882706696
  0
ARC
  5
15719
  8
0
 10
8645.7249319826314604
 20
2179.3647965112309066
 30
0.0
 40
0.3304078825911639
 50
12.3950273882706696
 51
14.4981019312124193
  0
ARC
  5
1571A
  8
0
 10
8645.9840503748346237
 20
2179.4317999258842065
 30
0.0
 40
0.0627667072222429
 50
14.4981019312124193
 51
27.2102011206092911
  0
ARC
  5
1571B
  8
0
 10
8645.9645354874555778
 20
2179.4217662434862177
 30
0.0
 40
0.0847099433520992
 50
27.2102011206092911
 51
33.6955382119795601
  0
ARC
  5
1571C
  8
0
 10
8646.0304580495703703
 20
2179.4657237106939647
 30
0.0
 40
0.0054758400945993
 50
33.6955382120012388
 51
60.7187988656857769
  0
ARC
  5
1571D
  8
0
 10
8646.0313887853062624
 20
2179.4673835381008757
 30
0.0
 40
0.0035728697766508
 50
60.7187988656857769
 51
69.7447504011057191
  0
ARC
  5
1571E
  8
0
 10
8646.0321636921507888
 20
2179.4694834224951592
 30
0.0
 40
0.0013345679453328
 50
69.7447504012125137
 51
100.4728716866704019
  0
ARC
  5
1571F
  8
0
 10
8646.0321179211205163
 20
2179.4697310350939006
 30
0.0
 40
0.0010827605070929
 50
100.4728716868800973
 51
136.2079300581609118
  0
ARC
  5
15720
  8
0
 10
8646.034684818059759
 20
2179.4679168488519281
 30
0.0
 40
0.0042171035568651
 50
142.5634505758762032
 51
177.0076454835358106
  0
ARC
  5
15721
  8
0
 10
8646.0646686001618946
 20
2179.4659606240738867
 30
0.0
 40
0.0342643238015448
 50
176.3582891419052032
 51
194.6489759805282915
  0
ARC
  5
15722
  8
0
 10
8646.3186566420299641
 20
2179.5323514428901035
 30
0.0
 40
0.2967860681118081
 50
194.6489759805282915
 51
197.2490691347819904
  0
ARC
  5
15723
  8
0
 10
8646.0720683674408065
 20
2179.8514949031609831
 30
0.0
 40
0.059084901759771
 50
213.8374935574697986
 51
226.0848615691151053
  0
ARC
  5
15724
  8
0
 10
8646.0406522175508144
 20
2179.8188699939050821
 30
0.0
 40
0.0137929693191189
 50
226.0965059073323005
 51
246.9387138099284016
  0
ARC
  5
15725
  8
0
 10
8646.037874648682191
 20
2179.8123458630780078
 30
0.0
 40
0.0067021885533647
 50
246.9387138099284016
 51
274.8794680325885906
  0
ARC
  5
15726
  8
0
 10
8646.0381535823071317
 20
2179.8090784855930906
 30
0.0
 40
0.0034229265034491
 50
274.8794680325885906
 51
313.802233824765608
  0
ARC
  5
15727
  8
0
 10
8646.0344074403874401
 20
2179.8129846214078498
 30
0.0
 40
0.0088350865440055
 50
313.802233824765608
 51
340.4551956862954967
  0
ARC
  5
15728
  8
0
 10
8646.0213082032569218
 20
2179.8176348356550989
 30
0.0
 40
0.0227352486272672
 50
340.4551956862954967
 51
348.9058709869817108
  0
ARC
  5
15729
  8
0
 10
8646.0068216302188375
 20
2179.8204754467719795
 30
0.0
 40
0.0374976965911619
 50
348.9058709869817108
 51
359.4294290906864831
  0
ARC
  5
1572A
  8
0
 10
8645.9255008743384678
 20
2179.8212852933588692
 30
0.0
 40
0.1188224848690832
 50
359.4294290906864831
 51
11.0677695913015892
  0
ARC
  5
1572B
  8
0
 10
8645.5239759233554651
 20
2179.7427437665551224
 30
0.0
 40
0.5279570076055184
 50
11.0677695913015892
 51
13.3638404629782901
  0
ARC
  5
1572C
  8
0
 10
8645.7637609131888894
 20
2179.7997087151848064
 30
0.0
 40
0.2814983970432986
 50
13.3638404629782901
 51
22.1224493666507485
  0
ARC
  5
1572D
  8
0
 10
8645.7050936665509653
 20
2179.7758596355488407
 30
0.0
 40
0.3448278880200489
 50
22.1224493666507485
 51
30.9354089281763684
  0
ARC
  5
1572E
  8
0
 10
8645.972712020513427
 20
2179.936250628381913
 30
0.0
 40
0.0328265194964553
 50
30.9354089281763684
 51
51.9369251901360514
  0
ARC
  5
1572F
  8
0
 10
8645.9838607457313628
 20
2179.9501899696779219
 30
0.0
 40
0.0149792420298518
 50
52.6397941095541029
 51
73.8487107631025594
  0
ARC
  5
15730
  8
0
 10
8645.9873645164734626
 20
2179.9602173717707956
 30
0.0
 40
0.0044107424376507
 50
81.3538571538134363
 51
110.1419818160767932
  0
ARC
  5
15731
  8
0
 10
8645.9871911507725599
 20
2179.9606900423777915
 30
0.0
 40
0.0039072812494929
 50
110.1419818161746065
 51
139.7547420039053065
  0
ARC
  5
15732
  8
0
 10
8645.991258592595841
 20
2179.9572472765539715
 30
0.0
 40
0.0092361384902086
 50
139.7547420039053065
 51
161.6806014531451865
  0
ARC
  5
15733
  8
0
 10
8646.0060669681934087
 20
2179.9523443119260264
 30
0.0
 40
0.0248350823645896
 50
161.6806014531451865
 51
172.8558049314459879
  0
ARC
  5
15734
  8
0
 10
8646.0372387354927923
 20
2179.9484372433539647
 30
0.0
 40
0.0562507514081343
 50
172.8558049314459879
 51
178.9403136602848008
  0
ARC
  5
15735
  8
0
 10
8646.0498630061974836
 20
2179.9482037306429447
 30
0.0
 40
0.0688771815848824
 50
178.9403136602848008
 51
182.8066652833545049
  0
ARC
  5
15736
  8
0
 10
8645.969489926685128
 20
2179.9538627696028925
 30
0.0
 40
0.0146844576674725
 50
283.9775504794108087
 51
322.0444430269424174
  0
LINE
  5
15737
  8
0
 10
8645.9730368355194514
 20
2179.9396131122489351
 30
0.0
 11
8645.9354956159222638
 21
2179.9296072792299128
 31
0.0
  0
ARC
  5
15738
  8
0
 10
8645.9402722372360586
 20
2179.9092317379268025
 30
0.0
 40
0.0209279429170933
 50
103.1935526525216034
 51
143.2705554612635979
  0
ARC
  5
15739
  8
0
 10
8645.9441477265663707
 20
2179.9063399378660506
 30
0.0
 40
0.0257634289466237
 50
143.2705554612635979
 51
176.047198149943398
  0
ARC
  5
1573A
  8
0
 10
8646.0069062522488821
 20
2179.902003382212115
 30
0.0
 40
0.0886716021887082
 50
176.047198149943398
 51
181.8497167144116986
  0
ARC
  5
1573B
  8
0
 10
8646.0052136992289888
 20
2179.9019487214368382
 30
0.0
 40
0.0869781667680407
 50
181.8497167144116986
 51
196.0363815508138998
  0
ARC
  5
1573C
  8
0
 10
8646.2590122055244137
 20
2179.9748987109960581
 30
0.0
 40
0.3510527448216705
 50
196.0363815508138998
 51
204.3861298017104104
  0
ARC
  5
1573D
  8
0
 10
8645.9861368668171053
 20
2179.8511966094970376
 30
0.0
 40
0.0514477375369814
 50
204.3861298017104104
 51
229.3091867341587999
  0
ARC
  5
1573E
  8
0
 10
8645.9681153703768359
 20
2179.830237890483204
 30
0.0
 40
0.0238064235903254
 50
229.3091867342378123
 51
258.8394472280895116
  0
ARC
  5
1573F
  8
0
 10
8645.967603142522421
 20
2179.8276415704699502
 30
0.0
 40
0.0211600572178822
 50
258.8394472280895116
 51
285.7941201520977188
  0
LINE
  5
15740
  8
0
 10
8645.9733625186418067
 20
2179.8072803915210898
 30
0.0
 11
8646.0160813521233649
 21
2179.8186499886887759
 31
0.0
  0
ARC
  5
15741
  8
0
 10
8646.0195472607938427
 20
2179.8034688657589868
 30
0.0
 40
0.0155718489959761
 50
78.6931913734587454
 51
102.7583964909635057
  0
ARC
  5
15742
  8
0
 10
8646.0223381007872376
 20
2179.8174270229778813
 30
0.0
 40
0.0013374209836298
 50
60.7667946048958072
 51
78.6931913734587454
  0
ARC
  5
15743
  8
0
 10
8646.006646343794273
 20
2179.8853934212670538
 30
0.0
 40
0.0794993854013985
 50
199.0726038046379074
 51
210.2361448720116925
  0
ARC
  5
15744
  8
0
 10
8645.9526210269086732
 20
2179.8539042926631737
 30
0.0
 40
0.0169669931170617
 50
210.2361448720116925
 51
225.9643545909621878
  0
ARC
  5
15745
  8
0
 10
8645.9435874235296069
 20
2179.8445613616308947
 30
0.0
 40
0.0039709802554483
 50
225.9643545909621878
 51
245.9852132147794919
  0
ARC
  5
15746
  8
0
 10
8645.9426757215915131
 20
2179.8425150669831964
 30
0.0
 40
0.0017307744142904
 50
245.9852132149065085
 51
268.9656566107793765
  0
ARC
  5
15747
  8
0
 10
8645.9426634608335007
 20
2179.8418359759571103
 30
0.0
 40
0.0010515727158777
 50
268.9656566106751256
 51
302.6032105476688798
  0
ARC
  5
15748
  8
0
 10
8645.9423349586340919
 20
2179.8423495771207854
 30
0.0
 40
0.0016612446364733
 50
302.6032105476970173
 51
340.3175714498848947
  0
ARC
  5
15749
  8
0
 10
8645.9356976153412688
 20
2179.8447237938380567
 30
0.0
 40
0.0087104453695897
 50
340.3175714498848947
 51
355.08593285522511
  0
ARC
  5
1574A
  8
0
 10
8645.9217823619328556
 20
2179.8459201935038436
 30
0.0
 40
0.0226770358495986
 50
355.08593285522511
 51
12.3950273882706696
  0
ARC
  5
1574B
  8
0
 10
8645.6212244408252445
 20
2179.779865594156945
 30
0.0
 40
0.3304078825911639
 50
12.3950273882706696
 51
14.4981019312124193
  0
ARC
  5
1574C
  8
0
 10
8645.8803428330265888
 20
2179.8468690088097901
 30
0.0
 40
0.0627667072222429
 50
14.4981019312124193
 51
27.2102011206092911
  0
ARC
  5
1574D
  8
0
 10
8645.8608279456493619
 20
2179.8368353264108919
 30
0.0
 40
0.0847099433520992
 50
27.2102011206092911
 51
33.6955382119795601
  0
ARC
  5
1574E
  8
0
 10
8645.9267505077605165
 20
2179.8807927936200031
 30
0.0
 40
0.0054758400945993
 50
33.6955382120012388
 51
60.7187988656857769
  0
ARC
  5
1574F
  8
0
 10
8645.9276812435018655
 20
2179.8824526210260046
 30
0.0
 40
0.0035728697766508
 50
60.7187988656857769
 51
69.7447504011057191
  0
ARC
  5
15750
  8
0
 10
8645.928456150342754
 20
2179.8845525054211976
 30
0.0
 40
0.0013345679453328
 50
69.7447504012125137
 51
100.4728716866704019
  0
ARC
  5
15751
  8
0
 10
8645.9284103793161194
 20
2179.884800118019939
 30
0.0
 40
0.0010827605070929
 50
100.4728716868800973
 51
136.2079300581609118
  0
ARC
  5
15752
  8
0
 10
8645.9309772762535431
 20
2179.8829859317779665
 30
0.0
 40
0.0042171035568651
 50
142.5634505758762032
 51
177.0076454835358106
  0
ARC
  5
15753
  8
0
 10
8645.9609610583556787
 20
2179.8810297069990156
 30
0.0
 40
0.0342643238015448
 50
176.3582891419052032
 51
194.6489759805282915
  0
ARC
  5
15754
  8
0
 10
8646.2149491002237482
 20
2179.9474205258170514
 30
0.0
 40
0.2967860681118081
 50
194.6489759805282915
 51
197.2490691347819904
  0
ARC
  5
15755
  8
0
 10
8645.9343951397731871
 20
2180.0429902131782001
 30
0.0
 40
0.059084901759771
 50
213.8374935574697986
 51
226.0848615691151053
  0
ARC
  5
15756
  8
0
 10
8645.902978989883195
 20
2180.0103653039218443
 30
0.0
 40
0.0137929693191189
 50
226.0965059073323005
 51
246.9387138099284016
  0
ARC
  5
15757
  8
0
 10
8645.9002014210163907
 20
2180.0038411730938606
 30
0.0
 40
0.0067021885533647
 50
246.9387138099284016
 51
274.8794680325885906
  0
ARC
  5
15758
  8
0
 10
8645.9004803546431503
 20
2180.0005737956098528
 30
0.0
 40
0.0034229265034491
 50
274.8794680325885906
 51
313.802233824765608
  0
ARC
  5
15759
  8
0
 10
8645.8967342127234588
 20
2180.0044799314250668
 30
0.0
 40
0.0088350865440055
 50
313.802233824765608
 51
340.4551956862954967
  0
ARC
  5
1575A
  8
0
 10
8645.8836349755911215
 20
2180.0091301456718611
 30
0.0
 40
0.0227352486272672
 50
340.4551956862954967
 51
348.9058709869817108
  0
ARC
  5
1575B
  8
0
 10
8645.8691484025530372
 20
2180.0119707567891965
 30
0.0
 40
0.0374976965911619
 50
348.9058709869817108
 51
359.4294290906864831
  0
ARC
  5
1575C
  8
0
 10
8645.7878276466726675
 20
2180.0127806033751767
 30
0.0
 40
0.1188224848690832
 50
359.4294290906864831
 51
11.0677695913015892
  0
ARC
  5
1575D
  8
0
 10
8645.3863026956896647
 20
2179.9342390765718847
 30
0.0
 40
0.5279570076055184
 50
11.0677695913015892
 51
13.3638404629782901
  0
ARC
  5
1575E
  8
0
 10
8645.626087685519451
 20
2179.9912040252011138
 30
0.0
 40
0.2814983970432986
 50
13.3638404629782901
 51
22.1224493666507485
  0
ARC
  5
1575F
  8
0
 10
8645.5674204388851649
 20
2179.9673549455651482
 30
0.0
 40
0.3448278880200489
 50
22.1224493666507485
 51
30.9354089281763684
  0
ARC
  5
15760
  8
0
 10
8645.8350387928476266
 20
2180.12774593839913
 30
0.0
 40
0.0328265194964553
 50
30.9354089281763684
 51
51.9369251901360514
  0
ARC
  5
15761
  8
0
 10
8645.8461875180655625
 20
2180.1416852796951389
 30
0.0
 40
0.0149792420298518
 50
52.6397941095541029
 51
73.8487107631025594
  0
ARC
  5
15762
  8
0
 10
8645.8496912888076622
 20
2180.1517126817880126
 30
0.0
 40
0.0044107424376507
 50
81.3538571538134363
 51
110.1419818160767932
  0
ARC
  5
15763
  8
0
 10
8645.8495179231067596
 20
2180.152185352394099
 30
0.0
 40
0.0039072812494929
 50
110.1419818161746065
 51
139.7547420039053065
  0
ARC
  5
15764
  8
0
 10
8645.8535853649282217
 20
2180.1487425865711884
 30
0.0
 40
0.0092361384902086
 50
139.7547420039053065
 51
161.6806014531451865
  0
ARC
  5
15765
  8
0
 10
8645.8683937405276083
 20
2180.1438396219427887
 30
0.0
 40
0.0248350823645896
 50
161.6806014531451865
 51
172.8558049314459879
  0
ARC
  5
15766
  8
0
 10
8645.899565507826992
 20
2180.1399325533711817
 30
0.0
 40
0.0562507514081343
 50
172.8558049314459879
 51
178.9403136602848008
  0
ARC
  5
15767
  8
0
 10
8645.9121897785335022
 20
2180.1396990406601617
 30
0.0
 40
0.0688771815848824
 50
178.9403136602848008
 51
182.8066652833545049
  0
ARC
  5
15768
  8
0
 10
8645.8318166990193276
 20
2180.1453580796201095
 30
0.0
 40
0.0146844576674725
 50
283.9775504794108087
 51
322.0444430269424174
  0
LINE
  5
15769
  8
0
 10
8645.835363607853651
 20
2180.131108422266152
 30
0.0
 11
8645.7978223882546445
 21
2180.1211025892471298
 31
0.0
  0
ARC
  5
1576A
  8
0
 10
8645.8025990095702582
 20
2180.1007270479431099
 30
0.0
 40
0.0209279429170933
 50
103.1935526525216034
 51
143.2705554612635979
  0
ARC
  5
1576B
  8
0
 10
8645.8064744989005703
 20
2180.0978352478828128
 30
0.0
 40
0.0257634289466237
 50
143.2705554612635979
 51
176.047198149943398
  0
ARC
  5
1576C
  8
0
 10
8645.8692330245812627
 20
2180.0934986922288772
 30
0.0
 40
0.0886716021887082
 50
176.047198149943398
 51
181.8497167144116986
  0
ARC
  5
1576D
  8
0
 10
8645.8675404715631885
 20
2180.0934440314540552
 30
0.0
 40
0.0869781667680407
 50
181.8497167144116986
 51
196.0363815508138998
  0
ARC
  5
1576E
  8
0
 10
8646.1213389778567944
 20
2180.1663940210119108
 30
0.0
 40
0.3510527448216705
 50
196.0363815508138998
 51
204.3861298017104104
  0
ARC
  5
1576F
  8
0
 10
8645.848463639151305
 20
2180.0426919195137998
 30
0.0
 40
0.0514477375369814
 50
204.3861298017104104
 51
229.3091867341587999
  0
ARC
  5
15770
  8
0
 10
8645.8304421427073976
 20
2180.0217332004990567
 30
0.0
 40
0.0238064235903254
 50
229.3091867342378123
 51
258.8394472280895116
  0
ARC
  5
15771
  8
0
 10
8645.8299299148566206
 20
2180.0191368804871672
 30
0.0
 40
0.0211600572178822
 50
258.8394472280895116
 51
285.7941201520977188
  0
LINE
  5
15772
  8
0
 10
8645.8356892909741873
 20
2179.998775701537852
 30
0.0
 11
8645.8784081244557456
 21
2180.0101452987059929
 31
0.0
  0
ARC
  5
15773
  8
0
 10
8645.8818740331262234
 20
2179.9949641757748395
 30
0.0
 40
0.0155718489959761
 50
78.6931913734587454
 51
102.7583964909635057
  0
ARC
  5
15774
  8
0
 10
8645.8846648731196183
 20
2180.0089223329950983
 30
0.0
 40
0.0013374209836298
 50
60.7667946048958072
 51
78.6931913734587454
  0
ARC
  5
15775
  8
0
 10
8645.8689731161284726
 20
2180.0768887312829065
 30
0.0
 40
0.0794993854013985
 50
199.0726038046379074
 51
210.2361448720116925
  0
ARC
  5
15776
  8
0
 10
8645.8149477992428729
 20
2180.0453996026799359
 30
0.0
 40
0.0169669931170617
 50
210.2361448720116925
 51
225.9643545909621878
  0
ARC
  5
15777
  8
0
 10
8645.8059141958638065
 20
2180.0360566716481117
 30
0.0
 40
0.0039709802554483
 50
225.9643545909621878
 51
245.9852132147794919
  0
ARC
  5
15778
  8
0
 10
8645.8050024939238938
 20
2180.0340103769990492
 30
0.0
 40
0.0017307744142904
 50
245.9852132149065085
 51
268.9656566107793765
  0
ARC
  5
15779
  8
0
 10
8645.8049902331677004
 20
2180.0333312859738726
 30
0.0
 40
0.0010515727158777
 50
268.9656566106751256
 51
302.6032105476688798
  0
ARC
  5
1577A
  8
0
 10
8645.8046617309682915
 20
2180.0338448871380024
 30
0.0
 40
0.0016612446364733
 50
302.6032105476970173
 51
340.3175714498848947
  0
ARC
  5
1577B
  8
0
 10
8645.7980243876772875
 20
2180.0362191038539095
 30
0.0
 40
0.0087104453695897
 50
340.3175714498848947
 51
355.08593285522511
  0
ARC
  5
1577C
  8
0
 10
8645.7841091342652362
 20
2180.0374155035210606
 30
0.0
 40
0.0226770358495986
 50
355.08593285522511
 51
12.3950273882706696
  0
ARC
  5
1577D
  8
0
 10
8645.4835512131594442
 20
2179.9713609041727977
 30
0.0
 40
0.3304078825911639
 50
12.3950273882706696
 51
14.4981019312124193
  0
ARC
  5
1577E
  8
0
 10
8645.7426696053607884
 20
2180.0383643188270071
 30
0.0
 40
0.0627667072222429
 50
14.4981019312124193
 51
27.2102011206092911
  0
ARC
  5
1577F
  8
0
 10
8645.7231547179817426
 20
2180.0283306364281088
 30
0.0
 40
0.0847099433520992
 50
27.2102011206092911
 51
33.6955382119795601
  0
ARC
  5
15780
  8
0
 10
8645.7890772800965351
 20
2180.07228810363722
 30
0.0
 40
0.0054758400945993
 50
33.6955382120012388
 51
60.7187988656857769
  0
ARC
  5
15781
  8
0
 10
8645.7900080158324272
 20
2180.0739479310441311
 30
0.0
 40
0.0035728697766508
 50
60.7187988656857769
 51
69.7447504011057191
  0
ARC
  5
15782
  8
0
 10
8645.7907829226769536
 20
2180.0760478154379598
 30
0.0
 40
0.0013345679453328
 50
69.7447504012125137
 51
100.4728716866704019
  0
ARC
  5
15783
  8
0
 10
8645.7907371516485
 20
2180.0762954280371559
 30
0.0
 40
0.0010827605070929
 50
100.4728716868800973
 51
136.2079300581609118
  0
ARC
  5
15784
  8
0
 10
8645.7933040485859237
 20
2180.0744812417938192
 30
0.0
 40
0.0042171035568651
 50
142.5634505758762032
 51
177.0076454835358106
  0
ARC
  5
15785
  8
0
 10
8645.8232878306898783
 20
2180.0725250170157778
 30
0.0
 40
0.0342643238015448
 50
176.3582891419052032
 51
194.6489759805282915
  0
ARC
  5
15786
  8
0
 10
8646.0772758725561289
 20
2180.1389158358329041
 30
0.0
 40
0.2967860681118081
 50
194.6489759805282915
 51
197.2490691347819904
  0
ARC
  5
15787
  8
0
 10
8645.9645507369732513
 20
2180.2725900938748964
 30
0.0
 40
0.059084901759771
 50
213.8374935574697986
 51
226.0848615691151053
  0
ARC
  5
15788
  8
0
 10
8645.9331345870832592
 20
2180.2399651846180859
 30
0.0
 40
0.0137929693191189
 50
226.0965059073323005
 51
246.9387138099284016
  0
ARC
  5
15789
  8
0
 10
8645.9303570182164549
 20
2180.2334410537910117
 30
0.0
 40
0.0067021885533647
 50
246.9387138099284016
 51
274.8794680325885906
  0
ARC
  5
1578A
  8
0
 10
8645.9306359518432146
 20
2180.2301736763070039
 30
0.0
 40
0.0034229265034491
 50
274.8794680325885906
 51
313.802233824765608
  0
ARC
  5
1578B
  8
0
 10
8645.926889809921704
 20
2180.2340798121208536
 30
0.0
 40
0.0088350865440055
 50
313.802233824765608
 51
340.4551956862954967
  0
ARC
  5
1578C
  8
0
 10
8645.9137905727911857
 20
2180.2387300263681027
 30
0.0
 40
0.0227352486272672
 50
340.4551956862954967
 51
348.9058709869817108
  0
ARC
  5
1578D
  8
0
 10
8645.8993039997531014
 20
2180.2415706374849833
 30
0.0
 40
0.0374976965911619
 50
348.9058709869817108
 51
359.4294290906864831
  0
ARC
  5
1578E
  8
0
 10
8645.8179832438727317
 20
2180.2423804840718731
 30
0.0
 40
0.1188224848690832
 50
359.4294290906864831
 51
11.0677695913015892
  0
ARC
  5
1578F
  8
0
 10
8645.4164582928897289
 20
2180.1638389572681263
 30
0.0
 40
0.5279570076055184
 50
11.0677695913015892
 51
13.3638404629782901
  0
ARC
  5
15790
  8
0
 10
8645.6562432827195153
 20
2180.2208039058978102
 30
0.0
 40
0.2814983970432986
 50
13.3638404629782901
 51
22.1224493666507485
  0
ARC
  5
15791
  8
0
 10
8645.5975760360834101
 20
2180.1969548262618446
 30
0.0
 40
0.3448278880200489
 50
22.1224493666507485
 51
30.9354089281763684
  0
ARC
  5
15792
  8
0
 10
8645.8651943900476908
 20
2180.3573458190949168
 30
0.0
 40
0.0328265194964553
 50
30.9354089281763684
 51
51.9369251901360514
  0
ARC
  5
15793
  8
0
 10
8645.8763431152674457
 20
2180.3712851603909257
 30
0.0
 40
0.0149792420298518
 50
52.6397941095541029
 51
73.8487107631025594
  0
ARC
  5
15794
  8
0
 10
8645.8798468860095454
 20
2180.3813125624837994
 30
0.0
 40
0.0044107424376507
 50
81.3538571538134363
 51
110.1419818160767932
  0
ARC
  5
15795
  8
0
 10
8645.8796735203068238
 20
2180.3817852330907954
 30
0.0
 40
0.0039072812494929
 50
110.1419818161746065
 51
139.7547420039053065
  0
ARC
  5
15796
  8
0
 10
8645.8837409621282859
 20
2180.3783424672678848
 30
0.0
 40
0.0092361384902086
 50
139.7547420039053065
 51
161.6806014531451865
  0
ARC
  5
15797
  8
0
 10
8645.8985493377276725
 20
2180.3734395026390303
 30
0.0
 40
0.0248350823645896
 50
161.6806014531451865
 51
172.8558049314459879
  0
ARC
  5
15798
  8
0
 10
8645.9297211050252372
 20
2180.3695324340669686
 30
0.0
 40
0.0562507514081343
 50
172.8558049314459879
 51
178.9403136602848008
  0
ARC
  5
15799
  8
0
 10
8645.9423453757335665
 20
2180.3692989213559486
 30
0.0
 40
0.0688771815848824
 50
178.9403136602848008
 51
182.8066652833545049
  0
ARC
  5
1579A
  8
0
 10
8645.8619722962193919
 20
2180.3749579603158963
 30
0.0
 40
0.0146844576674725
 50
283.9775504794108087
 51
322.0444430269424174
  0
LINE
  5
1579B
  8
0
 10
8645.8655192050537153
 20
2180.3607083029619389
 30
0.0
 11
8645.8279779854547087
 21
2180.3507024699429167
 31
0.0
  0
ARC
  5
1579C
  8
0
 10
8645.8327546067703224
 20
2180.3303269286398063
 30
0.0
 40
0.0209279429170933
 50
103.1935526525216034
 51
143.2705554612635979
  0
ARC
  5
1579D
  8
0
 10
8645.8366300961006345
 20
2180.3274351285790544
 30
0.0
 40
0.0257634289466237
 50
143.2705554612635979
 51
176.047198149943398
  0
ARC
  5
1579E
  8
0
 10
8645.8993886217813269
 20
2180.3230985729251188
 30
0.0
 40
0.0886716021887082
 50
176.047198149943398
 51
181.8497167144116986
  0
ARC
  5
1579F
  8
0
 10
8645.8976960687632527
 20
2180.3230439121498421
 30
0.0
 40
0.0869781667680407
 50
181.8497167144116986
 51
196.0363815508138998
  0
ARC
  5
157A0
  8
0
 10
8646.1514945750586776
 20
2180.3959939017090619
 30
0.0
 40
0.3510527448216705
 50
196.0363815508138998
 51
204.3861298017104104
  0
ARC
  5
157A1
  8
0
 10
8645.8786192363495502
 20
2180.2722918002100414
 30
0.0
 40
0.0514477375369814
 50
204.3861298017104104
 51
229.3091867341587999
  0
ARC
  5
157A2
  8
0
 10
8645.8605977399092808
 20
2180.2513330811962078
 30
0.0
 40
0.0238064235903254
 50
229.3091867342378123
 51
258.8394472280895116
  0
ARC
  5
157A3
  8
0
 10
8645.8600855120566848
 20
2180.2487367611838636
 30
0.0
 40
0.0211600572178822
 50
258.8394472280895116
 51
285.7941201520977188
  0
LINE
  5
157A4
  8
0
 10
8645.8658448881742515
 20
2180.2283755822350031
 30
0.0
 11
8645.9085637216558098
 21
2180.2397451794017798
 31
0.0
  0
ARC
  5
157A5
  8
0
 10
8645.9120296303281066
 20
2180.2245640564719906
 30
0.0
 40
0.0155718489959761
 50
78.6931913734587454
 51
102.7583964909635057
  0
ARC
  5
157A6
  8
0
 10
8645.9148204703215015
 20
2180.2385222136908851
 30
0.0
 40
0.0013374209836298
 50
60.7667946048958072
 51
78.6931913734587454
  0
ARC
  5
157A7
  8
0
 10
8645.8991287133285368
 20
2180.3064886119800576
 30
0.0
 40
0.0794993854013985
 50
199.0726038046379074
 51
210.2361448720116925
  0
ARC
  5
157A8
  8
0
 10
8645.8451033964447561
 20
2180.2749994833761775
 30
0.0
 40
0.0169669931170617
 50
210.2361448720116925
 51
225.9643545909621878
  0
ARC
  5
157A9
  8
0
 10
8645.8360697930602328
 20
2180.2656565523438985
 30
0.0
 40
0.0039709802554483
 50
225.9643545909621878
 51
245.9852132147794919
  0
ARC
  5
157AA
  8
0
 10
8645.835158091123958
 20
2180.2636102576962003
 30
0.0
 40
0.0017307744142904
 50
245.9852132149065085
 51
268.9656566107793765
  0
ARC
  5
157AB
  8
0
 10
8645.8351458303677646
 20
2180.2629311666701142
 30
0.0
 40
0.0010515727158777
 50
268.9656566106751256
 51
302.6032105476688798
  0
ARC
  5
157AC
  8
0
 10
8645.8348173281701747
 20
2180.2634447678351535
 30
0.0
 40
0.0016612446364733
 50
302.6032105476970173
 51
340.3175714498848947
  0
ARC
  5
157AD
  8
0
 10
8645.8281799848773517
 20
2180.2658189845510606
 30
0.0
 40
0.0087104453695897
 50
340.3175714498848947
 51
355.08593285522511
  0
ARC
  5
157AE
  8
0
 10
8645.8142647314671194
 20
2180.2670153842168475
 30
0.0
 40
0.0226770358495986
 50
355.08593285522511
 51
12.3950273882706696
  0
ARC
  5
157AF
  8
0
 10
8645.5137068103576894
 20
2180.2009607848699488
 30
0.0
 40
0.3304078825911639
 50
12.3950273882706696
 51
14.4981019312124193
  0
ARC
  5
157B0
  8
0
 10
8645.7728252025608526
 20
2180.2679641995227939
 30
0.0
 40
0.0627667072222429
 50
14.4981019312124193
 51
27.2102011206092911
  0
ARC
  5
157B1
  8
0
 10
8645.7533103151836258
 20
2180.2579305171238957
 30
0.0
 40
0.0847099433520992
 50
27.2102011206092911
 51
33.6955382119795601
  0
ARC
  5
157B2
  8
0
 10
8645.8192328772965993
 20
2180.3018879843330069
 30
0.0
 40
0.0054758400945993
 50
33.6955382120012388
 51
60.7187988656857769
  0
ARC
  5
157B3
  8
0
 10
8645.8201636130343104
 20
2180.3035478117390085
 30
0.0
 40
0.0035728697766508
 50
60.7187988656857769
 51
69.7447504011057191
  0
ARC
  5
157B4
  8
0
 10
8645.8209385198770178
 20
2180.3056476961342014
 30
0.0
 40
0.0013345679453328
 50
69.7447504012125137
 51
100.4728716866704019
  0
ARC
  5
157B5
  8
0
 10
8645.8208927488485642
 20
2180.3058953087329428
 30
0.0
 40
0.0010827605070929
 50
100.4728716868800973
 51
136.2079300581609118
  0
ARC
  5
157B6
  8
0
 10
8645.823459645785988
 20
2180.3040811224909703
 30
0.0
 40
0.0042171035568651
 50
142.5634505758762032
 51
177.0076454835358106
  0
ARC
  5
157B7
  8
0
 10
8645.8534434278881236
 20
2180.3021248977120194
 30
0.0
 40
0.0342643238015448
 50
176.3582891419052032
 51
194.6489759805282915
  0
ARC
  5
157B8
  8
0
 10
8646.1074314697580121
 20
2180.3685157165300552
 30
0.0
 40
0.2967860681118081
 50
194.6489759805282915
 51
197.2490691347819904
  0
ARC
  5
157B9
  8
0
 10
8645.8549251347103564
 20
2180.6967956371709079
 30
0.0
 40
0.059084901759771
 50
213.8374935574697986
 51
226.0848615691151053
  0
ARC
  5
157BA
  8
0
 10
8645.8235089848185453
 20
2180.6641707279150069
 30
0.0
 40
0.0137929693191189
 50
226.0965059073323005
 51
246.9387138099284016
  0
ARC
  5
157BB
  8
0
 10
8645.8207314159517409
 20
2180.6576465970870231
 30
0.0
 40
0.0067021885533647
 50
246.9387138099284016
 51
274.8794680325885906
  0
ARC
  5
157BC
  8
0
 10
8645.8210103495766816
 20
2180.6543792196030154
 30
0.0
 40
0.0034229265034491
 50
274.8794680325885906
 51
313.802233824765608
  0
ARC
  5
157BD
  8
0
 10
8645.817264207655171
 20
2180.6582853554177746
 30
0.0
 40
0.0088350865440055
 50
313.802233824765608
 51
340.4551956862954967
  0
ARC
  5
157BE
  8
0
 10
8645.8041649705264717
 20
2180.6629355696650236
 30
0.0
 40
0.0227352486272672
 50
340.4551956862954967
 51
348.9058709869817108
  0
ARC
  5
157BF
  8
0
 10
8645.7896783974883874
 20
2180.6657761807819043
 30
0.0
 40
0.0374976965911619
 50
348.9058709869817108
 51
359.4294290906864831
  0
ARC
  5
157C0
  8
0
 10
8645.7083576416061987
 20
2180.6665860273678845
 30
0.0
 40
0.1188224848690832
 50
359.4294290906864831
 51
11.0677695913015892
  0
ARC
  5
157C1
  8
0
 10
8645.306832690623196
 20
2180.5880445005650472
 30
0.0
 40
0.5279570076055184
 50
11.0677695913015892
 51
13.3638404629782901
  0
ARC
  5
157C2
  8
0
 10
8645.5466176804548013
 20
2180.6450094491938216
 30
0.0
 40
0.2814983970432986
 50
13.3638404629782901
 51
22.1224493666507485
  0
ARC
  5
157C3
  8
0
 10
8645.4879504338186962
 20
2180.621160369557856
 30
0.0
 40
0.3448278880200489
 50
22.1224493666507485
 51
30.9354089281763684
  0
ARC
  5
157C4
  8
0
 10
8645.7555687877811579
 20
2180.7815513623918378
 30
0.0
 40
0.0328265194964553
 50
30.9354089281763684
 51
51.9369251901360514
  0
ARC
  5
157C5
  8
0
 10
8645.7667175129990937
 20
2180.7954907036869372
 30
0.0
 40
0.0149792420298518
 50
52.6397941095541029
 51
73.8487107631025594
  0
ARC
  5
157C6
  8
0
 10
8645.7702212837411935
 20
2180.8055181057811751
 30
0.0
 40
0.0044107424376507
 50
81.3538571538134363
 51
110.1419818160767932
  0
ARC
  5
157C7
  8
0
 10
8645.7700479180384718
 20
2180.8059907763868068
 30
0.0
 40
0.0039072812494929
 50
110.1419818161746065
 51
139.7547420039053065
  0
ARC
  5
157C8
  8
0
 10
8645.7741153598635719
 20
2180.8025480105638962
 30
0.0
 40
0.0092361384902086
 50
139.7547420039053065
 51
161.6806014531451865
  0
ARC
  5
157C9
  8
0
 10
8645.7889237354611396
 20
2180.7976450459359512
 30
0.0
 40
0.0248350823645896
 50
161.6806014531451865
 51
172.8558049314459879
  0
ARC
  5
157CA
  8
0
 10
8645.8200955027605232
 20
2180.7937379773638895
 30
0.0
 40
0.0562507514081343
 50
172.8558049314459879
 51
178.9403136602848008
  0
ARC
  5
157CB
  8
0
 10
8645.8327197734633955
 20
2180.7935044646528695
 30
0.0
 40
0.0688771815848824
 50
178.9403136602848008
 51
182.8066652833545049
  0
ARC
  5
157CC
  8
0
 10
8645.7523466939528589
 20
2180.7991635036128173
 30
0.0
 40
0.0146844576674725
 50
283.9775504794108087
 51
322.0444430269424174
  0
LINE
  5
157CD
  8
0
 10
8645.7558936027871823
 20
2180.7849138462579504
 30
0.0
 11
8645.7183523831881757
 21
2180.7749080132398376
 31
0.0
  0
ARC
  5
157CE
  8
0
 10
8645.7231290045056085
 20
2180.754532471937182
 30
0.0
 40
0.0209279429170933
 50
103.1935526525216034
 51
143.2705554612635979
  0
ARC
  5
157CF
  8
0
 10
8645.7270044938322826
 20
2180.7516406718750659
 30
0.0
 40
0.0257634289466237
 50
143.2705554612635979
 51
176.047198149943398
  0
ARC
  5
157D0
  8
0
 10
8645.789763019516613
 20
2180.7473041162220397
 30
0.0
 40
0.0886716021887082
 50
176.047198149943398
 51
181.8497167144116986
  0
ARC
  5
157D1
  8
0
 10
8645.7880704664967197
 20
2180.7472494554472178
 30
0.0
 40
0.0869781667680407
 50
181.8497167144116986
 51
196.0363815508138998
  0
ARC
  5
157D2
  8
0
 10
8646.0418689727921446
 20
2180.8201994450059829
 30
0.0
 40
0.3510527448216705
 50
196.0363815508138998
 51
204.3861298017104104
  0
ARC
  5
157D3
  8
0
 10
8645.7689936340848362
 20
2180.6964973435069624
 30
0.0
 40
0.0514477375369814
 50
204.3861298017104104
 51
229.3091867341587999
  0
ARC
  5
157D4
  8
0
 10
8645.7509721376427478
 20
2180.6755386244922192
 30
0.0
 40
0.0238064235903254
 50
229.3091867342378123
 51
258.8394472280895116
  0
ARC
  5
157D5
  8
0
 10
8645.7504599097883329
 20
2180.6729423044807845
 30
0.0
 40
0.0211600572178822
 50
258.8394472280895116
 51
285.7941201520977188
  0
LINE
  5
157D6
  8
0
 10
8645.7562192859095376
 20
2180.6525811255310145
 30
0.0
 11
8645.7989381193910958
 21
2180.6639507226991554
 31
0.0
  0
ARC
  5
157D7
  8
0
 10
8645.8024040280615736
 20
2180.6487695997680021
 30
0.0
 40
0.0155718489959761
 50
78.6931913734587454
 51
102.7583964909635057
  0
ARC
  5
157D8
  8
0
 10
8645.8051948680549685
 20
2180.6627277569878061
 30
0.0
 40
0.0013374209836298
 50
60.7667946048958072
 51
78.6931913734587454
  0
ARC
  5
157D9
  8
0
 10
8645.7895031110620039
 20
2180.7306941552760691
 30
0.0
 40
0.0794993854013985
 50
199.0726038046379074
 51
210.2361448720116925
  0
ARC
  5
157DA
  8
0
 10
8645.7354777941745851
 20
2180.6992050266730985
 30
0.0
 40
0.0169669931170617
 50
210.2361448720116925
 51
225.9643545909621878
  0
ARC
  5
157DB
  8
0
 10
8645.7264441907955188
 20
2180.6898620956408195
 30
0.0
 40
0.0039709802554483
 50
225.9643545909621878
 51
245.9852132147794919
  0
ARC
  5
157DC
  8
0
 10
8645.7255324888574251
 20
2180.6878158009931212
 30
0.0
 40
0.0017307744142904
 50
245.9852132149065085
 51
268.9656566107793765
  0
ARC
  5
157DD
  8
0
 10
8645.7255202281012316
 20
2180.6871367099670351
 30
0.0
 40
0.0010515727158777
 50
268.9656566106751256
 51
302.6032105476688798
  0
ARC
  5
157DE
  8
0
 10
8645.7251917259018228
 20
2180.6876503111311649
 30
0.0
 40
0.0016612446364733
 50
302.6032105476970173
 51
340.3175714498848947
  0
ARC
  5
157DF
  8
0
 10
8645.7185543826108187
 20
2180.6900245278479815
 30
0.0
 40
0.0087104453695897
 50
340.3175714498848947
 51
355.08593285522511
  0
ARC
  5
157E0
  8
0
 10
8645.7046391292005865
 20
2180.6912209275142231
 30
0.0
 40
0.0226770358495986
 50
355.08593285522511
 51
12.3950273882706696
  0
ARC
  5
157E1
  8
0
 10
8645.4040812080929754
 20
2180.6251663281659603
 30
0.0
 40
0.3304078825911639
 50
12.3950273882706696
 51
14.4981019312124193
  0
ARC
  5
157E2
  8
0
 10
8645.6631996002943197
 20
2180.6921697428188054
 30
0.0
 40
0.0627667072222429
 50
14.4981019312124193
 51
27.2102011206092911
  0
ARC
  5
157E3
  8
0
 10
8645.6436847129170928
 20
2180.6821360604208166
 30
0.0
 40
0.0847099433520992
 50
27.2102011206092911
 51
33.6955382119795601
  0
ARC
  5
157E4
  8
0
 10
8645.7096072750300664
 20
2180.7260935276299278
 30
0.0
 40
0.0054758400945993
 50
33.6955382120012388
 51
60.7187988656857769
  0
ARC
  5
157E5
  8
0
 10
8645.7105380107677775
 20
2180.7277533550359294
 30
0.0
 40
0.0035728697766508
 50
60.7187988656857769
 51
69.7447504011057191
  0
ARC
  5
157E6
  8
0
 10
8645.7113129176104849
 20
2180.7298532394311223
 30
0.0
 40
0.0013345679453328
 50
69.7447504012125137
 51
100.4728716866704019
  0
ARC
  5
157E7
  8
0
 10
8645.7112671465838503
 20
2180.7301008520298637
 30
0.0
 40
0.0010827605070929
 50
100.4728716868800973
 51
136.2079300581609118
  0
ARC
  5
157E8
  8
0
 10
8645.713834043521274
 20
2180.7282866657878913
 30
0.0
 40
0.0042171035568651
 50
142.5634505758762032
 51
177.0076454835358106
  0
ARC
  5
157E9
  8
0
 10
8645.7438178256215906
 20
2180.7263304410089404
 30
0.0
 40
0.0342643238015448
 50
176.3582891419052032
 51
194.6489759805282915
  0
ARC
  5
157EA
  8
0
 10
8645.9978058674932981
 20
2180.7927212598260667
 30
0.0
 40
0.2967860681118081
 50
194.6489759805282915
 51
197.2490691347819904
  0
ARC
  5
157EB
  8
0
 10
8645.4123429893352295
 20
2181.9839901245691181
 30
0.0
 40
0.0750801690750194
 50
356.8558368743553046
 51
359.5404279033604098
  0
ARC
  5
157EC
  8
0
 10
8645.4687884860995837
 20
2181.982733789050144
 30
0.0
 40
0.0187414233639119
 50
340.0486106479867772
 51
351.2169405087855125
  0
ARC
  5
157ED
  8
0
 10
8645.4678141207350563
 20
2181.9832014818989592
 30
0.0
 40
0.019817186828858
 50
306.8990989722548761
 51
339.7388227281330728
  0
ARC
  5
157EE
  8
0
 10
8645.4679966856074316
 20
2181.9829581037070056
 30
0.0
 40
0.0195129453778604
 50
284.9320877551318745
 51
306.8994809149701837
  0
LINE
  5
157EF
  8
0
 10
8645.4257380620983895
 20
2181.9514989009530836
 30
0.0
 11
8645.4730246634971991
 21
2181.9641040729529777
 31
0.0
  0
ARC
  5
157F0
  8
0
 10
8645.4308167647523078
 20
2181.933560385392866
 30
0.0
 40
0.0186435930319194
 50
105.8077310745275952
 51
145.1185226068488134
  0
ARC
  5
157F1
  8
0
 10
8645.4314228710627503
 20
2181.9332688775839415
 30
0.0
 40
0.0193078112185327
 50
145.4374878825578037
 51
181.4511209302951045
  0
ARC
  5
157F2
  8
0
 10
8645.9430348402693198
 20
2181.9462291623249257
 30
0.0
 40
0.5310839107162559
 50
181.4511209302951045
 51
186.0070939748291039
  0
ARC
  5
157F3
  8
0
 10
8644.6752905991943408
 20
2181.8128251738348808
 30
0.0
 40
0.7436600184395008
 50
2.5538838574009799
 51
6.0070939748291519
  0
ARC
  5
157F4
  8
0
 10
8645.4624742150481325
 20
2181.8479361020549732
 30
0.0
 40
0.044306238672759
 50
182.5538838574009901
 51
192.4044719912984931
  0
ARC
  5
157F5
  8
0
 10
8645.4408773285795178
 20
2181.8431859514321332
 30
0.0
 40
0.0221931331443069
 50
192.4044719912984931
 51
220.5025896049212122
  0
ARC
  5
157F6
  8
0
 10
8645.4366024273313087
 20
2181.8395345066769551
 30
0.0
 40
0.0165710490564213
 50
220.5025896049608036
 51
265.5859141543384112
  0
ARC
  5
157F7
  8
0
 10
8645.3194290275387175
 20
2181.9033688988970425
 30
0.0
 40
0.0946660609768959
 50
357.6331099435299734
 51
1.7486107617570761
  0
ARC
  5
157F8
  8
0
 10
8645.4162673820374039
 20
2181.9063252280120651
 30
0.0
 40
0.0022174091505172
 50
169.9966435122859991
 51
181.7486107618352094
  0
ARC
  5
157F9
  8
0
 10
8645.4141821294670081
 20
2181.9066930402577782
 30
0.0
 40
0.0000999663221213
 50
148.4436370947825878
 51
169.9966435122422013
  0
ARC
  5
157FA
  8
0
 10
8645.414105475132601
 20
2181.9067401178808723
 30
0.0
 40
0.0000100097245679
 50
80.4220853819071237
 51
148.4436371065484082
  0
LINE
  5
157FB
  8
0
 10
8645.4141689574971679
 20
2181.9066139210531219
 30
0.0
 11
8645.4141071406374977
 21
2181.9067499880720788
 31
0.0
  0
ARC
  5
157FC
  8
0
 10
8645.4094269513880135
 20
2181.9054706022479877
 30
0.0
 40
0.0048778888711214
 50
7.780396515601339
 51
13.5555525008874707
  0
ARC
  5
157FD
  8
0
 10
8645.308804549746128
 20
2181.8917221196179526
 30
0.0
 40
0.1064352051327538
 50
6.491128078842741
 51
7.780396515601339
  0
ARC
  5
157FE
  8
0
 10
8645.2911436334834434
 20
2181.8897126825218038
 30
0.0
 40
0.1242100694284282
 50
5.2178400001530534
 51
6.491128078842741
  0
ARC
  5
157FF
  8
0
 10
8640.9103073755741207
 20
2181.4896499677402062
 30
0.0
 40
4.5232754808957871
 50
5.1406541506681958
 51
5.2178400001530534
  0
ARC
  5
15800
  8
0
 10
8645.007748176349196
 20
2181.8582674945250801
 30
0.0
 40
0.4092871487667863
 50
4.2559996177648376
 51
5.1406541506681958
  0
ARC
  5
15801
  8
0
 10
8647.1918917942530243
 20
2182.0208073758449245
 30
0.0
 40
1.7808960756811241
 50
184.2559996177647861
 51
184.4622702015255982
  0
ARC
  5
15802
  8
0
 10
8644.8886970134881267
 20
2181.8410680057809259
 30
0.0
 40
0.5293014135592133
 50
3.5025792003733911
 51
4.4622702015255991
  0
ARC
  5
15803
  8
0
 10
8645.2832944674992177
 20
2181.8625261407601101
 30
0.0
 40
0.1341570531562493
 50
359.0526007846710854
 51
4.6511917861786278
  0
ARC
  5
15804
  8
0
 10
8645.4940303749390296
 20
2181.9832082832240303
 30
0.0
 40
0.0066120720885445
 50
171.046170560482409
 51
178.4432875541513965
  0
ARC
  5
15805
  8
0
 10
8645.4882059871561069
 20
2181.9841259650420398
 30
0.0
 40
0.00071583320464
 50
157.0663287282590943
 51
171.0461705604986093
  0
ARC
  5
15806
  8
0
 10
8645.4876602992681001
 20
2181.984356850632139
 30
0.0
 40
0.0001233102715188
 50
131.0572040204762061
 51
157.0663287284916123
  0
ARC
  5
15807
  8
0
 10
8645.4875995270358544
 20
2181.9844266202821927
 30
0.0
 40
0.0000307842312232
 50
78.8219590929070932
 51
131.057204015196703
  0
ARC
  5
15808
  8
0
 10
8645.4875954361668846
 20
2181.9844059182478304
 30
0.0
 40
0.0000518865857182
 50
50.6109260194140091
 51
78.8219590970461041
  0
ARC
  5
15809
  8
0
 10
8645.4875509073881403
 20
2181.9843516869450468
 30
0.0
 40
0.0001220567110196
 50
33.8571224429990068
 51
50.6109260192507975
  0
ARC
  5
1580A
  8
0
 10
8645.4872120965192153
 20
2181.9841243833448061
 30
0.0
 40
0.0005300514789718
 50
19.62571984327883
 51
33.8571224430206499
  0
ARC
  5
1580B
  8
0
 10
8645.4841938664358167
 20
2181.9830481130479711
 30
0.0
 40
0.0037344345081142
 50
13.4774231732658301
 51
19.6257198433279108
  0
ARC
  5
1580C
  8
0
 10
8645.4741310375356989
 20
2181.9806364348769421
 30
0.0
 40
0.0140822225357987
 50
9.1080246454443738
 51
13.4774231732658301
  0
ARC
  5
1580D
  8
0
 10
8645.2600247859754745
 20
2181.946311412697014
 30
0.0
 40
0.2309224727326409
 50
8.7666717195339299
 51
9.1080246454443738
  0
ARC
  5
1580E
  8
0
 10
8645.412934928190225
 20
2181.9585031057099513
 30
0.0
 40
0.0787491780540743
 50
10.7109676598942407
 51
16.9843228995281414
  0
ARC
  5
1580F
  8
0
 10
8645.4182168689458194
 20
2181.986127559884153
 30
0.0
 40
0.1640098939345268
 50
275.9882254855403971
 51
291.1284603460412086
  0
ARC
  5
15810
  8
0
 10
8645.4820474303705851
 20
2181.8209511310119524
 30
0.0
 40
0.0130708594715972
 50
73.1109690491854707
 51
111.1284603460412939
  0
ARC
  5
15811
  8
0
 10
8645.4825663026003895
 20
2181.8149297002491949
 30
0.0
 40
0.0188163459145547
 50
28.7935003834219607
 51
79.9658728650327646
  0
ARC
  5
15812
  8
0
 10
8645.8392632231061725
 20
2181.9094453032198544
 30
0.0
 40
0.3507747947109744
 50
194.0997682614496966
 51
195.1040607658844124
  0
ARC
  5
15813
  8
0
 10
8645.507287125043149
 20
2181.819846035649789
 30
0.0
 40
0.0069199438860765
 50
195.1040607659346904
 51
205.6835379313509975
  0
ARC
  5
15814
  8
0
 10
8645.5047820435702306
 20
2181.8186413076928147
 30
0.0
 40
0.0041402311958309
 50
205.6835379313509975
 51
221.3022834680882056
  0
ARC
  5
15815
  8
0
 10
8645.5018915598157037
 20
2181.816182562468839
 30
0.0
 40
0.0003512272584286
 50
231.2556146074034871
 51
283.8617675098890913
  0
ARC
  5
15816
  8
0
 10
8645.5016588179441897
 20
2181.8165471615379829
 30
0.0
 40
0.0007734896867885
 50
294.185199749918695
 51
345.2596159211655049
  0
ARC
  5
15817
  8
0
 10
8645.4735509109796112
 20
2181.8239423117702245
 30
0.0
 40
0.0298379470340954
 50
345.2596159211655049
 51
351.603734264497291
  0
ARC
  5
15818
  8
0
 10
8645.2933723914866277
 20
2181.8337966313488323
 30
0.0
 40
0.2101776567046531
 50
356.1229739109842853
 51
1.9100408568561891
  0
ARC
  5
15819
  8
0
 10
8644.8480000363797444
 20
2181.8426348864982174
 30
0.0
 40
0.6554357980689828
 50
359.8397687520695172
 51
11.4849460944791595
  0
ARC
  5
1581A
  8
0
 10
8645.4605242123870994
 20
2181.7985195545188617
 30
0.0
 40
0.0750801690750194
 50
356.8558368743553046
 51
359.5404279033604098
  0
ARC
  5
1581B
  8
0
 10
8645.5169697091496346
 20
2181.7972632190007971
 30
0.0
 40
0.0187414233639119
 50
340.0486106479867772
 51
351.2169405087855125
  0
ARC
  5
1581C
  8
0
 10
8645.5160590980121924
 20
2181.7976963377418542
 30
0.0
 40
0.0197454071709107
 50
285.1090796336914082
 51
339.7688750408271972
  0
LINE
  5
1581D
  8
0
 10
8645.4739192851502594
 20
2181.7660283309028273
 30
0.0
 11
8645.52120588654725
 21
2181.7786335029031761
 31
0.0
  0
ARC
  5
1581E
  8
0
 10
8645.4789979878023587
 20
2181.7480898153430644
 30
0.0
 40
0.0186435930319194
 50
105.8077310745275952
 51
145.1185226068488134
  0
ARC
  5
1581F
  8
0
 10
8645.4796040941109823
 20
2181.7477983075341399
 30
0.0
 40
0.0193078112185327
 50
145.4374878825578037
 51
181.4511209302951045
  0
ARC
  5
15820
  8
0
 10
8645.9912160633193707
 20
2181.7607585922751241
 30
0.0
 40
0.5310839107162559
 50
181.4511209302951045
 51
186.0070939748291039
  0
ARC
  5
15821
  8
0
 10
8644.7234718222462106
 20
2181.6273546037850792
 30
0.0
 40
0.7436600184395008
 50
2.5538838574009799
 51
6.0070939748291519
  0
ARC
  5
15822
  8
0
 10
8645.5106554381000024
 20
2181.6624655320051716
 30
0.0
 40
0.044306238672759
 50
182.5538838574009901
 51
192.4044719912984931
  0
ARC
  5
15823
  8
0
 10
8645.4890585516295687
 20
2181.6577153813818768
 30
0.0
 40
0.0221931331443069
 50
192.4044719912984931
 51
220.5025896049212122
  0
ARC
  5
15824
  8
0
 10
8645.4847836503813596
 20
2181.6540639366271535
 30
0.0
 40
0.0165710490564213
 50
220.5025896049608036
 51
265.5859141543384112
  0
ARC
  5
15825
  8
0
 10
8645.3676102505887684
 20
2181.7178983288467862
 30
0.0
 40
0.0946660609768959
 50
357.6331099435299734
 51
1.7486107617570761
  0
ARC
  5
15826
  8
0
 10
8645.4644486050874548
 20
2181.7208546579618087
 30
0.0
 40
0.0022174091505172
 50
169.9966435122859991
 51
181.7486107618352094
  0
ARC
  5
15827
  8
0
 10
8645.4623633525188779
 20
2181.7212224702079766
 30
0.0
 40
0.0000999663221213
 50
148.4436370947825878
 51
169.9966435122422013
  0
ARC
  5
15828
  8
0
 10
8645.4622866981808329
 20
2181.7212695478310707
 30
0.0
 40
0.0000100097245679
 50
80.4220853819071237
 51
148.4436371065484082
  0
LINE
  5
15829
  8
0
 10
8645.4623501805472188
 20
2181.7211433510028655
 30
0.0
 11
8645.4622883636857296
 21
2181.7212794180218225
 31
0.0
  0
ARC
  5
1582A
  8
0
 10
8645.4576081744362455
 20
2181.7200000321981861
 30
0.0
 40
0.0048778888711214
 50
7.780396515601339
 51
13.5555525008874707
  0
ARC
  5
1582B
  8
0
 10
8645.3569857727979979
 20
2181.7062515495681509
 30
0.0
 40
0.1064352051327538
 50
6.491128078842741
 51
7.780396515601339
  0
ARC
  5
1582C
  8
0
 10
8645.3393248565334943
 20
2181.7042421124720022
 30
0.0
 40
0.1242100694284282
 50
5.2178400001530534
 51
6.491128078842741
  0
ARC
  5
1582D
  8
0
 10
8640.9584885986241716
 20
2181.3041793976899498
 30
0.0
 40
4.5232754808957871
 50
5.1406541506681958
 51
5.2178400001530534
  0
ARC
  5
1582E
  8
0
 10
8645.0559293993992469
 20
2181.6727969244748238
 30
0.0
 40
0.4092871487667863
 50
4.2559996177648376
 51
5.1406541506681958
  0
ARC
  5
1582F
  8
0
 10
8647.2400730173048942
 20
2181.8353368057951229
 30
0.0
 40
1.7808960756811241
 50
184.2559996177647861
 51
184.4622702015255982
  0
ARC
  5
15830
  8
0
 10
8644.9368782365381776
 20
2181.6555974357311243
 30
0.0
 40
0.5293014135592133
 50
3.5025792003733911
 51
4.4622702015255991
  0
ARC
  5
15831
  8
0
 10
8645.3314756905492686
 20
2181.6770555707098538
 30
0.0
 40
0.1341570531562493
 50
359.0526007846710854
 51
4.6511917861786278
  0
ARC
  5
15832
  8
0
 10
8645.5422115979890805
 20
2181.797737713173774
 30
0.0
 40
0.0066120720885445
 50
171.046170560482409
 51
178.4432875541513965
  0
ARC
  5
15833
  8
0
 10
8645.5363872102061578
 20
2181.7986553949917834
 30
0.0
 40
0.00071583320464
 50
157.0663287282590943
 51
171.0461705604986093
  0
ARC
  5
15834
  8
0
 10
8645.535841522318151
 20
2181.7988862805818826
 30
0.0
 40
0.0001233102715188
 50
131.0572040204762061
 51
157.0663287284916123
  0
ARC
  5
15835
  8
0
 10
8645.5357807500859053
 20
2181.7989560502310269
 30
0.0
 40
0.0000307842312232
 50
78.8219590929070932
 51
131.057204015196703
  0
ARC
  5
15836
  8
0
 10
8645.5357766592169355
 20
2181.7989353481989383
 30
0.0
 40
0.0000518865857182
 50
50.6109260194140091
 51
78.8219590970461041
  0
ARC
  5
15837
  8
0
 10
8645.5357321304381912
 20
2181.7988811168947905
 30
0.0
 40
0.0001220567110196
 50
33.8571224429990068
 51
50.6109260192507975
  0
ARC
  5
15838
  8
0
 10
8645.5353933195710852
 20
2181.7986538132950045
 30
0.0
 40
0.0005300514789718
 50
19.62571984327883
 51
33.8571224430206499
  0
ARC
  5
15839
  8
0
 10
8645.5323750894858676
 20
2181.7975775429981695
 30
0.0
 40
0.0037344345081142
 50
13.4774231732658301
 51
19.6257198433279108
  0
ARC
  5
1583A
  8
0
 10
8645.5223122605857498
 20
2181.7951658648257762
 30
0.0
 40
0.0140822225357987
 50
9.1080246454443738
 51
13.4774231732658301
  0
ARC
  5
1583B
  8
0
 10
8645.3082060090237064
 20
2181.7608408426472124
 30
0.0
 40
0.2309224727326409
 50
8.7666717195339299
 51
9.1080246454443738
  0
ARC
  5
1583C
  8
0
 10
8645.4611161512402759
 20
2181.7730325356610592
 30
0.0
 40
0.0787491780540743
 50
10.7109676598942407
 51
16.9843228995281414
  0
ARC
  5
1583D
  8
0
 10
8645.4663980919958703
 20
2181.8006569898338967
 30
0.0
 40
0.1640098939345268
 50
275.9882254855403971
 51
291.1284603460412086
  0
ARC
  5
1583E
  8
0
 10
8645.530228653420636
 20
2181.6354805609621508
 30
0.0
 40
0.0130708594715972
 50
73.1109690491854707
 51
111.1284603460412939
  0
ARC
  5
1583F
  8
0
 10
8645.5307475256504404
 20
2181.6294591301989385
 30
0.0
 40
0.0188163459145547
 50
28.7935003834219607
 51
79.9658728650327646
  0
ARC
  5
15840
  8
0
 10
8645.8874444461580424
 20
2181.7239747331700528
 30
0.0
 40
0.3507747947109744
 50
194.0997682614496966
 51
195.1040607658844124
  0
ARC
  5
15841
  8
0
 10
8645.5554683480931999
 20
2181.6343754655999874
 30
0.0
 40
0.0069199438860765
 50
195.1040607659346904
 51
205.6835379313509975
  0
ARC
  5
15842
  8
0
 10
8645.5529632666202815
 20
2181.6331707376430131
 30
0.0
 40
0.0041402311958309
 50
205.6835379313509975
 51
221.3022834680882056
  0
ARC
  5
15843
  8
0
 10
8645.5500727828657546
 20
2181.6307119924181279
 30
0.0
 40
0.0003512272584286
 50
231.2556146074034871
 51
283.8617675098890913
  0
ARC
  5
15844
  8
0
 10
8645.5498400409942406
 20
2181.6310765914881813
 30
0.0
 40
0.0007734896867885
 50
294.185199749918695
 51
345.2596159211655049
  0
ARC
  5
15845
  8
0
 10
8645.5217321340296621
 20
2181.6384717417199681
 30
0.0
 40
0.0298379470340954
 50
345.2596159211655049
 51
351.603734264497291
  0
ARC
  5
15846
  8
0
 10
8645.3415536145366787
 20
2181.6483260612990307
 30
0.0
 40
0.2101776567046531
 50
356.1229739109842853
 51
1.9100408568561891
  0
ARC
  5
15847
  8
0
 10
8644.8961812594279763
 20
2181.6571643164470515
 30
0.0
 40
0.6554357980689828
 50
359.8397687520695172
 51
11.4849460944791595
  0
LINE
  5
15848
  8
0
 10
8645.4810921223124751
 20
2181.8339870335062187
 30
0.0
 11
8645.4869718336794904
 21
2181.7695077439798297
 31
0.0
  0
ARC
  5
15849
  8
0
 10
8645.5333820014711819
 20
2181.5282712367961722
 30
0.0
 40
0.0750801690750194
 50
356.8558368743553046
 51
359.5404279033604098
  0
ARC
  5
1584A
  8
0
 10
8645.589827498235536
 20
2181.5270149012781076
 30
0.0
 40
0.0187414233639119
 50
340.0486106479867772
 51
351.2169405087855125
  0
ARC
  5
1584B
  8
0
 10
8645.5889168870962749
 20
2181.5274480200200742
 30
0.0
 40
0.0197454071709107
 50
285.1090796336914082
 51
339.7688750408271972
  0
LINE
  5
1584C
  8
0
 10
8645.5467770742325229
 20
2181.4957800131810473
 30
0.0
 11
8645.5940636756295135
 21
2181.5083851851809413
 31
0.0
  0
ARC
  5
1584D
  8
0
 10
8645.5518557768864412
 20
2181.4778414976208296
 30
0.0
 40
0.0186435930319194
 50
105.8077310745275952
 51
145.1185226068488134
  0
ARC
  5
1584E
  8
0
 10
8645.5524618831968837
 20
2181.4775499898119051
 30
0.0
 40
0.0193078112185327
 50
145.4374878825578037
 51
181.4511209302951045
  0
ARC
  5
1584F
  8
0
 10
8646.0640738524034532
 20
2181.4905102745528893
 30
0.0
 40
0.5310839107162559
 50
181.4511209302951045
 51
186.0070939748291039
  0
ARC
  5
15850
  8
0
 10
8644.7963296113284741
 20
2181.3571062860628444
 30
0.0
 40
0.7436600184395008
 50
2.5538838574009799
 51
6.0070939748291519
  0
ARC
  5
15851
  8
0
 10
8645.5835132271859038
 20
2181.3922172142820273
 30
0.0
 40
0.044306238672759
 50
182.5538838574009901
 51
192.4044719912984931
  0
ARC
  5
15852
  8
0
 10
8645.5619163407136512
 20
2181.3874670636600968
 30
0.0
 40
0.0221931331443069
 50
192.4044719912984931
 51
220.5025896049212122
  0
ARC
  5
15853
  8
0
 10
8645.5576414394654421
 20
2181.3838156189049187
 30
0.0
 40
0.0165710490564213
 50
220.5025896049608036
 51
265.5859141543384112
  0
ARC
  5
15854
  8
0
 10
8645.4404680396728509
 20
2181.4476500111250061
 30
0.0
 40
0.0946660609768959
 50
357.6331099435299734
 51
1.7486107617570761
  0
ARC
  5
15855
  8
0
 10
8645.5373063941733562
 20
2181.4506063402391192
 30
0.0
 40
0.0022174091505172
 50
169.9966435122859991
 51
181.7486107618352094
  0
ARC
  5
15856
  8
0
 10
8645.5352211416011414
 20
2181.4509741524861965
 30
0.0
 40
0.0000999663221213
 50
148.4436370947825878
 51
169.9966435122422013
  0
ARC
  5
15857
  8
0
 10
8645.5351444872685533
 20
2181.4510212301079264
 30
0.0
 40
0.0000100097245679
 50
80.4220853819071237
 51
148.4436371065484082
  0
LINE
  5
15858
  8
0
 10
8645.5352079696313012
 20
2181.450895033280176
 30
0.0
 11
8645.53514615277345
 21
2181.4510311003000425
 31
0.0
  0
ARC
  5
15859
  8
0
 10
8645.5304659635221469
 20
2181.4497517144750418
 30
0.0
 40
0.0048778888711214
 50
7.780396515601339
 51
13.5555525008874707
  0
ARC
  5
1585A
  8
0
 10
8645.4298435618838994
 20
2181.4360032318450067
 30
0.0
 40
0.1064352051327538
 50
6.491128078842741
 51
7.780396515601339
  0
ARC
  5
1585B
  8
0
 10
8645.4121826456193958
 20
2181.4339937947488579
 30
0.0
 40
0.1242100694284282
 50
5.2178400001530534
 51
6.491128078842741
  0
ARC
  5
1585C
  8
0
 10
8641.031346387711892
 20
2181.0339310799681698
 30
0.0
 40
4.5232754808957871
 50
5.1406541506681958
 51
5.2178400001530534
  0
ARC
  5
1585D
  8
0
 10
8645.1287871884815104
 20
2181.4025486067530437
 30
0.0
 40
0.4092871487667863
 50
4.2559996177648376
 51
5.1406541506681958
  0
ARC
  5
1585E
  8
0
 10
8647.3129308063871576
 20
2181.5650884880719786
 30
0.0
 40
1.7808960756811241
 50
184.2559996177647861
 51
184.4622702015255982
  0
ARC
  5
1585F
  8
0
 10
8645.0097360256222601
 20
2181.38534911800798
 30
0.0
 40
0.5293014135592133
 50
3.5025792003733911
 51
4.4622702015255991
  0
ARC
  5
15860
  8
0
 10
8645.4043334796333511
 20
2181.4068072529880737
 30
0.0
 40
0.1341570531562493
 50
359.0526007846710854
 51
4.6511917861786278
  0
ARC
  5
15861
  8
0
 10
8645.6150693870749819
 20
2181.5274893954519939
 30
0.0
 40
0.0066120720885445
 50
171.046170560482409
 51
178.4432875541513965
  0
ARC
  5
15862
  8
0
 10
8645.6092449992902402
 20
2181.5284070772690939
 30
0.0
 40
0.00071583320464
 50
157.0663287282590943
 51
171.0461705604986093
  0
ARC
  5
15863
  8
0
 10
8645.6086993114022334
 20
2181.5286379628601026
 30
0.0
 40
0.0001233102715188
 50
131.0572040204762061
 51
157.0663287284916123
  0
ARC
  5
15864
  8
0
 10
8645.6086385391718068
 20
2181.5287077325087921
 30
0.0
 40
0.0000307842312232
 50
78.8219590929070932
 51
131.057204015196703
  0
ARC
  5
15865
  8
0
 10
8645.608634448302837
 20
2181.5286870304771583
 30
0.0
 40
0.0000518865857182
 50
50.6109260194140091
 51
78.8219590970461041
  0
ARC
  5
15866
  8
0
 10
8645.6085899195240927
 20
2181.5286327991721009
 30
0.0
 40
0.0001220567110196
 50
33.8571224429990068
 51
50.6109260192507975
  0
ARC
  5
15867
  8
0
 10
8645.6082511086533486
 20
2181.5284054955732245
 30
0.0
 40
0.0005300514789718
 50
19.62571984327883
 51
33.8571224430206499
  0
ARC
  5
15868
  8
0
 10
8645.6052328785717691
 20
2181.5273292252759347
 30
0.0
 40
0.0037344345081142
 50
13.4774231732658301
 51
19.6257198433279108
  0
ARC
  5
15869
  8
0
 10
8645.5951700496698322
 20
2181.5249175471039962
 30
0.0
 40
0.0140822225357987
 50
9.1080246454443738
 51
13.4774231732658301
  0
ARC
  5
1586A
  8
0
 10
8645.3810637981096079
 20
2181.4905925249249776
 30
0.0
 40
0.2309224727326409
 50
8.7666717195339299
 51
9.1080246454443738
  0
ARC
  5
1586B
  8
0
 10
8645.5339739403243584
 20
2181.5027842179379149
 30
0.0
 40
0.0787491780540743
 50
10.7109676598942407
 51
16.9843228995281414
  0
ARC
  5
1586C
  8
0
 10
8645.5392558810817718
 20
2181.5304086721112071
 30
0.0
 40
0.1640098939345268
 50
275.9882254855403971
 51
291.1284603460412086
  0
ARC
  5
1586D
  8
0
 10
8645.6030864425065374
 20
2181.365232243239916
 30
0.0
 40
0.0130708594715972
 50
73.1109690491854707
 51
111.1284603460412939
  0
ARC
  5
1586E
  8
0
 10
8645.6036053147345228
 20
2181.3592108124757942
 30
0.0
 40
0.0188163459145547
 50
28.7935003834219607
 51
79.9658728650327646
  0
ARC
  5
1586F
  8
0
 10
8645.9603022352421249
 20
2181.453726415447818
 30
0.0
 40
0.3507747947109744
 50
194.0997682614496966
 51
195.1040607658844124
  0
ARC
  5
15870
  8
0
 10
8645.6283261371772824
 20
2181.3641271478782073
 30
0.0
 40
0.0069199438860765
 50
195.1040607659346904
 51
205.6835379313509975
  0
ARC
  5
15871
  8
0
 10
8645.625821055704364
 20
2181.3629224199207783
 30
0.0
 40
0.0041402311958309
 50
205.6835379313509975
 51
221.3022834680882056
  0
ARC
  5
15872
  8
0
 10
8645.622930571951656
 20
2181.3604636746958931
 30
0.0
 40
0.0003512272584286
 50
231.2556146074034871
 51
283.8617675098890913
  0
ARC
  5
15873
  8
0
 10
8645.622697830078323
 20
2181.360828273765037
 30
0.0
 40
0.0007734896867885
 50
294.185199749918695
 51
345.2596159211655049
  0
ARC
  5
15874
  8
0
 10
8645.5945899231137446
 20
2181.3682234239981881
 30
0.0
 40
0.0298379470340954
 50
345.2596159211655049
 51
351.603734264497291
  0
ARC
  5
15875
  8
0
 10
8645.4144114036225801
 20
2181.3780777435767959
 30
0.0
 40
0.2101776567046531
 50
356.1229739109842853
 51
1.9100408568561891
  0
ARC
  5
15876
  8
0
 10
8644.9690390485102398
 20
2181.3869159987248167
 30
0.0
 40
0.6554357980689828
 50
359.8397687520695172
 51
11.4849460944791595
  0
ARC
  5
15877
  8
0
 10
8645.4253211329651094
 20
2181.6307156060420311
 30
0.0
 40
0.0750801690750194
 50
356.8558368743553046
 51
359.5404279033604098
  0
ARC
  5
15878
  8
0
 10
8645.4817666297294636
 20
2181.6294592705239666
 30
0.0
 40
0.0187414233639119
 50
340.0486106479867772
 51
351.2169405087855125
  0
ARC
  5
15879
  8
0
 10
8645.4808560185920214
 20
2181.6298923892659332
 30
0.0
 40
0.0197454071709107
 50
285.1090796336914082
 51
339.7688750408271972
  0
LINE
  5
1587A
  8
0
 10
8645.4387162057282694
 20
2181.5982243824269062
 30
0.0
 11
8645.48600280712526
 21
2181.6108295544258908
 31
0.0
  0
ARC
  5
1587B
  8
0
 10
8645.4437949083821877
 20
2181.5802858668671433
 30
0.0
 40
0.0186435930319194
 50
105.8077310745275952
 51
145.1185226068488134
  0
ARC
  5
1587C
  8
0
 10
8645.4444010146926303
 20
2181.5799943590582188
 30
0.0
 40
0.0193078112185327
 50
145.4374878825578037
 51
181.4511209302951045
  0
ARC
  5
1587D
  8
0
 10
8645.9560129838991998
 20
2181.592954643799203
 30
0.0
 40
0.5310839107162559
 50
181.4511209302951045
 51
186.0070939748291039
  0
ARC
  5
1587E
  8
0
 10
8644.6882687428242207
 20
2181.4595506553091582
 30
0.0
 40
0.7436600184395008
 50
2.5538838574009799
 51
6.0070939748291519
  0
ARC
  5
1587F
  8
0
 10
8645.4754523586798314
 20
2181.4946615835287957
 30
0.0
 40
0.044306238672759
 50
182.5538838574009901
 51
192.4044719912984931
  0
ARC
  5
15880
  8
0
 10
8645.4538554722093977
 20
2181.4899114329059557
 30
0.0
 40
0.0221931331443069
 50
192.4044719912984931
 51
220.5025896049212122
  0
ARC
  5
15881
  8
0
 10
8645.4495805709611886
 20
2181.4862599881507776
 30
0.0
 40
0.0165710490564213
 50
220.5025896049608036
 51
265.5859141543384112
  0
ARC
  5
15882
  8
0
 10
8645.3324071711685974
 20
2181.5500943803708651
 30
0.0
 40
0.0946660609768959
 50
357.6331099435299734
 51
1.7486107617570761
  0
ARC
  5
15883
  8
0
 10
8645.4292455256672838
 20
2181.5530507094849781
 30
0.0
 40
0.0022174091505172
 50
169.9966435122859991
 51
181.7486107618352094
  0
ARC
  5
15884
  8
0
 10
8645.427160273096888
 20
2181.5534185217320555
 30
0.0
 40
0.0000999663221213
 50
148.4436370947825878
 51
169.9966435122422013
  0
ARC
  5
15885
  8
0
 10
8645.4270836187642999
 20
2181.5534655993537854
 30
0.0
 40
0.0000100097245679
 50
80.4220853819071237
 51
148.4436371065484082
  0
LINE
  5
15886
  8
0
 10
8645.4271471011270478
 20
2181.553339402526035
 30
0.0
 11
8645.4270852842655586
 21
2181.5534754695459014
 31
0.0
  0
ARC
  5
15887
  8
0
 10
8645.4224050950178935
 20
2181.5521960837209008
 30
0.0
 40
0.0048778888711214
 50
7.780396515601339
 51
13.5555525008874707
  0
ARC
  5
15888
  8
0
 10
8645.3217826933778269
 20
2181.5384476010908656
 30
0.0
 40
0.1064352051327538
 50
6.491128078842741
 51
7.780396515601339
  0
ARC
  5
15889
  8
0
 10
8645.3041217771151423
 20
2181.5364381639951716
 30
0.0
 40
0.1242100694284282
 50
5.2178400001530534
 51
6.491128078842741
  0
ARC
  5
1588A
  8
0
 10
8640.9232855192058196
 20
2181.1363754492131193
 30
0.0
 40
4.5232754808957871
 50
5.1406541506681958
 51
5.2178400001530534
  0
ARC
  5
1588B
  8
0
 10
8645.0207263199772569
 20
2181.5049929759989027
 30
0.0
 40
0.4092871487667863
 50
4.2559996177648376
 51
5.1406541506681958
  0
ARC
  5
1588C
  8
0
 10
8647.2048699378829042
 20
2181.6675328573178376
 30
0.0
 40
1.7808960756811241
 50
184.2559996177647861
 51
184.4622702015255982
  0
ARC
  5
1588D
  8
0
 10
8644.9016751571180066
 20
2181.4877934872552032
 30
0.0
 40
0.5293014135592133
 50
3.5025792003733911
 51
4.4622702015255991
  0
ARC
  5
1588E
  8
0
 10
8645.2962726111290976
 20
2181.5092516222339327
 30
0.0
 40
0.1341570531562493
 50
359.0526007846710854
 51
4.6511917861786278
  0
ARC
  5
1588F
  8
0
 10
8645.5070085185689095
 20
2181.6299337646978529
 30
0.0
 40
0.0066120720885445
 50
171.046170560482409
 51
178.4432875541513965
  0
ARC
  5
15890
  8
0
 10
8645.5011841307859868
 20
2181.6308514465149528
 30
0.0
 40
0.00071583320464
 50
157.0663287282590943
 51
171.0461705604986093
  0
ARC
  5
15891
  8
0
 10
8645.50063844289798
 20
2181.6310823321059615
 30
0.0
 40
0.0001233102715188
 50
131.0572040204762061
 51
157.0663287284916123
  0
ARC
  5
15892
  8
0
 10
8645.5005776706657343
 20
2181.6311521017551058
 30
0.0
 40
0.0000307842312232
 50
78.8219590929070932
 51
131.057204015196703
  0
ARC
  5
15893
  8
0
 10
8645.5005735797985835
 20
2181.6311313997221077
 30
0.0
 40
0.0000518865857182
 50
50.6109260194140091
 51
78.8219590970461041
  0
ARC
  5
15894
  8
0
 10
8645.5005290510198392
 20
2181.6310771684179599
 30
0.0
 40
0.0001220567110196
 50
33.8571224429990068
 51
50.6109260192507975
  0
ARC
  5
15895
  8
0
 10
8645.5001902401490952
 20
2181.6308498648190835
 30
0.0
 40
0.0005300514789718
 50
19.62571984327883
 51
33.8571224430206499
  0
ARC
  5
15896
  8
0
 10
8645.4971720100656967
 20
2181.6297735945217937
 30
0.0
 40
0.0037344345081142
 50
13.4774231732658301
 51
19.6257198433279108
  0
ARC
  5
15897
  8
0
 10
8645.4871091811655788
 20
2181.6273619163498552
 30
0.0
 40
0.0140822225357987
 50
9.1080246454443738
 51
13.4774231732658301
  0
ARC
  5
15898
  8
0
 10
8645.2730029296035354
 20
2181.5930368941699271
 30
0.0
 40
0.2309224727326409
 50
8.7666717195339299
 51
9.1080246454443738
  0
ARC
  5
15899
  8
0
 10
8645.425913071820105
 20
2181.6052285871837739
 30
0.0
 40
0.0787491780540743
 50
10.7109676598942407
 51
16.9843228995281414
  0
ARC
  5
1589A
  8
0
 10
8645.4311950125756994
 20
2181.6328530413570661
 30
0.0
 40
0.1640098939345268
 50
275.9882254855403971
 51
291.1284603460412086
  0
ARC
  5
1589B
  8
0
 10
8645.495025574002284
 20
2181.467676612485775
 30
0.0
 40
0.0130708594715972
 50
73.1109690491854707
 51
111.1284603460412939
  0
ARC
  5
1589C
  8
0
 10
8645.4955444462302694
 20
2181.461655181722108
 30
0.0
 40
0.0188163459145547
 50
28.7935003834219607
 51
79.9658728650327646
  0
ARC
  5
1589D
  8
0
 10
8645.8522413667378714
 20
2181.5561707846932222
 30
0.0
 40
0.3507747947109744
 50
194.0997682614496966
 51
195.1040607658844124
  0
ARC
  5
1589E
  8
0
 10
8645.5202652686748479
 20
2181.4665715171240663
 30
0.0
 40
0.0069199438860765
 50
195.1040607659346904
 51
205.6835379313509975
  0
ARC
  5
1589F
  8
0
 10
8645.5177601872001105
 20
2181.4653667891670921
 30
0.0
 40
0.0041402311958309
 50
205.6835379313509975
 51
221.3022834680882056
  0
ARC
  5
158A0
  8
0
 10
8645.5148697034455836
 20
2181.4629080439422069
 30
0.0
 40
0.0003512272584286
 50
231.2556146074034871
 51
283.8617675098890913
  0
ARC
  5
158A1
  8
0
 10
8645.5146369615758886
 20
2181.463272643010896
 30
0.0
 40
0.0007734896867885
 50
294.185199749918695
 51
345.2596159211655049
  0
ARC
  5
158A2
  8
0
 10
8645.4865290546094911
 20
2181.4706677932431376
 30
0.0
 40
0.0298379470340954
 50
345.2596159211655049
 51
351.603734264497291
  0
ARC
  5
158A3
  8
0
 10
8645.3063505351183267
 20
2181.4805221128231096
 30
0.0
 40
0.2101776567046531
 50
356.1229739109842853
 51
1.9100408568561891
  0
ARC
  5
158A4
  8
0
 10
8644.8609781800078053
 20
2181.4893603679711305
 30
0.0
 40
0.6554357980689828
 50
359.8397687520695172
 51
11.4849460944791595
  0
LINE
  5
158A5
  8
0
 10
8645.498987325867347
 20
2181.6399174889511414
 30
0.0
 11
8645.5003128994867438
 21
2181.6270732520411002
 31
0.0
  0
LINE
  5
158A6
  8
0
 10
8645.516349504227037
 20
2181.4716854628732108
 30
0.0
 11
8645.5208219891646877
 21
2181.4327740435910528
 31
0.0
  0
ARC
  5
158A7
  8
0
 10
8645.621834530862543
 20
2181.1951173210968591
 30
0.0
 40
0.0750801690750194
 50
356.8558368743553046
 51
359.5404279033604098
  0
ARC
  5
158A8
  8
0
 10
8645.6782800276268972
 20
2181.1938609855787945
 30
0.0
 40
0.0187414233639119
 50
340.0486106479867772
 51
351.2169405087855125
  0
ARC
  5
158A9
  8
0
 10
8645.677369416487636
 20
2181.1942941043198516
 30
0.0
 40
0.0197454071709107
 50
285.1090796336914082
 51
339.7688750408271972
  0
LINE
  5
158AA
  8
0
 10
8645.635229603623884
 20
2181.1626260974808247
 30
0.0
 11
8645.6825162050226936
 21
2181.1752312694811735
 31
0.0
  0
ARC
  5
158AB
  8
0
 10
8645.6403083062778023
 20
2181.1446875819210618
 30
0.0
 40
0.0186435930319194
 50
105.8077310745275952
 51
145.1185226068488134
  0
ARC
  5
158AC
  8
0
 10
8645.6409144125864259
 20
2181.1443960741121373
 30
0.0
 40
0.0193078112185327
 50
145.4374878825578037
 51
181.4511209302951045
  0
ARC
  5
158AD
  8
0
 10
8646.1525263817948144
 20
2181.1573563588531215
 30
0.0
 40
0.5310839107162559
 50
181.4511209302951045
 51
186.0070939748291039
  0
ARC
  5
158AE
  8
0
 10
8644.8847821407216543
 20
2181.0239523703630766
 30
0.0
 40
0.7436600184395008
 50
2.5538838574009799
 51
6.0070939748291519
  0
ARC
  5
158AF
  8
0
 10
8645.671965756575446
 20
2181.0590632985831689
 30
0.0
 40
0.044306238672759
 50
182.5538838574009901
 51
192.4044719912984931
  0
ARC
  5
158B0
  8
0
 10
8645.6503688701050123
 20
2181.0543131479598742
 30
0.0
 40
0.0221931331443069
 50
192.4044719912984931
 51
220.5025896049212122
  0
ARC
  5
158B1
  8
0
 10
8645.6460939688549843
 20
2181.0506617032051508
 30
0.0
 40
0.0165710490564213
 50
220.5025896049608036
 51
265.5859141543384112
  0
ARC
  5
158B2
  8
0
 10
8645.528920569064212
 20
2181.1144960954247836
 30
0.0
 40
0.0946660609768959
 50
357.6331099435299734
 51
1.7486107617570761
  0
ARC
  5
158B3
  8
0
 10
8645.6257589235628984
 20
2181.1174524245398061
 30
0.0
 40
0.0022174091505172
 50
169.9966435122859991
 51
181.7486107618352094
  0
ARC
  5
158B4
  8
0
 10
8645.6236736709925026
 20
2181.1178202367868835
 30
0.0
 40
0.0000999663221213
 50
148.4436370947825878
 51
169.9966435122422013
  0
ARC
  5
158B5
  8
0
 10
8645.6235970166580955
 20
2181.1178673144090681
 30
0.0
 40
0.0000100097245679
 50
80.4220853819071237
 51
148.4436371065484082
  0
LINE
  5
158B6
  8
0
 10
8645.6236604990226624
 20
2181.1177411175808629
 30
0.0
 11
8645.6235986821611732
 21
2181.1178771845998199
 31
0.0
  0
ARC
  5
158B7
  8
0
 10
8645.6189184929116891
 20
2181.1165977987761835
 30
0.0
 40
0.0048778888711214
 50
7.780396515601339
 51
13.5555525008874707
  0
ARC
  5
158B8
  8
0
 10
8645.5182960912734416
 20
2181.1028493161461483
 30
0.0
 40
0.1064352051327538
 50
6.491128078842741
 51
7.780396515601339
  0
ARC
  5
158B9
  8
0
 10
8645.5006351750089379
 20
2181.1008398790499996
 30
0.0
 40
0.1242100694284282
 50
5.2178400001530534
 51
6.491128078842741
  0
ARC
  5
158BA
  8
0
 10
8641.1197989171014342
 20
2180.7007771642679472
 30
0.0
 40
4.5232754808957871
 50
5.1406541506681958
 51
5.2178400001530534
  0
ARC
  5
158BB
  8
0
 10
8645.2172397178728716
 20
2181.0693946910528211
 30
0.0
 40
0.4092871487667863
 50
4.2559996177648376
 51
5.1406541506681958
  0
ARC
  5
158BC
  8
0
 10
8647.4013833357785188
 20
2181.2319345723731203
 30
0.0
 40
1.7808960756811241
 50
184.2559996177647861
 51
184.4622702015255982
  0
ARC
  5
158BD
  8
0
 10
8645.0981885550136212
 20
2181.0521952023091217
 30
0.0
 40
0.5293014135592133
 50
3.5025792003733911
 51
4.4622702015255991
  0
ARC
  5
158BE
  8
0
 10
8645.4927860090247123
 20
2181.0736533372878512
 30
0.0
 40
0.1341570531562493
 50
359.0526007846710854
 51
4.6511917861786278
  0
ARC
  5
158BF
  8
0
 10
8645.7035219164645241
 20
2181.1943354797522261
 30
0.0
 40
0.0066120720885445
 50
171.046170560482409
 51
178.4432875541513965
  0
ARC
  5
158C0
  8
0
 10
8645.6976975286797824
 20
2181.1952531615697808
 30
0.0
 40
0.00071583320464
 50
157.0663287282590943
 51
171.0461705604986093
  0
ARC
  5
158C1
  8
0
 10
8645.6971518407935946
 20
2181.19548404715988
 30
0.0
 40
0.0001233102715188
 50
131.0572040204762061
 51
157.0663287284916123
  0
ARC
  5
158C2
  8
0
 10
8645.69709106855953
 20
2181.1955538168090243
 30
0.0
 40
0.0000307842312232
 50
78.8219590929070932
 51
131.057204015196703
  0
ARC
  5
158C3
  8
0
 10
8645.6970869776923792
 20
2181.1955331147760262
 30
0.0
 40
0.0000518865857182
 50
50.6109260194140091
 51
78.8219590970461041
  0
ARC
  5
158C4
  8
0
 10
8645.6970424489136349
 20
2181.1954788834718784
 30
0.0
 40
0.0001220567110196
 50
33.8571224429990068
 51
50.6109260192507975
  0
ARC
  5
158C5
  8
0
 10
8645.6967036380465288
 20
2181.1952515798730019
 30
0.0
 40
0.0005300514789718
 50
19.62571984327883
 51
33.8571224430206499
  0
ARC
  5
158C6
  8
0
 10
8645.6936854079613113
 20
2181.1941753095761669
 30
0.0
 40
0.0037344345081142
 50
13.4774231732658301
 51
19.6257198433279108
  0
ARC
  5
158C7
  8
0
 10
8645.6836225790611934
 20
2181.1917636314037736
 30
0.0
 40
0.0140822225357987
 50
9.1080246454443738
 51
13.4774231732658301
  0
ARC
  5
158C8
  8
0
 10
8645.4695163274991501
 20
2181.1574386092252098
 30
0.0
 40
0.2309224727326409
 50
8.7666717195339299
 51
9.1080246454443738
  0
ARC
  5
158C9
  8
0
 10
8645.6224264697139006
 20
2181.1696303022381471
 30
0.0
 40
0.0787491780540743
 50
10.7109676598942407
 51
16.9843228995281414
  0
ARC
  5
158CA
  8
0
 10
8645.627708410469495
 20
2181.197254756411894
 30
0.0
 40
0.1640098939345268
 50
275.9882254855403971
 51
291.1284603460412086
  0
ARC
  5
158CB
  8
0
 10
8645.6915389718942606
 20
2181.0320783275401482
 30
0.0
 40
0.0130708594715972
 50
73.1109690491854707
 51
111.1284603460412939
  0
ARC
  5
158CC
  8
0
 10
8645.692057844125884
 20
2181.0260568967769359
 30
0.0
 40
0.0188163459145547
 50
28.7935003834219607
 51
79.9658728650327646
  0
ARC
  5
158CD
  8
0
 10
8646.048754764633486
 20
2181.1205724997480502
 30
0.0
 40
0.3507747947109744
 50
194.0997682614496966
 51
195.1040607658844124
  0
ARC
  5
158CE
  8
0
 10
8645.7167786665686435
 20
2181.0309732321788942
 30
0.0
 40
0.0069199438860765
 50
195.1040607659346904
 51
205.6835379313509975
  0
ARC
  5
158CF
  8
0
 10
8645.7142735850939061
 20
2181.0297685042210105
 30
0.0
 40
0.0041402311958309
 50
205.6835379313509975
 51
221.3022834680882056
  0
ARC
  5
158D0
  8
0
 10
8645.7113831013411982
 20
2181.0273097589970348
 30
0.0
 40
0.0003512272584286
 50
231.2556146074034871
 51
283.8617675098890913
  0
ARC
  5
158D1
  8
0
 10
8645.7111503594715032
 20
2181.0276743580661787
 30
0.0
 40
0.0007734896867885
 50
294.185199749918695
 51
345.2596159211655049
  0
ARC
  5
158D2
  8
0
 10
8645.6830424525051058
 20
2181.0350695082979655
 30
0.0
 40
0.0298379470340954
 50
345.2596159211655049
 51
351.603734264497291
  0
ARC
  5
158D3
  8
0
 10
8645.5028639330121223
 20
2181.0449238278770281
 30
0.0
 40
0.2101776567046531
 50
356.1229739109842853
 51
1.9100408568561891
  0
ARC
  5
158D4
  8
0
 10
8645.057491577901601
 20
2181.0537620830259584
 30
0.0
 40
0.6554357980689828
 50
359.8397687520695172
 51
11.4849460944791595
  0
ARC
  5
158D5
  8
0
 10
8645.5303281344276911
 20
2181.4557429056208093
 30
0.0
 40
0.0197454071709107
 50
285.1090796336914082
 51
285.841617207128877
  0
LINE
  5
158D6
  8
0
 10
8645.4881883215621201
 20
2181.4240748987817824
 30
0.0
 11
8645.5354749229627487
 21
2181.4366800707821312
 31
0.0
  0
ARC
  5
158D7
  8
0
 10
8645.4932670242196764
 20
2181.4061363832220195
 30
0.0
 40
0.0186435930319194
 50
105.8077310745275952
 51
145.1185226068488134
  0
ARC
  5
158D8
  8
0
 10
8645.493873130526481
 20
2181.405844875413095
 30
0.0
 40
0.0193078112185327
 50
145.4374878825578037
 51
181.4511209302951045
  0
ARC
  5
158D9
  8
0
 10
8646.0054850997348694
 20
2181.4188051601540792
 30
0.0
 40
0.5310839107162559
 50
181.4511209302951045
 51
186.0070939748291039
  0
ARC
  5
158DA
  8
0
 10
8644.7377408586617094
 20
2181.2854011716649438
 30
0.0
 40
0.7436600184395008
 50
2.5538838574009799
 51
6.0070939748291519
  0
ARC
  5
158DB
  8
0
 10
8645.5249244745118631
 20
2181.3205120998841267
 30
0.0
 40
0.044306238672759
 50
182.5538838574009901
 51
192.4044719912984931
  0
ARC
  5
158DC
  8
0
 10
8645.5033275880450674
 20
2181.3157619492621961
 30
0.0
 40
0.0221931331443069
 50
192.4044719912984931
 51
220.5025896049212122
  0
ARC
  5
158DD
  8
0
 10
8645.4990526867932203
 20
2181.312110504507018
 30
0.0
 40
0.0165710490564213
 50
220.5025896049608036
 51
265.5859141543384112
  0
ARC
  5
158DE
  8
0
 10
8645.3818792870042671
 20
2181.375944896726196
 30
0.0
 40
0.0946660609768959
 50
357.6331099435299734
 51
1.7486107617570761
  0
ARC
  5
158DF
  8
0
 10
8645.4787176415011345
 20
2181.3789012258412185
 30
0.0
 40
0.0022174091505172
 50
169.9966435122859991
 51
181.7486107618352094
  0
ARC
  5
158E0
  8
0
 10
8645.4766323889325577
 20
2181.3792690380869317
 30
0.0
 40
0.0000999663221213
 50
148.4436370947825878
 51
169.9966435122422013
  0
ARC
  5
158E1
  8
0
 10
8645.4765557345981506
 20
2181.3793161157100258
 30
0.0
 40
0.0000100097245679
 50
80.4220853819071237
 51
148.4436371065484082
  0
LINE
  5
158E2
  8
0
 10
8645.4766192169627175
 20
2181.3791899188818206
 30
0.0
 11
8645.4765574001030473
 21
2181.3793259859007776
 31
0.0
  0
ARC
  5
158E3
  8
0
 10
8645.4718772108517442
 20
2181.3780466000771412
 30
0.0
 40
0.0048778888711214
 50
7.780396515601339
 51
13.5555525008874707
  0
ARC
  5
158E4
  8
0
 10
8645.3712548092134966
 20
2181.3642981174471061
 30
0.0
 40
0.1064352051327538
 50
6.491128078842741
 51
7.780396515601339
  0
ARC
  5
158E5
  8
0
 10
8645.353593892948993
 20
2181.3622886803509573
 30
0.0
 40
0.1242100694284282
 50
5.2178400001530534
 51
6.491128078842741
  0
ARC
  5
158E6
  8
0
 10
8640.9727576350378513
 20
2180.9622259655689049
 30
0.0
 40
4.5232754808957871
 50
5.1406541506681958
 51
5.2178400001530534
  0
ARC
  5
158E7
  8
0
 10
8645.0701984358147456
 20
2181.3308434923537789
 30
0.0
 40
0.4092871487667863
 50
4.2559996177648376
 51
5.1406541506681958
  0
ARC
  5
158E8
  8
0
 10
8647.2543420537185739
 20
2181.493383373674078
 30
0.0
 40
1.7808960756811241
 50
184.2559996177647861
 51
184.4622702015255982
  0
ARC
  5
158E9
  8
0
 10
8644.9511472729536763
 20
2181.3136440036100794
 30
0.0
 40
0.5293014135592133
 50
3.5025792003733911
 51
4.4622702015255991
  0
ARC
  5
158EA
  8
0
 10
8645.3457447269629483
 20
2181.3351021385888089
 30
0.0
 40
0.1341570531562493
 50
359.0526007846710854
 51
4.6511917861786278
  0
ARC
  5
158EB
  8
0
 10
8645.4806671284095501
 20
2181.4587035577128518
 30
0.0
 40
0.1640098939345268
 50
275.9882254855403971
 51
291.1284603460412086
  0
ARC
  5
158EC
  8
0
 10
8645.5444976898361347
 20
2181.2935271288411059
 30
0.0
 40
0.0130708594715972
 50
73.1109690491854707
 51
111.1284603460412939
  0
ARC
  5
158ED
  8
0
 10
8645.5450165620641201
 20
2181.2875056980778936
 30
0.0
 40
0.0188163459145547
 50
28.7935003834219607
 51
79.9658728650327646
  0
ARC
  5
158EE
  8
0
 10
8645.9017134825735411
 20
2181.3820213010490079
 30
0.0
 40
0.3507747947109744
 50
194.0997682614496966
 51
195.1040607658844124
  0
ARC
  5
158EF
  8
0
 10
8645.5697373845068796
 20
2181.2924220334789425
 30
0.0
 40
0.0069199438860765
 50
195.1040607659346904
 51
205.6835379313509975
  0
ARC
  5
158F0
  8
0
 10
8645.5672323030357802
 20
2181.2912173055219682
 30
0.0
 40
0.0041402311958309
 50
205.6835379313509975
 51
221.3022834680882056
  0
ARC
  5
158F1
  8
0
 10
8645.5643418192776153
 20
2181.2887585602979925
 30
0.0
 40
0.0003512272584286
 50
231.2556146074034871
 51
283.8617675098890913
  0
ARC
  5
158F2
  8
0
 10
8645.5641090774079203
 20
2181.2891231593671364
 30
0.0
 40
0.0007734896867885
 50
294.185199749918695
 51
345.2596159211655049
  0
ARC
  5
158F3
  8
0
 10
8645.5360011704451608
 20
2181.2965183095989232
 30
0.0
 40
0.0298379470340954
 50
345.2596159211655049
 51
351.603734264497291
  0
ARC
  5
158F4
  8
0
 10
8645.3558226509521774
 20
2181.3063726291779858
 30
0.0
 40
0.2101776567046531
 50
356.1229739109842853
 51
1.9100408568561891
  0
ARC
  5
158F5
  8
0
 10
8644.910450295841656
 20
2181.3152108843269161
 30
0.0
 40
0.6554357980689828
 50
359.8397687520695172
 51
4.6403550359366381
  0
ARC
  5
158F6
  8
0
 10
8645.479212746851772
 20
2181.2123524376552268
 30
0.0
 40
0.0750801690750194
 50
356.8558368743553046
 51
359.5404279033604098
  0
ARC
  5
158F7
  8
0
 10
8645.5356582436124881
 20
2181.2110961021371622
 30
0.0
 40
0.0187414233639119
 50
340.0486106479867772
 51
351.2169405087855125
  0
ARC
  5
158F8
  8
0
 10
8645.534747632473227
 20
2181.2115292208782193
 30
0.0
 40
0.0197454071709107
 50
285.1090796336914082
 51
339.7688750408271972
  0
LINE
  5
158F9
  8
0
 10
8645.492607819609475
 20
2181.1798612140391924
 30
0.0
 11
8645.5398944210101035
 21
2181.1924663860390865
 31
0.0
  0
ARC
  5
158FA
  8
0
 10
8645.4976865222652123
 20
2181.1619226984798843
 30
0.0
 40
0.0186435930319194
 50
105.8077310745275952
 51
145.1185226068488134
  0
ARC
  5
158FB
  8
0
 10
8645.4982926285738358
 20
2181.1616311906700503
 30
0.0
 40
0.0193078112185327
 50
145.4374878825578037
 51
181.4511209302951045
  0
ARC
  5
158FC
  8
0
 10
8646.0099045977822243
 20
2181.1745914754110345
 30
0.0
 40
0.5310839107162559
 50
181.4511209302951045
 51
186.0070939748291039
  0
ARC
  5
158FD
  8
0
 10
8644.7421603567108832
 20
2181.0411874869209896
 30
0.0
 40
0.7436600184395008
 50
2.5538838574009799
 51
6.0070939748291519
  0
ARC
  5
158FE
  8
0
 10
8645.5293439725592179
 20
2181.0762984151410819
 30
0.0
 40
0.044306238672759
 50
182.5538838574009901
 51
192.4044719912984931
  0
ARC
  5
158FF
  8
0
 10
8645.5077470860924223
 20
2181.0715482645177872
 30
0.0
 40
0.0221931331443069
 50
192.4044719912984931
 51
220.5025896049212122
  0
ARC
  5
15900
  8
0
 10
8645.5034721848423942
 20
2181.0678968197630638
 30
0.0
 40
0.0165710490564213
 50
220.5025896049608036
 51
265.5859141543384112
  0
ARC
  5
15901
  8
0
 10
8645.386298785051622
 20
2181.1317312119831513
 30
0.0
 40
0.0946660609768959
 50
357.6331099435299734
 51
1.7486107617570761
  0
ARC
  5
15902
  8
0
 10
8645.4831371395484894
 20
2181.1346875410968096
 30
0.0
 40
0.0022174091505172
 50
169.9966435122859991
 51
181.7486107618352094
  0
ARC
  5
15903
  8
0
 10
8645.4810518869799125
 20
2181.135055353343887
 30
0.0
 40
0.0000999663221213
 50
148.4436370947825878
 51
169.9966435122422013
  0
ARC
  5
15904
  8
0
 10
8645.4809752326455055
 20
2181.135102430966981
 30
0.0
 40
0.0000100097245679
 50
80.4220853819071237
 51
148.4436371065484082
  0
LINE
  5
15905
  8
0
 10
8645.4810387150100723
 20
2181.1349762341387759
 30
0.0
 11
8645.4809768981504021
 21
2181.1351123011581876
 31
0.0
  0
ARC
  5
15906
  8
0
 10
8645.476296708899099
 20
2181.1338329153340965
 30
0.0
 40
0.0048778888711214
 50
7.780396515601339
 51
13.5555525008874707
  0
ARC
  5
15907
  8
0
 10
8645.3756743072626705
 20
2181.1200844327040613
 30
0.0
 40
0.1064352051327538
 50
6.491128078842741
 51
7.780396515601339
  0
ARC
  5
15908
  8
0
 10
8645.3580133909963479
 20
2181.1180749956079126
 30
0.0
 40
0.1242100694284282
 50
5.2178400001530534
 51
6.491128078842741
  0
ARC
  5
15909
  8
0
 10
8640.9771771330852062
 20
2180.7180122808258602
 30
0.0
 40
4.5232754808957871
 50
5.1406541506681958
 51
5.2178400001530534
  0
ARC
  5
1590A
  8
0
 10
8645.0746179338602815
 20
2181.0866298076111889
 30
0.0
 40
0.4092871487667863
 50
4.2559996177648376
 51
5.1406541506681958
  0
ARC
  5
1590B
  8
0
 10
8647.2587615517659287
 20
2181.2491696889310333
 30
0.0
 40
1.7808960756811241
 50
184.2559996177647861
 51
184.4622702015255982
  0
ARC
  5
1590C
  8
0
 10
8644.9555667710010312
 20
2181.0694303188670347
 30
0.0
 40
0.5293014135592133
 50
3.5025792003733911
 51
4.4622702015255991
  0
ARC
  5
1590D
  8
0
 10
8645.3501642250103032
 20
2181.0908884538462189
 30
0.0
 40
0.1341570531562493
 50
359.0526007846710854
 51
4.6511917861786278
  0
ARC
  5
1590E
  8
0
 10
8645.5609001324501151
 20
2181.2115705963101391
 30
0.0
 40
0.0066120720885445
 50
171.046170560482409
 51
178.4432875541513965
  0
ARC
  5
1590F
  8
0
 10
8645.5550757446671923
 20
2181.2124882781267843
 30
0.0
 40
0.00071583320464
 50
157.0663287282590943
 51
171.0461705604986093
  0
ARC
  5
15910
  8
0
 10
8645.5545300567810045
 20
2181.2127191637191572
 30
0.0
 40
0.0001233102715188
 50
131.0572040204762061
 51
157.0663287284916123
  0
ARC
  5
15911
  8
0
 10
8645.5544692845487589
 20
2181.2127889333669373
 30
0.0
 40
0.0000307842312232
 50
78.8219590929070932
 51
131.057204015196703
  0
ARC
  5
15912
  8
0
 10
8645.5544651936816081
 20
2181.2127682313339392
 30
0.0
 40
0.0000518865857182
 50
50.6109260194140091
 51
78.8219590970461041
  0
ARC
  5
15913
  8
0
 10
8645.5544206648992258
 20
2181.2127140000311556
 30
0.0
 40
0.0001220567110196
 50
33.8571224429990068
 51
50.6109260192507975
  0
ARC
  5
15914
  8
0
 10
8645.5540818540321197
 20
2181.2124866964309149
 30
0.0
 40
0.0005300514789718
 50
19.62571984327883
 51
33.8571224430206499
  0
ARC
  5
15915
  8
0
 10
8645.5510636239487212
 20
2181.2114104261340799
 30
0.0
 40
0.0037344345081142
 50
13.4774231732658301
 51
19.6257198433279108
  0
ARC
  5
15916
  8
0
 10
8645.5410007950486033
 20
2181.2089987479630508
 30
0.0
 40
0.0140822225357987
 50
9.1080246454443738
 51
13.4774231732658301
  0
ARC
  5
15917
  8
0
 10
8645.32689454348656
 20
2181.1746737257831228
 30
0.0
 40
0.2309224727326409
 50
8.7666717195339299
 51
9.1080246454443738
  0
ARC
  5
15918
  8
0
 10
8645.4798046857013105
 20
2181.1868654187960601
 30
0.0
 40
0.0787491780540743
 50
10.7109676598942407
 51
16.9843228995281414
  0
ARC
  5
15919
  8
0
 10
8645.4850866264569049
 20
2181.214489872969807
 30
0.0
 40
0.1640098939345268
 50
275.9882254855403971
 51
276.5190494242285126
  0
ARC
  5
1591A
  8
0
 10
8644.9148697938908299
 20
2181.0709971995829619
 30
0.0
 40
0.6554357980689828
 50
4.757432311830458
 51
11.4849460944791595
  0
ARC
  5
1591B
  8
0
 10
8645.7164847807816841
 20
2180.6913423600021815
 30
0.0
 40
0.059084901759771
 50
213.8374935574697986
 51
226.0848615691151053
  0
ARC
  5
1591C
  8
0
 10
8645.685068630893511
 20
2180.65871745074719
 30
0.0
 40
0.0137929693191189
 50
226.0965059073323005
 51
246.9387138099284016
  0
ARC
  5
1591D
  8
0
 10
8645.6822910620248877
 20
2180.6521933199192063
 30
0.0
 40
0.0067021885533647
 50
246.9387138099284016
 51
274.8794680325885906
  0
ARC
  5
1591E
  8
0
 10
8645.6825699956534663
 20
2180.6489259424351985
 30
0.0
 40
0.0034229265034491
 50
274.8794680325885906
 51
313.802233824765608
  0
ARC
  5
1591F
  8
0
 10
8645.6788238537301368
 20
2180.6528320782499577
 30
0.0
 40
0.0088350865440055
 50
313.802233824765608
 51
340.4551956862954967
  0
ARC
  5
15920
  8
0
 10
8645.6657246165996185
 20
2180.6574822924972068
 30
0.0
 40
0.0227352486272672
 50
340.4551956862954967
 51
348.9058709869817108
  0
ARC
  5
15921
  8
0
 10
8645.6512380435597152
 20
2180.6603229036131779
 30
0.0
 40
0.0374976965911619
 50
348.9058709869817108
 51
359.4294290906864831
  0
ARC
  5
15922
  8
0
 10
8645.5699172876811645
 20
2180.6611327502000677
 30
0.0
 40
0.1188224848690832
 50
359.4294290906864831
 51
11.0677695913015892
  0
ARC
  5
15923
  8
0
 10
8645.1683923366981617
 20
2180.5825912233967756
 30
0.0
 40
0.5279570076055184
 50
11.0677695913015892
 51
13.3638404629782901
  0
ARC
  5
15924
  8
0
 10
8645.408177326527948
 20
2180.6395561720260048
 30
0.0
 40
0.2814983970432986
 50
13.3638404629782901
 51
22.1224493666507485
  0
ARC
  5
15925
  8
0
 10
8645.3495100798918429
 20
2180.6157070923891297
 30
0.0
 40
0.3448278880200489
 50
22.1224493666507485
 51
30.9354089281763684
  0
ARC
  5
15926
  8
0
 10
8645.6171284338561236
 20
2180.7760980852240209
 30
0.0
 40
0.0328265194964553
 50
30.9354089281763684
 51
51.9369251901360514
  0
ARC
  5
15927
  8
0
 10
8645.6282771590740595
 20
2180.7900374265191203
 30
0.0
 40
0.0149792420298518
 50
52.6397941095541029
 51
73.8487107631025594
  0
ARC
  5
15928
  8
0
 10
8645.6317809298161592
 20
2180.8000648286129035
 30
0.0
 40
0.0044107424376507
 50
81.3538571538134363
 51
110.1419818160767932
  0
ARC
  5
15929
  8
0
 10
8645.6316075641152565
 20
2180.8005374992180805
 30
0.0
 40
0.0039072812494929
 50
110.1419818161746065
 51
139.7547420039053065
  0
ARC
  5
1592A
  8
0
 10
8645.6356750059367187
 20
2180.7970947333960794
 30
0.0
 40
0.0092361384902086
 50
139.7547420039053065
 51
161.6806014531451865
  0
ARC
  5
1592B
  8
0
 10
8645.6504833815342863
 20
2180.7921917687672249
 30
0.0
 40
0.0248350823645896
 50
161.6806014531451865
 51
172.8558049314459879
  0
ARC
  5
1592C
  8
0
 10
8645.6816551488354889
 20
2180.7882847001951632
 30
0.0
 40
0.0562507514081343
 50
172.8558049314459879
 51
178.9403136602848008
  0
ARC
  5
1592D
  8
0
 10
8645.6942794195401802
 20
2180.7880511874850527
 30
0.0
 40
0.0688771815848824
 50
178.9403136602848008
 51
182.8066652833545049
  0
ARC
  5
1592E
  8
0
 10
8645.6139063400296436
 20
2180.7937102264440909
 30
0.0
 40
0.0146844576674725
 50
283.9775504794108087
 51
322.0444430269424174
  0
LINE
  5
1592F
  8
0
 10
8645.617453248862148
 20
2180.7794605690901335
 30
0.0
 11
8645.5799120292667794
 21
2180.7694547360711113
 31
0.0
  0
ARC
  5
15930
  8
0
 10
8645.5846886505787552
 20
2180.7490791947680009
 30
0.0
 40
0.0209279429170933
 50
103.1935526525216034
 51
143.2705554612635979
  0
ARC
  5
15931
  8
0
 10
8645.5885641399090673
 20
2180.7461873947067943
 30
0.0
 40
0.0257634289466237
 50
143.2705554612635979
 51
176.047198149943398
  0
ARC
  5
15932
  8
0
 10
8645.6513226655915787
 20
2180.7418508390528586
 30
0.0
 40
0.0886716021887082
 50
176.047198149943398
 51
181.8497167144116986
  0
ARC
  5
15933
  8
0
 10
8645.6496301125716855
 20
2180.7417961782789462
 30
0.0
 40
0.0869781667680407
 50
181.8497167144116986
 51
196.0363815508138998
  0
ARC
  5
15934
  8
0
 10
8645.9034286188671103
 20
2180.8147461678368018
 30
0.0
 40
0.3510527448216705
 50
196.0363815508138998
 51
204.3861298017104104
  0
ARC
  5
15935
  8
0
 10
8645.630553280157983
 20
2180.6910440663377813
 30
0.0
 40
0.0514477375369814
 50
204.3861298017104104
 51
229.3091867341587999
  0
ARC
  5
15936
  8
0
 10
8645.6125317837177136
 20
2180.6700853473239476
 30
0.0
 40
0.0238064235903254
 50
229.3091867342378123
 51
258.8394472280895116
  0
ARC
  5
15937
  8
0
 10
8645.6120195558651176
 20
2180.6674890273120582
 30
0.0
 40
0.0211600572178822
 50
258.8394472280895116
 51
285.7941201520977188
  0
LINE
  5
15938
  8
0
 10
8645.6177789319826843
 20
2180.6471278483631977
 30
0.0
 11
8645.6604977654642425
 21
2180.6584974455308839
 31
0.0
  0
ARC
  5
15939
  8
0
 10
8645.6639636741365393
 20
2180.6433163226001852
 30
0.0
 40
0.0155718489959761
 50
78.6931913734587454
 51
102.7583964909635057
  0
ARC
  5
1593A
  8
0
 10
8645.6667545141281153
 20
2180.6572744798199892
 30
0.0
 40
0.0013374209836298
 50
60.7667946048958072
 51
78.6931913734587454
  0
ARC
  5
1593B
  8
0
 10
8645.6510627571369696
 20
2180.7252408781077975
 30
0.0
 40
0.0794993854013985
 50
199.0726038046379074
 51
210.2361448720116925
  0
ARC
  5
1593C
  8
0
 10
8645.5970374402513698
 20
2180.6937517495048269
 30
0.0
 40
0.0169669931170617
 50
210.2361448720116925
 51
225.9643545909621878
  0
ARC
  5
1593D
  8
0
 10
8645.5880038368704845
 20
2180.6844088184720931
 30
0.0
 40
0.0039709802554483
 50
225.9643545909621878
 51
245.9852132147794919
  0
ARC
  5
1593E
  8
0
 10
8645.5870921349323908
 20
2180.6823625238239401
 30
0.0
 40
0.0017307744142904
 50
245.9852132149065085
 51
268.9656566107793765
  0
ARC
  5
1593F
  8
0
 10
8645.5870798741761973
 20
2180.681683432797854
 30
0.0
 40
0.0010515727158777
 50
268.9656566106751256
 51
302.6032105476688798
  0
ARC
  5
15940
  8
0
 10
8645.5867513719767885
 20
2180.6821970339628933
 30
0.0
 40
0.0016612446364733
 50
302.6032105476970173
 51
340.3175714498848947
  0
ARC
  5
15941
  8
0
 10
8645.5801140286876034
 20
2180.6845712506788004
 30
0.0
 40
0.0087104453695897
 50
340.3175714498848947
 51
355.08593285522511
  0
ARC
  5
15942
  8
0
 10
8645.5661987752755522
 20
2180.6857676503450421
 30
0.0
 40
0.0226770358495986
 50
355.08593285522511
 51
12.3950273882706696
  0
ARC
  5
15943
  8
0
 10
8645.2656408541661222
 20
2180.6197130509981434
 30
0.0
 40
0.3304078825911639
 50
12.3950273882706696
 51
14.4981019312124193
  0
ARC
  5
15944
  8
0
 10
8645.5247592463674664
 20
2180.6867164656509885
 30
0.0
 40
0.0627667072222429
 50
14.4981019312124193
 51
27.2102011206092911
  0
ARC
  5
15945
  8
0
 10
8645.5052443589902396
 20
2180.6766827832520903
 30
0.0
 40
0.0847099433520992
 50
27.2102011206092911
 51
33.6955382119795601
  0
ARC
  5
15946
  8
0
 10
8645.5711669211068511
 20
2180.7206402504612015
 30
0.0
 40
0.0054758400945993
 50
33.6955382120012388
 51
60.7187988656857769
  0
ARC
  5
15947
  8
0
 10
8645.5720976568427432
 20
2180.7223000778681126
 30
0.0
 40
0.0035728697766508
 50
60.7187988656857769
 51
69.7447504011057191
  0
ARC
  5
15948
  8
0
 10
8645.5728725636854506
 20
2180.7243999622628507
 30
0.0
 40
0.0013345679453328
 50
69.7447504012125137
 51
100.4728716866704019
  0
ARC
  5
15949
  8
0
 10
8645.572826792658816
 20
2180.7246475748620469
 30
0.0
 40
0.0010827605070929
 50
100.4728716868800973
 51
136.2079300581609118
  0
ARC
  5
1594A
  8
0
 10
8645.5753936895944207
 20
2180.7228333886191649
 30
0.0
 40
0.0042171035568651
 50
142.5634505758762032
 51
177.0076454835358106
  0
ARC
  5
1594B
  8
0
 10
8645.6053774716965563
 20
2180.7208771638411235
 30
0.0
 40
0.0342643238015448
 50
176.3582891419052032
 51
194.6489759805282915
  0
ARC
  5
1594C
  8
0
 10
8645.8593655135664449
 20
2180.7872679826577951
 30
0.0
 40
0.2967860681118081
 50
194.6489759805282915
 51
197.2490691347819904
  0
LINE
  5
1594D
  8
0
 10
8645.5363089111542649
 20
2181.304420579645921
 30
0.0
 11
8645.5480719238676102
 21
2181.196957180415211
 31
0.0
  0
ARC
  5
1594E
  8
0
 10
8645.9239249323945842
 20
2179.3441972796817936
 30
0.0
 40
0.0215335113560041
 50
202.4986713581945992
 51
281.9348864906946233
  0
ARC
  5
1594F
  8
0
 10
8645.9002595092442789
 20
2179.4561598506270457
 30
0.0
 40
0.1359698235369399
 50
281.9348864906946233
 51
287.9134225021321072
  0
ARC
  5
15950
  8
0
 10
8646.0259031282930664
 20
2179.0674710707658051
 30
0.0
 40
0.2725216532378107
 50
101.9148952024198991
 51
107.913422502132093
  0
ARC
  5
15951
  8
0
 10
8645.9740203526507685
 20
2179.3133556624120502
 30
0.0
 40
0.0212229170352953
 50
78.4464801698965317
 51
101.9148952024198991
  0
ARC
  5
15952
  8
0
 10
8645.9752276310737216
 20
2179.3192613831579365
 30
0.0
 40
0.0151950601435002
 50
48.6450128681981226
 51
78.4464801698965317
  0
ARC
  5
15953
  8
0
 10
8646.0578940342111309
 20
2179.3672145839909717
 30
0.0
 40
0.0813040147055157
 50
206.7125339520449927
 51
209.8168333878475096
  0
ARC
  5
15954
  8
0
 10
8646.0080175316852547
 20
2179.3378125813551378
 30
0.0
 40
0.0234214233577073
 50
208.0804049873289046
 51
224.0130300209451946
  0
ARC
  5
15955
  8
0
 10
8645.9931636128912942
 20
2179.3234617890520894
 30
0.0
 40
0.0027675098481934
 50
224.0130300207977996
 51
256.2973818158059771
  0
ARC
  5
15956
  8
0
 10
8645.9927340032209031
 20
2179.3216998092689209
 30
0.0
 40
0.0009539119800793
 50
256.2973818157046821
 51
303.6615143978440869
  0
ARC
  5
15957
  8
0
 10
8645.9923950089942082
 20
2179.3222088500588143
 30
0.0
 40
0.0015654997583964
 50
303.6615143978007723
 51
337.6987933964363151
  0
ARC
  5
15958
  8
0
 10
8645.9866880271747505
 20
2179.3245495942837806
 30
0.0
 40
0.0077338646152117
 50
337.6987933964363151
 51
348.5956687841643884
  0
ARC
  5
15959
  8
0
 10
8645.9767709174211632
 20
2179.3265500145371334
 30
0.0
 40
0.017850719219349
 50
348.5956687841643884
 51
8.9603173761222177
  0
ARC
  5
1595A
  8
0
 10
8645.7552478884008451
 20
2179.3049941804770242
 30
0.0
 40
0.2403909164066646
 50
5.8103193965319111
 51
15.4156739722559895
  0
ARC
  5
1595B
  8
0
 10
8644.4007751601129712
 20
2178.9315115578160658
 30
0.0
 40
1.645412496705873
 50
15.4156739722559895
 51
17.5389757981136611
  0
ARC
  5
1595C
  8
0
 10
8645.674405105131882
 20
2179.3340382670230611
 30
0.0
 40
0.3096876041943233
 50
17.5389757981136611
 51
27.123349223115369
  0
ARC
  5
1595D
  8
0
 10
8645.9330928231811413
 20
2179.4665485145160346
 30
0.0
 40
0.0190360926541636
 50
27.123349223115369
 51
44.4458794762940883
  0
ARC
  5
1595E
  8
0
 10
8645.9444319364974945
 20
2179.4776703956699748
 30
0.0
 40
0.0031530283646569
 50
44.4458794762940883
 51
82.9275573520255875
  0
ARC
  5
1595F
  8
0
 10
8645.9452263894363568
 20
2179.479500238485798
 30
0.0
 40
0.0013612265490732
 50
107.3636849546943068
 51
161.4372535404419864
  0
ARC
  5
15960
  8
0
 10
8645.9532362190730055
 20
2179.4766584233680078
 30
0.0
 40
0.0098600745430829
 50
160.5998857253646008
 51
181.1748792558090884
  0
ARC
  5
15961
  8
0
 10
8645.9951614420278929
 20
2179.4757245860009789
 30
0.0
 40
0.0517883933471597
 50
179.1904991324531977
 51
188.0158503274957127
  0
ARC
  5
15962
  8
0
 10
8645.9302434169312619
 20
2179.4722334040638998
 30
0.0
 40
0.0141367401151395
 50
322.8588945791007063
 51
344.6989424358516203
  0
ARC
  5
15963
  8
0
 10
8645.9267611271752685
 20
2179.4733724510829234
 30
0.0
 40
0.0176408751323569
 50
284.0803104444531755
 51
326.7416258388734036
  0
ARC
  5
15964
  8
0
 10
8646.1506145488183392
 20
2178.5553202965120363
 30
0.0
 40
0.9273093078301219
 50
103.6961525825925037
 51
106.1539096124027992
  0
ARC
  5
15965
  8
0
 10
8645.8984871567845403
 20
2179.4257614233320055
 30
0.0
 40
0.0210885968149355
 50
106.1539096124027992
 51
125.9848280740673943
  0
ARC
  5
15966
  8
0
 10
8645.9016108968808112
 20
2179.4248169416259771
 30
0.0
 40
0.0237702630838886
 50
130.7452817690046913
 51
193.6540796462597029
  0
ARC
  5
15967
  8
0
 10
8646.2067164135569328
 20
2179.4742113539159618
 30
0.0
 40
0.3327814327725844
 50
189.5141101220274038
 51
204.5164001374774045
  0
ARC
  5
15968
  8
0
 10
8646.0930237138491066
 20
2179.44011821981303
 30
0.0
 40
0.2119393138899498
 50
193.6929229469272968
 51
200.2091598597901907
  0
ARC
  5
15969
  8
0
 10
8645.9613229228762066
 20
2179.391637857132082
 30
0.0
 40
0.0715988567573142
 50
200.2091598597901907
 51
207.8120349053328084
  0
ARC
  5
1596A
  8
0
 10
8645.9016875132347195
 20
2179.3601796622820075
 30
0.0
 40
0.004174824644997
 50
207.8120349053328084
 51
225.1348279871326952
  0
ARC
  5
1596B
  8
0
 10
8645.8997190813006455
 20
2179.3582019442787896
 30
0.0
 40
0.0013844675382359
 50
225.1348279871326952
 51
248.6433555108700943
  0
ARC
  5
1596C
  8
0
 10
8645.8992867817341903
 20
2179.3570963839970318
 30
0.0
 40
0.0001973927921699
 50
248.643355510095688
 51
314.2818176667148009
  0
ARC
  5
1596D
  8
0
 10
8645.898784738372342
 20
2179.357611173668829
 30
0.0
 40
0.0009164588144608
 50
314.2818176666402223
 51
332.0246219457459915
  0
ARC
  5
1596E
  8
0
 10
8645.8985929664013383
 20
2179.357713034949029
 30
0.0
 40
0.0011336044077365
 50
332.0246219457459915
 51
1.7993977817771329
  0
ARC
  5
1596F
  8
0
 10
8645.8885545409830229
 20
2179.3585754448909029
 30
0.0
 40
0.0112020258349954
 50
355.7671853548077934
 51
6.3447544725290781
  0
ARC
  5
15970
  8
0
 10
8645.7577709112429147
 20
2179.3376810326099076
 30
0.0
 40
0.1436324758226219
 50
8.8640341633517732
 51
17.7693308111328214
  0
ARC
  5
15971
  8
0
 10
8645.6225754474799032
 20
2179.294354331159866
 30
0.0
 40
0.2856008401898816
 50
17.7693308111328214
 51
20.6625214307216893
  0
ARC
  5
15972
  8
0
 10
8645.8517118875643064
 20
2179.3807665342351356
 30
0.0
 40
0.0407119326934069
 50
20.6625214307216893
 51
30.6680556762504501
  0
ARC
  5
15973
  8
0
 10
8645.8839639262878336
 20
2179.3998920805588568
 30
0.0
 40
0.0032155258766048
 50
30.6680556762504501
 51
49.8993617369810991
  0
ARC
  5
15974
  8
0
 10
8645.8855843668188754
 20
2179.4018163720461416
 30
0.0
 40
0.0006998300998057
 50
49.8993617372244529
 51
79.4458113478345354
  0
ARC
  5
15975
  8
0
 10
8645.8856778532845055
 20
2179.4023181310071777
 30
0.0
 40
0.0001894363556683
 50
79.4458113469862468
 51
113.7898867733964039
  0
ARC
  5
15976
  8
0
 10
8645.8857647103322961
 20
2179.4021211055292042
 30
0.0
 40
0.00040475747959
 50
113.7898867732905046
 51
150.3089948728425043
  0
ARC
  5
15977
  8
0
 10
8645.8863087342015206
 20
2179.4018109129769982
 30
0.0
 40
0.0010310013524281
 50
150.308994872722991
 51
168.9514035479151062
  0
ARC
  5
15978
  8
0
 10
8645.8920647157647181
 20
2179.4006869961622215
 30
0.0
 40
0.0068956848708931
 50
168.9514035478894982
 51
192.0893708936056044
  0
ARC
  5
15979
  8
0
 10
8645.6664723624253384
 20
2179.3523679581198849
 30
0.0
 40
0.2238133078483499
 50
9.6662953570385781
 51
12.0893708936055901
  0
ARC
  5
1597A
  8
0
 10
8645.959651161745569
 20
2179.5114118928831886
 30
0.0
 40
0.0215335113560041
 50
202.4986713581945992
 51
281.9348864906946233
  0
ARC
  5
1597B
  8
0
 10
8645.9359857385989017
 20
2179.6233744638288954
 30
0.0
 40
0.1359698235369399
 50
281.9348864906946233
 51
287.9134225021321072
  0
ARC
  5
1597C
  8
0
 10
8646.0616293576458702
 20
2179.2346856839672
 30
0.0
 40
0.2725216532378107
 50
101.9148952024198991
 51
107.913422502132093
  0
ARC
  5
1597D
  8
0
 10
8646.0097465820053912
 20
2179.4805702756129904
 30
0.0
 40
0.0212229170352953
 50
78.4464801698965317
 51
101.9148952024198991
  0
ARC
  5
1597E
  8
0
 10
8646.0109538604265254
 20
2179.4864759963588767
 30
0.0
 40
0.0151950601435002
 50
48.6450128681981226
 51
78.4464801698965317
  0
ARC
  5
1597F
  8
0
 10
8646.0936202635621157
 20
2179.5344291971910025
 30
0.0
 40
0.0813040147055157
 50
206.7125339520449927
 51
208.8337689106899973
  0
ARC
  5
15980
  8
0
 10
8645.7909741177518299
 20
2179.4722087936770549
 30
0.0
 40
0.2403909164066646
 50
8.6553258554226513
 51
15.4156739722559895
  0
ARC
  5
15981
  8
0
 10
8644.436501389462137
 20
2179.098726171017006
 30
0.0
 40
1.645412496705873
 50
15.4156739722559895
 51
17.5389757981136611
  0
ARC
  5
15982
  8
0
 10
8645.7101313344828668
 20
2179.5012528802240013
 30
0.0
 40
0.3096876041943233
 50
17.5389757981136611
 51
27.123349223115369
  0
ARC
  5
15983
  8
0
 10
8645.9688190525321261
 20
2179.6337631277169749
 30
0.0
 40
0.0190360926541636
 50
27.123349223115369
 51
44.4458794762940883
  0
ARC
  5
15984
  8
0
 10
8645.9801581658502982
 20
2179.6448850088718245
 30
0.0
 40
0.0031530283646569
 50
44.4458794762940883
 51
82.9275573520255875
  0
ARC
  5
15985
  8
0
 10
8645.9809526187891606
 20
2179.646714851687193
 30
0.0
 40
0.0013612265490732
 50
107.3636849546943068
 51
161.4372535404419864
  0
ARC
  5
15986
  8
0
 10
8645.9889624484258093
 20
2179.643873036568948
 30
0.0
 40
0.0098600745430829
 50
160.5998857253646008
 51
181.1748792558090884
  0
ARC
  5
15987
  8
0
 10
8646.0308876713806967
 20
2179.6429391992019191
 30
0.0
 40
0.0517883933471597
 50
179.1904991324531977
 51
188.0158503274957127
  0
ARC
  5
15988
  8
0
 10
8645.9659696462877037
 20
2179.63944801726484
 30
0.0
 40
0.0141367401151395
 50
322.8588945791007063
 51
344.6989424358516203
  0
ARC
  5
15989
  8
0
 10
8645.9624873565317102
 20
2179.6405870642838636
 30
0.0
 40
0.0176408751323569
 50
284.0803104444531755
 51
326.7416258388734036
  0
ARC
  5
1598A
  8
0
 10
8646.186340778169324
 20
2178.7225349097129765
 30
0.0
 40
0.9273093078301219
 50
103.6961525825925037
 51
106.1539096124027992
  0
ARC
  5
1598B
  8
0
 10
8645.9342133861373441
 20
2179.5929760365329457
 30
0.0
 40
0.0210885968149355
 50
106.1539096124027992
 51
125.9848280740673943
  0
ARC
  5
1598C
  8
0
 10
8645.937337126233615
 20
2179.5920315548269173
 30
0.0
 40
0.0237702630838886
 50
130.7452817690046913
 51
193.6540796462597029
  0
ARC
  5
1598D
  8
0
 10
8646.2424426429079176
 20
2179.6414259671159925
 30
0.0
 40
0.3327814327725844
 50
189.5141101220274038
 51
204.5164001374774045
  0
ARC
  5
1598E
  8
0
 10
8646.1287499432000914
 20
2179.6073328330148797
 30
0.0
 40
0.2119393138899498
 50
193.6929229469272968
 51
200.2091598597901907
  0
ARC
  5
1598F
  8
0
 10
8645.9970491522308293
 20
2179.5588524703330222
 30
0.0
 40
0.0715988567573142
 50
200.2091598597901907
 51
207.8120349053328084
  0
ARC
  5
15990
  8
0
 10
8645.9374137425893423
 20
2179.5273942754829477
 30
0.0
 40
0.004174824644997
 50
207.8120349053328084
 51
225.1348279871326952
  0
ARC
  5
15991
  8
0
 10
8645.9354453106534493
 20
2179.5254165574801846
 30
0.0
 40
0.0013844675382359
 50
225.1348279871326952
 51
248.6433555108700943
  0
ARC
  5
15992
  8
0
 10
8645.9350130110888131
 20
2179.524310997197972
 30
0.0
 40
0.0001973927921699
 50
248.643355510095688
 51
314.2818176667148009
  0
ARC
  5
15993
  8
0
 10
8645.9345109677251457
 20
2179.524825786870224
 30
0.0
 40
0.0009164588144608
 50
314.2818176666402223
 51
332.0246219457459915
  0
ARC
  5
15994
  8
0
 10
8645.9343191957541421
 20
2179.5249276481499692
 30
0.0
 40
0.0011336044077365
 50
332.0246219457459915
 51
1.7993977817771329
  0
ARC
  5
15995
  8
0
 10
8645.9242807703358267
 20
2179.5257900580918431
 30
0.0
 40
0.0112020258349954
 50
355.7671853548077934
 51
6.3447544725290781
  0
ARC
  5
15996
  8
0
 10
8645.7934971405957185
 20
2179.5048956458108478
 30
0.0
 40
0.1436324758226219
 50
8.8640341633517732
 51
17.7693308111328214
  0
ARC
  5
15997
  8
0
 10
8645.658301676830888
 20
2179.4615689443608062
 30
0.0
 40
0.2856008401898816
 50
17.7693308111328214
 51
20.6625214307216893
  0
ARC
  5
15998
  8
0
 10
8645.8874381169152912
 20
2179.5479811474360758
 30
0.0
 40
0.0407119326934069
 50
20.6625214307216893
 51
30.6680556762504501
  0
ARC
  5
15999
  8
0
 10
8645.9196901556424564
 20
2179.5671066937597971
 30
0.0
 40
0.0032155258766048
 50
30.6680556762504501
 51
49.8993617369810991
  0
ARC
  5
1599A
  8
0
 10
8645.9213105961716792
 20
2179.5690309852470818
 30
0.0
 40
0.0006998300998057
 50
49.8993617372244529
 51
79.4458113478345354
  0
ARC
  5
1599B
  8
0
 10
8645.9214040826336714
 20
2179.5695327442090274
 30
0.0
 40
0.0001894363556683
 50
79.4458113469862468
 51
113.7898867733964039
  0
ARC
  5
1599C
  8
0
 10
8645.9214909396832809
 20
2179.5693357187301444
 30
0.0
 40
0.00040475747959
 50
113.7898867732905046
 51
150.3089948728425043
  0
ARC
  5
1599D
  8
0
 10
8645.9220349635525054
 20
2179.569025526177029
 30
0.0
 40
0.0010310013524281
 50
150.308994872722991
 51
168.9514035479151062
  0
ARC
  5
1599E
  8
0
 10
8645.9277909451175219
 20
2179.5679016093640712
 30
0.0
 40
0.0068956848708931
 50
168.9514035478894982
 51
192.0893708936056044
  0
ARC
  5
1599F
  8
0
 10
8645.7021985917817801
 20
2179.5195825713208251
 30
0.0
 40
0.2238133078483499
 50
9.6662953570385781
 51
12.0893708936055901
  0
ARC
  5
159A0
  8
0
 10
8645.8651451688801899
 20
2179.6052856325268294
 30
0.0
 40
0.0215335113560041
 50
202.4986713581945992
 51
281.9348864906946233
  0
ARC
  5
159A1
  8
0
 10
8645.8414797457335226
 20
2179.717248203472991
 30
0.0
 40
0.1359698235369399
 50
281.9348864906946233
 51
287.9134225021321072
  0
ARC
  5
159A2
  8
0
 10
8645.9671233647823101
 20
2179.3285594236108409
 30
0.0
 40
0.2725216532378107
 50
101.9148952024198991
 51
107.913422502132093
  0
ARC
  5
159A3
  8
0
 10
8645.9152405891418312
 20
2179.574444015257086
 30
0.0
 40
0.0212229170352953
 50
93.7856101173995
 51
101.9148952024198991
  0
ARC
  5
159A4
  8
0
 10
8645.6964681248882698
 20
2179.56608253332206
 30
0.0
 40
0.2403909164066646
 50
11.5650378083986993
 51
15.4156739722559895
  0
ARC
  5
159A5
  8
0
 10
8644.3419953965985769
 20
2179.1925999106611016
 30
0.0
 40
1.645412496705873
 50
15.4156739722559895
 51
17.5389757981136611
  0
ARC
  5
159A6
  8
0
 10
8645.6156253416193067
 20
2179.5951266198680969
 30
0.0
 40
0.3096876041943233
 50
17.5389757981136611
 51
27.123349223115369
  0
ARC
  5
159A7
  8
0
 10
8645.874313059668566
 20
2179.7276368673610705
 30
0.0
 40
0.0190360926541636
 50
27.123349223115369
 51
44.4458794762940883
  0
ARC
  5
159A8
  8
0
 10
8645.8856521729849192
 20
2179.7387587485159202
 30
0.0
 40
0.0031530283646569
 50
44.4458794762940883
 51
82.9275573520255875
  0
ARC
  5
159A9
  8
0
 10
8645.8864466259256005
 20
2179.7405885913308339
 30
0.0
 40
0.0013612265490732
 50
107.3636849546943068
 51
161.4372535404419864
  0
ARC
  5
159AA
  8
0
 10
8645.8944564555622492
 20
2179.7377467762130436
 30
0.0
 40
0.0098600745430829
 50
160.5998857253646008
 51
181.1748792558090884
  0
ARC
  5
159AB
  8
0
 10
8645.9363816785171366
 20
2179.7368129388460147
 30
0.0
 40
0.0517883933471597
 50
179.1904991324531977
 51
188.0158503274957127
  0
ARC
  5
159AC
  8
0
 10
8645.8714636534223246
 20
2179.7333217569089356
 30
0.0
 40
0.0141367401151395
 50
322.8588945791007063
 51
344.6989424358516203
  0
ARC
  5
159AD
  8
0
 10
8645.8679813636663312
 20
2179.7344608039279592
 30
0.0
 40
0.0176408751323569
 50
284.0803104444531755
 51
326.7416258388734036
  0
ARC
  5
159AE
  8
0
 10
8646.0918347853075829
 20
2178.8164086493579816
 30
0.0
 40
0.9273093078301219
 50
103.6961525825925037
 51
106.1539096124027992
  0
ARC
  5
159AF
  8
0
 10
8645.839707393275603
 20
2179.6868497761770413
 30
0.0
 40
0.0210885968149355
 50
106.1539096124027992
 51
125.9848280740673943
  0
ARC
  5
159B0
  8
0
 10
8645.8428311333700549
 20
2179.6859052944710129
 30
0.0
 40
0.0237702630838886
 50
130.7452817690046913
 51
193.6540796462597029
  0
ARC
  5
159B1
  8
0
 10
8646.1470511217521562
 20
2179.7350909530050558
 30
0.0
 40
0.3318735853131103
 50
189.5038356088678881
 51
204.5796426501320866
  0
ARC
  5
159B2
  8
0
 10
8646.0342439503365313
 20
2179.7012065726589753
 30
0.0
 40
0.2119393138899498
 50
193.6929229469272968
 51
200.2091598597901907
  0
ARC
  5
159B3
  8
0
 10
8645.9025431593654503
 20
2179.6527262099771178
 30
0.0
 40
0.0715988567573142
 50
200.2091598597901907
 51
207.8120349053328084
  0
ARC
  5
159B4
  8
0
 10
8645.8429077497257822
 20
2179.6212680151270433
 30
0.0
 40
0.004174824644997
 50
207.8120349053328084
 51
225.1348279871326952
  0
ARC
  5
159B5
  8
0
 10
8645.8409393177917082
 20
2179.6192902971238254
 30
0.0
 40
0.0013844675382359
 50
225.1348279871326952
 51
248.6433555108700943
  0
ARC
  5
159B6
  8
0
 10
8645.840507018223434
 20
2179.6181847368420677
 30
0.0
 40
0.0001973927921699
 50
248.643355510095688
 51
314.2818176667148009
  0
ARC
  5
159B7
  8
0
 10
8645.8400049748615857
 20
2179.6186995265138648
 30
0.0
 40
0.0009164588144608
 50
314.2818176666402223
 51
332.0246219457459915
  0
ARC
  5
159B8
  8
0
 10
8645.839813202890582
 20
2179.6188013877940648
 30
0.0
 40
0.0011336044077365
 50
332.0246219457459915
 51
1.7993977817771329
  0
ARC
  5
159B9
  8
0
 10
8645.8297747774722666
 20
2179.6196637977359387
 30
0.0
 40
0.0112020258349954
 50
355.7671853548077934
 51
6.3447544725290781
  0
ARC
  5
159BA
  8
0
 10
8645.6989911477303394
 20
2179.5987693854549434
 30
0.0
 40
0.1436324758226219
 50
8.8640341633517732
 51
17.7693308111328214
  0
ARC
  5
159BB
  8
0
 10
8645.5637956839655089
 20
2179.5554426840049018
 30
0.0
 40
0.2856008401898816
 50
17.7693308111328214
 51
20.6625214307216893
  0
ARC
  5
159BC
  8
0
 10
8645.7929321240499121
 20
2179.6418548870801715
 30
0.0
 40
0.0407119326934069
 50
20.6625214307216893
 51
30.6680556762504501
  0
ARC
  5
159BD
  8
0
 10
8645.8251841627770773
 20
2179.6609804334038927
 30
0.0
 40
0.0032155258766048
 50
30.6680556762504501
 51
49.8993617369810991
  0
ARC
  5
159BE
  8
0
 10
8645.8268046033063001
 20
2179.6629047248911775
 30
0.0
 40
0.0006998300998057
 50
49.8993617372244529
 51
79.4458113478345354
  0
ARC
  5
159BF
  8
0
 10
8645.8268980897701113
 20
2179.6634064838531231
 30
0.0
 40
0.0001894363556683
 50
79.4458113469862468
 51
113.7898867733964039
  0
ARC
  5
159C0
  8
0
 10
8645.8269849468215398
 20
2179.6632094583737853
 30
0.0
 40
0.00040475747959
 50
113.7898867732905046
 51
150.3089948728425043
  0
ARC
  5
159C1
  8
0
 10
8645.8275289706907643
 20
2179.6628992658220341
 30
0.0
 40
0.0010310013524281
 50
150.308994872722991
 51
168.9514035479151062
  0
ARC
  5
159C2
  8
0
 10
8645.8332849522521428
 20
2179.6617753490081668
 30
0.0
 40
0.0068956848708931
 50
168.9514035478894982
 51
192.0893708936056044
  0
ARC
  5
159C3
  8
0
 10
8645.607692598916401
 20
2179.6134563109658302
 30
0.0
 40
0.2238133078483499
 50
9.6662953570385781
 51
12.0893708936055901
  0
ARC
  5
159C4
  8
0
 10
8645.6771695311126678
 20
2180.4067869698201321
 30
0.0
 40
0.0215335113560041
 50
202.4986713581945992
 51
281.9348864906946233
  0
ARC
  5
159C5
  8
0
 10
8645.6535041079641815
 20
2180.5187495407658389
 30
0.0
 40
0.1359698235369399
 50
281.9348864906946233
 51
287.9134225021321072
  0
ARC
  5
159C6
  8
0
 10
8645.779147727009331
 20
2180.130060760905053
 30
0.0
 40
0.2725216532378107
 50
101.9148952024198991
 51
107.913422502132093
  0
ARC
  5
159C7
  8
0
 10
8645.72726495137249
 20
2180.3759453525508434
 30
0.0
 40
0.0212229170352953
 50
78.4464801698965317
 51
101.9148952024198991
  0
ARC
  5
159C8
  8
0
 10
8645.7284722297936241
 20
2180.3818510732958202
 30
0.0
 40
0.0151950601435002
 50
48.6450128681981226
 51
78.4464801698965317
  0
ARC
  5
159C9
  8
0
 10
8645.8111386329310335
 20
2180.4298042741288555
 30
0.0
 40
0.0813040147055157
 50
206.7125339520449927
 51
209.8168333878475096
  0
ARC
  5
159CA
  8
0
 10
8645.7612621304033382
 20
2180.400402271493931
 30
0.0
 40
0.0234214233577073
 50
208.0804049873289046
 51
224.0130300209451946
  0
ARC
  5
159CB
  8
0
 10
8645.7464082116093778
 20
2180.3860514791908827
 30
0.0
 40
0.0027675098481934
 50
224.0130300207977996
 51
256.2973818158059771
  0
ARC
  5
159CC
  8
0
 10
8645.7459786019371677
 20
2180.3842894994068047
 30
0.0
 40
0.0009539119800793
 50
256.2973818157046821
 51
303.6615143978440869
  0
ARC
  5
159CD
  8
0
 10
8645.7456396077141108
 20
2180.3847985401980623
 30
0.0
 40
0.0015654997583964
 50
303.6615143978007723
 51
337.6987933964363151
  0
ARC
  5
159CE
  8
0
 10
8645.739932625894653
 20
2180.3871392844221191
 30
0.0
 40
0.0077338646152117
 50
337.6987933964363151
 51
348.5956687841643884
  0
ARC
  5
159CF
  8
0
 10
8645.7300155161392468
 20
2180.3891397046759266
 30
0.0
 40
0.017850719219349
 50
348.5956687841643884
 51
8.9603173761222177
  0
ARC
  5
159D0
  8
0
 10
8645.5084924871189287
 20
2180.3675838706149079
 30
0.0
 40
0.2403909164066646
 50
5.8103193965319111
 51
15.4156739722559895
  0
ARC
  5
159D1
  8
0
 10
8644.1540197588292358
 20
2179.9941012479539495
 30
0.0
 40
1.645412496705873
 50
15.4156739722559895
 51
17.5389757981136611
  0
ARC
  5
159D2
  8
0
 10
8645.4276497038517846
 20
2180.3966279571609448
 30
0.0
 40
0.3096876041943233
 50
17.5389757981136611
 51
21.846147018125631
  0
ARC
  5
159D3
  8
0
 10
8645.680005725898809
 20
2180.5359621412208071
 30
0.0
 40
0.0176408751323569
 50
284.0803104444531755
 51
305.8749841044196955
  0
ARC
  5
159D4
  8
0
 10
8645.9038591475382418
 20
2179.6179099866508295
 30
0.0
 40
0.9273093078301219
 50
103.6961525825925037
 51
106.1539096124027992
  0
ARC
  5
159D5
  8
0
 10
8645.6517317555026239
 20
2180.4883511134707987
 30
0.0
 40
0.0210885968149355
 50
106.1539096124027992
 51
125.9848280740673943
  0
ARC
  5
159D6
  8
0
 10
8645.6548554956007138
 20
2180.4874066317638608
 30
0.0
 40
0.0237702630838886
 50
130.7452817690046913
 51
193.6540796462597029
  0
ARC
  5
159D7
  8
0
 10
8645.9599610122750164
 20
2180.5368010440538455
 30
0.0
 40
0.3327814327725844
 50
189.5141101220274038
 51
204.5164001374774045
  0
ARC
  5
159D8
  8
0
 10
8645.8462683125671902
 20
2180.5027079099518232
 30
0.0
 40
0.2119393138899498
 50
193.6929229469272968
 51
200.2091598597901907
  0
ARC
  5
159D9
  8
0
 10
8645.7145675215961091
 20
2180.4542275472699657
 30
0.0
 40
0.0715988567573142
 50
200.2091598597901907
 51
207.8120349053328084
  0
ARC
  5
159DA
  8
0
 10
8645.6549321119564411
 20
2180.4227693524198912
 30
0.0
 40
0.004174824644997
 50
207.8120349053328084
 51
225.1348279871326952
  0
ARC
  5
159DB
  8
0
 10
8645.6529636800187291
 20
2180.4207916344171281
 30
0.0
 40
0.0013844675382359
 50
225.1348279871326952
 51
248.6433555108700943
  0
ARC
  5
159DC
  8
0
 10
8645.6525313804522739
 20
2180.4196860741349155
 30
0.0
 40
0.0001973927921699
 50
248.643355510095688
 51
314.2818176667148009
  0
ARC
  5
159DD
  8
0
 10
8645.6520293370904255
 20
2180.420200863808077
 30
0.0
 40
0.0009164588144608
 50
314.2818176666402223
 51
332.0246219457459915
  0
ARC
  5
159DE
  8
0
 10
8645.6518375651212409
 20
2180.4203027250869127
 30
0.0
 40
0.0011336044077365
 50
332.0246219457459915
 51
1.7993977817771329
  0
ARC
  5
159DF
  8
0
 10
8645.6417991397011065
 20
2180.4211651350301509
 30
0.0
 40
0.0112020258349954
 50
355.7671853548077934
 51
6.3447544725290781
  0
ARC
  5
159E0
  8
0
 10
8645.5110155099628173
 20
2180.4002707227477913
 30
0.0
 40
0.1436324758226219
 50
8.8640341633517732
 51
17.7693308111328214
  0
ARC
  5
159E1
  8
0
 10
8645.3758200461943488
 20
2180.356944021299114
 30
0.0
 40
0.2856008401898816
 50
17.7693308111328214
 51
20.6625214307216893
  0
ARC
  5
159E2
  8
0
 10
8645.604956486280571
 20
2180.4433562243730194
 30
0.0
 40
0.0407119326934069
 50
20.6625214307216893
 51
30.6680556762504501
  0
ARC
  5
159E3
  8
0
 10
8645.6372085250077362
 20
2180.4624817706981048
 30
0.0
 40
0.0032155258766048
 50
30.6680556762504501
 51
49.8993617369810991
  0
ARC
  5
159E4
  8
0
 10
8645.638828965538778
 20
2180.4644060621849349
 30
0.0
 40
0.0006998300998057
 50
49.8993617372244529
 51
79.4458113478345354
  0
ARC
  5
159E5
  8
0
 10
8645.6389224520007701
 20
2180.4649078211450615
 30
0.0
 40
0.0001894363556683
 50
79.4458113469862468
 51
113.7898867733964039
  0
ARC
  5
159E6
  8
0
 10
8645.6390093090521987
 20
2180.4647107956679974
 30
0.0
 40
0.00040475747959
 50
113.7898867732905046
 51
150.3089948728425043
  0
ARC
  5
159E7
  8
0
 10
8645.6395533329196041
 20
2180.464400603114882
 30
0.0
 40
0.0010310013524281
 50
150.308994872722991
 51
168.9514035479151062
  0
ARC
  5
159E8
  8
0
 10
8645.6453093144828017
 20
2180.4632766863010147
 30
0.0
 40
0.0068956848708931
 50
168.9514035478894982
 51
192.0893708936056044
  0
ARC
  5
159E9
  8
0
 10
8645.4197169611488789
 20
2180.4149576482591328
 30
0.0
 40
0.2238133078483499
 50
9.6662953570385781
 51
12.0893708936055901
  0
ARC
  5
159EA
  8
0
 10
8645.7089441065036226
 20
2180.5326152492539222
 30
0.0
 40
0.0215829930790309
 50
202.1196672578973903
 51
281.8874488766874151
  0
ARC
  5
159EB
  8
0
 10
8645.685271431446381
 20
2180.6445257199420666
 30
0.0
 40
0.1359698235369399
 50
281.9348864906946233
 51
287.9134225021321072
  0
ARC
  5
159EC
  8
0
 10
8645.8109150504933496
 20
2180.2558369400799165
 30
0.0
 40
0.2725216532378107
 50
101.9148952024198991
 51
107.913422502132093
  0
ARC
  5
159ED
  8
0
 10
8645.7590322748546896
 20
2180.5017215317261616
 30
0.0
 40
0.0212229170352953
 50
78.4464801698965317
 51
101.9148952024198991
  0
ARC
  5
159EE
  8
0
 10
8645.7602395532740047
 20
2180.5076272524711385
 30
0.0
 40
0.0151950601435002
 50
48.6450128681981226
 51
78.4464801698965317
  0
ARC
  5
159EF
  8
0
 10
8645.8429059564114141
 20
2180.5555804533041737
 30
0.0
 40
0.0813040147055157
 50
206.7125339520449927
 51
209.8168333878475096
  0
ARC
  5
159F0
  8
0
 10
8645.7930294538855378
 20
2180.5261784506687945
 30
0.0
 40
0.0234214233577073
 50
208.0804049873289046
 51
224.0130300209451946
  0
ARC
  5
159F1
  8
0
 10
8645.7781755350915773
 20
2180.5118276583662009
 30
0.0
 40
0.0027675098481934
 50
224.0130300207977996
 51
256.2973818158059771
  0
ARC
  5
159F2
  8
0
 10
8645.7777459254193673
 20
2180.5100656785821229
 30
0.0
 40
0.0009539119800793
 50
256.2973818157046821
 51
303.6615143978440869
  0
ARC
  5
159F3
  8
0
 10
8645.7774069311944913
 20
2180.5105747193729258
 30
0.0
 40
0.0015654997583964
 50
303.6615143978007723
 51
337.6987933964363151
  0
ARC
  5
159F4
  8
0
 10
8645.7716999493768526
 20
2180.5129154635978921
 30
0.0
 40
0.0077338646152117
 50
337.6987933964363151
 51
348.5956687841643884
  0
ARC
  5
159F5
  8
0
 10
8645.7617828396196273
 20
2180.5149158838507901
 30
0.0
 40
0.017850719219349
 50
348.5956687841643884
 51
8.9603173761222177
  0
ARC
  5
159F6
  8
0
 10
8645.5402598105993093
 20
2180.4933600497911357
 30
0.0
 40
0.2403909164066646
 50
5.8103193965319111
 51
15.4156739722559895
  0
ARC
  5
159F7
  8
0
 10
8644.1857870823114354
 20
2180.119877427128813
 30
0.0
 40
1.645412496705873
 50
15.4156739722559895
 51
17.5389757981136611
  0
ARC
  5
159F8
  8
0
 10
8645.4594170273303462
 20
2180.5224041363358083
 30
0.0
 40
0.3096876041943233
 50
17.5389757981136611
 51
25.29510125122167
  0
ARC
  5
159F9
  8
0
 10
8645.7382481412751076
 20
2180.6650242926821193
 30
0.0
 40
0.0098600745430829
 50
180.6969537161810138
 51
181.1748792558090884
  0
ARC
  5
159FA
  8
0
 10
8645.7801733642281761
 20
2180.6640904553141809
 30
0.0
 40
0.0517883933471597
 50
179.1904991324531977
 51
188.0158503274957127
  0
ARC
  5
159FB
  8
0
 10
8645.715255339133364
 20
2180.6605992733780113
 30
0.0
 40
0.0141367401151395
 50
322.8588945791007063
 51
344.6989424358516203
  0
ARC
  5
159FC
  8
0
 10
8645.7117730493773706
 20
2180.6617383203961253
 30
0.0
 40
0.0176408751323569
 50
284.0803104444531755
 51
326.7416258388734036
  0
ARC
  5
159FD
  8
0
 10
8645.9356264710204414
 20
2179.7436861658261478
 30
0.0
 40
0.9273093078301219
 50
103.6961525825925037
 51
106.1539096124027992
  0
ARC
  5
159FE
  8
0
 10
8645.6834990789848234
 20
2180.614127292646117
 30
0.0
 40
0.0210885968149355
 50
106.1539096124027992
 51
125.9848280740673943
  0
ARC
  5
159FF
  8
0
 10
8645.6866228190810943
 20
2180.6131828109400885
 30
0.0
 40
0.0237702630838886
 50
130.7452817690046913
 51
193.6540796462597029
  0
ARC
  5
15A00
  8
0
 10
8645.991728335755397
 20
2180.6625772232291638
 30
0.0
 40
0.3327814327725844
 50
189.5141101220274038
 51
204.5164001374774045
  0
ARC
  5
15A01
  8
0
 10
8645.8780356360493897
 20
2180.628484089128051
 30
0.0
 40
0.2119393138899498
 50
193.6929229469272968
 51
200.2091598597901907
  0
ARC
  5
15A02
  8
0
 10
8645.7463348450783087
 20
2180.5800037264461935
 30
0.0
 40
0.0715988567573142
 50
200.2091598597901907
 51
207.8120349053328084
  0
ARC
  5
15A03
  8
0
 10
8645.6866994354368217
 20
2180.5485455315952095
 30
0.0
 40
0.004174824644997
 50
207.8120349053328084
 51
225.1348279871326952
  0
ARC
  5
15A04
  8
0
 10
8645.6847310035027476
 20
2180.5465678135929011
 30
0.0
 40
0.0013844675382359
 50
225.1348279871326952
 51
248.6433555108700943
  0
ARC
  5
15A05
  8
0
 10
8645.6842987039344735
 20
2180.5454622533111433
 30
0.0
 40
0.0001973927921699
 50
248.643355510095688
 51
314.2818176667148009
  0
ARC
  5
15A06
  8
0
 10
8645.6837966605726251
 20
2180.5459770429829405
 30
0.0
 40
0.0009164588144608
 50
314.2818176666402223
 51
332.0246219457459915
  0
ARC
  5
15A07
  8
0
 10
8645.6836048886034405
 20
2180.5460789042617762
 30
0.0
 40
0.0011336044077365
 50
332.0246219457459915
 51
1.7993977817771329
  0
ARC
  5
15A08
  8
0
 10
8645.673566463183306
 20
2180.5469413142050144
 30
0.0
 40
0.0112020258349954
 50
355.7671853548077934
 51
6.3447544725290781
  0
ARC
  5
15A09
  8
0
 10
8645.5427828334431979
 20
2180.526046901924019
 30
0.0
 40
0.1436324758226219
 50
8.8640341633517732
 51
17.7693308111328214
  0
ARC
  5
15A0A
  8
0
 10
8645.4075873696783674
 20
2180.4827202004739775
 30
0.0
 40
0.2856008401898816
 50
17.7693308111328214
 51
20.6625214307216893
  0
ARC
  5
15A0B
  8
0
 10
8645.6367238097627705
 20
2180.5691324035478829
 30
0.0
 40
0.0407119326934069
 50
20.6625214307216893
 51
30.6680556762504501
  0
ARC
  5
15A0C
  8
0
 10
8645.6689758484881168
 20
2180.5882579498729683
 30
0.0
 40
0.0032155258766048
 50
30.6680556762504501
 51
49.8993617369810991
  0
ARC
  5
15A0D
  8
0
 10
8645.6705962890191586
 20
2180.5901822413597984
 30
0.0
 40
0.0006998300998057
 50
49.8993617372244529
 51
79.4458113478345354
  0
ARC
  5
15A0E
  8
0
 10
8645.6706897754829697
 20
2180.5906840003208345
 30
0.0
 40
0.0001894363556683
 50
79.4458113469862468
 51
113.7898867733964039
  0
ARC
  5
15A0F
  8
0
 10
8645.6707766325343982
 20
2180.5904869748428609
 30
0.0
 40
0.00040475747959
 50
113.7898867732905046
 51
150.3089948728425043
  0
ARC
  5
15A10
  8
0
 10
8645.6713206564018037
 20
2180.5901767822902002
 30
0.0
 40
0.0010310013524281
 50
150.308994872722991
 51
168.9514035479151062
  0
ARC
  5
15A11
  8
0
 10
8645.6770766379631823
 20
2180.5890528654758782
 30
0.0
 40
0.0068956848708931
 50
168.9514035478894982
 51
192.0893708936056044
  0
ARC
  5
15A12
  8
0
 10
8645.4514842846274405
 20
2180.5407338274339963
 30
0.0
 40
0.2238133078483499
 50
9.6662953570385781
 51
12.0893708936055901
  0
ARC
  5
15A13
  8
0
 10
8645.5985187054939161
 20
2180.9820085205769828
 30
0.0
 40
0.0215335113560041
 50
202.4986713581945992
 51
281.9348864906946233
  0
ARC
  5
15A14
  8
0
 10
8645.5748532823454298
 20
2181.0939710915231444
 30
0.0
 40
0.1359698235369399
 50
281.9348864906946233
 51
287.9134225021321072
  0
ARC
  5
15A15
  8
0
 10
8645.7004969013923983
 20
2180.7052823116609943
 30
0.0
 40
0.2725216532378107
 50
101.9148952024198991
 51
107.913422502132093
  0
ARC
  5
15A16
  8
0
 10
8645.6486141257537383
 20
2180.9511669033067847
 30
0.0
 40
0.0212229170352953
 50
78.4464801698965317
 51
101.9148952024198991
  0
ARC
  5
15A17
  8
0
 10
8645.6498214041748724
 20
2180.9570726240531258
 30
0.0
 40
0.0151950601435002
 50
48.6450128681981226
 51
78.4464801698965317
  0
ARC
  5
15A18
  8
0
 10
8645.7324878073122818
 20
2181.005025824886161
 30
0.0
 40
0.0813040147055157
 50
206.7125339520449927
 51
209.8168333878475096
  0
ARC
  5
15A19
  8
0
 10
8645.6826113047845865
 20
2180.9756238222498723
 30
0.0
 40
0.0234214233577073
 50
208.0804049873289046
 51
224.0130300209451946
  0
ARC
  5
15A1A
  8
0
 10
8645.6677573859906261
 20
2180.961273029946824
 30
0.0
 40
0.0027675098481934
 50
224.0130300207977996
 51
256.2973818158059771
  0
ARC
  5
15A1B
  8
0
 10
8645.667327776320235
 20
2180.9595110501641102
 30
0.0
 40
0.0009539119800793
 50
256.2973818157046821
 51
303.6615143978440869
  0
ARC
  5
15A1C
  8
0
 10
8645.6669887820935401
 20
2180.960020090954913
 30
0.0
 40
0.0015654997583964
 50
303.6615143978007723
 51
337.6987933964363151
  0
ARC
  5
15A1D
  8
0
 10
8645.6612818002777203
 20
2180.9623608351789699
 30
0.0
 40
0.0077338646152117
 50
337.6987933964363151
 51
348.5956687841643884
  0
ARC
  5
15A1E
  8
0
 10
8645.6513646905204951
 20
2180.9643612554327774
 30
0.0
 40
0.017850719219349
 50
348.5956687841643884
 51
8.9603173761222177
  0
ARC
  5
15A1F
  8
0
 10
8645.429841661500177
 20
2180.9428054213722135
 30
0.0
 40
0.2403909164066646
 50
5.8103193965319111
 51
15.4156739722559895
  0
ARC
  5
15A20
  8
0
 10
8644.0753689332123031
 20
2180.5693227987108003
 30
0.0
 40
1.645412496705873
 50
15.4156739722559895
 51
16.4502127781541816
  0
ARC
  5
15A21
  8
0
 10
8645.6076865962804732
 20
2181.1043597554121334
 30
0.0
 40
0.0190360926541636
 50
35.9800413843607814
 51
44.4458794762940883
  0
ARC
  5
15A22
  8
0
 10
8645.6190257095968263
 20
2181.1154816365660736
 30
0.0
 40
0.0031530283646569
 50
44.4458794762940883
 51
82.9275573520255875
  0
ARC
  5
15A23
  8
0
 10
8645.6198201625375077
 20
2181.1173114793809873
 30
0.0
 40
0.0013612265490732
 50
107.3636849546943068
 51
161.4372535404419864
  0
ARC
  5
15A24
  8
0
 10
8645.6278299921741564
 20
2181.114469664263197
 30
0.0
 40
0.0098600745430829
 50
160.5998857253646008
 51
181.1748792558090884
  0
ARC
  5
15A25
  8
0
 10
8645.6697552151290438
 20
2181.1135358268961681
 30
0.0
 40
0.0517883933471597
 50
179.1904991324531977
 51
188.0158503274957127
  0
ARC
  5
15A26
  8
0
 10
8645.6048371900324128
 20
2181.1100446449590891
 30
0.0
 40
0.0141367401151395
 50
322.8588945791007063
 51
344.6989424358516203
  0
ARC
  5
15A27
  8
0
 10
8645.6013549002782383
 20
2181.1111836919781126
 30
0.0
 40
0.0176408751323569
 50
284.0803104444531755
 51
326.7416258388734036
  0
ARC
  5
15A28
  8
0
 10
8645.8252083219194901
 20
2180.1931315374072256
 30
0.0
 40
0.9273093078301219
 50
103.6961525825925037
 51
106.1539096124027992
  0
ARC
  5
15A29
  8
0
 10
8645.5730809298856911
 20
2181.0635726642271948
 30
0.0
 40
0.0210885968149355
 50
106.1539096124027992
 51
125.9848280740673943
  0
ARC
  5
15A2A
  8
0
 10
8645.5762046699819621
 20
2181.0626281825211663
 30
0.0
 40
0.0237702630838886
 50
130.7452817690046913
 51
193.6540796462597029
  0
ARC
  5
15A2B
  8
0
 10
8645.8813101866562647
 20
2181.1120225948111511
 30
0.0
 40
0.3327814327725844
 50
189.5141101220274038
 51
204.5164001374774045
  0
ARC
  5
15A2C
  8
0
 10
8645.7676174869484385
 20
2181.0779294607091288
 30
0.0
 40
0.2119393138899498
 50
193.6929229469272968
 51
200.2091598597901907
  0
ARC
  5
15A2D
  8
0
 10
8645.6359166959773574
 20
2181.0294490980268165
 30
0.0
 40
0.0715988567573142
 50
200.2091598597901907
 51
207.8120349053328084
  0
ARC
  5
15A2E
  8
0
 10
8645.5762812863376894
 20
2180.9979909031771967
 30
0.0
 40
0.004174824644997
 50
207.8120349053328084
 51
225.1348279871326952
  0
ARC
  5
15A2F
  8
0
 10
8645.5743128544017964
 20
2180.9960131851739789
 30
0.0
 40
0.0013844675382359
 50
225.1348279871326952
 51
248.6433555108700943
  0
ARC
  5
15A30
  8
0
 10
8645.5738805548353412
 20
2180.9949076248922211
 30
0.0
 40
0.0001973927921699
 50
248.643355510095688
 51
314.2818176667148009
  0
ARC
  5
15A31
  8
0
 10
8645.5733785114716738
 20
2180.9954224145640183
 30
0.0
 40
0.0009164588144608
 50
314.2818176666402223
 51
332.0246219457459915
  0
ARC
  5
15A32
  8
0
 10
8645.5731867395024892
 20
2180.9955242758442182
 30
0.0
 40
0.0011336044077365
 50
332.0246219457459915
 51
1.7993977817771329
  0
ARC
  5
15A33
  8
0
 10
8645.5631483140841738
 20
2180.9963866857860921
 30
0.0
 40
0.0112020258349954
 50
355.7671853548077934
 51
6.3447544725290781
  0
ARC
  5
15A34
  8
0
 10
8645.4323646843422466
 20
2180.9754922735050968
 30
0.0
 40
0.1436324758226219
 50
8.8640341633517732
 51
17.7693308111328214
  0
ARC
  5
15A35
  8
0
 10
8645.2971692205774161
 20
2180.9321655720550552
 30
0.0
 40
0.2856008401898816
 50
17.7693308111328214
 51
20.6625214307216893
  0
ARC
  5
15A36
  8
0
 10
8645.5263056606636383
 20
2181.0185777751289606
 30
0.0
 40
0.0407119326934069
 50
20.6625214307216893
 51
30.6680556762504501
  0
ARC
  5
15A37
  8
0
 10
8645.5585576993908035
 20
2181.0377033214549556
 30
0.0
 40
0.0032155258766048
 50
30.6680556762504501
 51
49.8993617369810991
  0
ARC
  5
15A38
  8
0
 10
8645.5601781399200263
 20
2181.0396276129408761
 30
0.0
 40
0.0006998300998057
 50
49.8993617372244529
 51
79.4458113478345354
  0
ARC
  5
15A39
  8
0
 10
8645.5602716263838374
 20
2181.0401293719019122
 30
0.0
 40
0.0001894363556683
 50
79.4458113469862468
 51
113.7898867733964039
  0
ARC
  5
15A3A
  8
0
 10
8645.560358483433447
 20
2181.0399323464248482
 30
0.0
 40
0.00040475747959
 50
113.7898867732905046
 51
150.3089948728425043
  0
ARC
  5
15A3B
  8
0
 10
8645.5609025073026714
 20
2181.0396221538708232
 30
0.0
 40
0.0010310013524281
 50
150.308994872722991
 51
168.9514035479151062
  0
ARC
  5
15A3C
  8
0
 10
8645.566658488865869
 20
2181.038498237056956
 30
0.0
 40
0.0068956848708931
 50
168.9514035478894982
 51
192.0893708936056044
  0
ARC
  5
15A3D
  8
0
 10
8645.3410661355264892
 20
2180.9901791990159836
 30
0.0
 40
0.2238133078483499
 50
9.6662953570385781
 51
12.0893708936055901
  0
LINE
  5
15A3E
  8
0
 10
8645.8736454958652757
 20
2179.5851378048241713
 30
0.0
 11
8645.8988085480214068
 21
2179.4477867050400164
 31
0.0
  0
ARC
  5
15A3F
  8
0
 10
8651.1775710883612192
 20
2180.9762895210269562
 30
0.0
 40
5.5072101310505159
 50
194.5317857206335077
 51
196.1552197747074899
  0
LINE
  5
15A40
  8
0
 10
8645.8203962987699924
 20
2179.6937604586028101
 30
0.0
 11
8645.8026210598272883
 21
2179.7656102201231079
 31
0.0
  0
LINE
  5
15A41
  8
0
 10
8645.8632425911855535
 20
2179.7151011224400463
 30
0.0
 11
8645.8163491363902722
 21
2179.9355111644567842
 31
0.0
  0
LINE
  5
15A42
  8
0
 10
8645.6794344105073833
 20
2180.3853728989179217
 30
0.0
 11
8645.7389953518504626
 21
2180.1657068420008727
 31
0.0
  0
LINE
  5
15A43
  8
0
 10
8645.7207509359068354
 20
2180.1031191360189041
 30
0.0
 11
8645.696065705626097
 21
2180.2228721992228202
 31
0.0
  0
ARC
  5
15A44
  8
0
 10
8645.6777931007982261
 20
2180.2298376948569967
 30
0.0
 40
0.0078740157729602
 50
182.9241547657804858
 51
272.9241539730120962
  0
ARC
  5
15A45
  8
0
 10
8646.2387762463968102
 20
2169.2474969891550245
 30
0.0
 40
10.98878499802648
 50
92.8308569372698571
 51
92.9241539730120678
  0
ARC
  5
15A46
  8
0
 10
8645.6560589964228711
 20
2181.0319381956410325
 30
0.0
 40
0.8100545187456372
 50
272.8308569372698003
 51
273.0174521505817893
  0
ARC
  5
15A47
  8
0
 10
8645.699740680083778
 20
2180.2032715897648814
 30
0.0
 40
0.0197625895257508
 50
74.922143622679954
 51
93.0174521506858696
  0
ARC
  5
15A48
  8
0
 10
8645.6997418166138232
 20
2180.203275808422859
 30
0.0
 40
0.0197582204555262
 50
32.4232682802057965
 51
74.922143622679954
  0
ARC
  5
15A49
  8
0
 10
8645.7217202224437642
 20
2180.217236252442035
 30
0.0
 40
0.0062791434649964
 50
212.4232682802058036
 51
222.2097297283081048
  0
LINE
  5
15A4A
  8
0
 10
8645.7025729026427143
 20
2180.3000360789278602
 30
0.0
 11
8645.7270087958459044
 21
2180.1533533954930135
 31
0.0
  0
LINE
  5
15A4B
  8
0
 10
8645.6699293374258559
 20
2180.2294360100340782
 30
0.0
 11
8645.662982695743267
 21
2180.3905874076799591
 31
0.0
  0
LINE
  5
15A4C
  8
0
 10
8645.6382369837447186
 20
2180.5044022332781424
 30
0.0
 11
8645.6120195558651176
 21
2180.6463289700950554
 31
0.0
  0
LINE
  5
15A4D
  8
0
 10
8645.6107073393286555
 20
2180.7778233305130016
 30
0.0
 11
8645.5976100924272032
 21
2180.8612612846741285
 31
0.0
  0
ARC
  5
15A4E
  8
0
 10
8645.5483414715654362
 20
2181.1353539729711883
 30
0.0
 40
0.0221059713855082
 50
321.7702352408225011
 51
346.1964066593063762
  0
ARC
  5
15A4F
  8
0
 10
8645.5442234552083391
 20
2181.1385979977421812
 30
0.0
 40
0.0273482757861264
 50
310.2861155375716748
 51
321.7702352408225011
  0
ARC
  5
15A50
  8
0
 10
8645.5425101782948332
 20
2181.1406192172680676
 30
0.0
 40
0.0299979259820089
 50
289.7407460364921121
 51
310.2861155375716748
  0
ARC
  5
15A51
  8
0
 10
8645.5770134573831456
 20
2181.0444708003560663
 30
0.0
 40
0.0721538940826401
 50
109.7407460364920979
 51
139.0266070763339883
  0
ARC
  5
15A52
  8
0
 10
8645.5855630726873642
 20
2181.0370457008048106
 30
0.0
 40
0.0834776754830336
 50
139.0266070763339883
 51
164.6508982089005997
  0
ARC
  5
15A53
  8
0
 10
8645.5458519078456447
 20
2181.0479460337010096
 30
0.0
 40
0.0422976576313457
 50
164.6508982089005997
 51
175.1251910794904063
  0
ARC
  5
15A54
  8
0
 10
8645.6499452209682204
 20
2181.039068189857062
 30
0.0
 40
0.1467688687281901
 50
175.1251910794904063
 51
189.8218896349814031
  0
ARC
  5
15A55
  8
0
 10
8642.5363284382583515
 20
2180.5000280682997982
 30
0.0
 40
3.0131636815338898
 50
8.509235679055811
 51
9.8218896349813907
  0
ARC
  5
15A56
  8
0
 10
8645.6546359910771571
 20
2180.9665761433188891
 30
0.0
 40
0.1398521922397648
 50
188.5092356790557915
 51
214.9693948042769023
  0
ARC
  5
15A57
  8
0
 10
8645.5760788564293762
 20
2180.9116323579401069
 30
0.0
 40
0.0439874805037179
 50
214.969394804255586
 51
255.3100876763780036
  0
ARC
  5
15A58
  8
0
 10
8645.7512588912704814
 20
2181.5798582317061118
 30
0.0
 40
0.7347941560487562
 50
255.3100876763780036
 51
257.6277547383448905
  0
ARC
  5
15A59
  8
0
 10
8645.5480200790079834
 20
2180.6533353071849888
 30
0.0
 40
0.2137577637079056
 50
76.5856438772572687
 51
77.6277547383449189
  0
ARC
  5
15A5A
  8
0
 10
8645.5930124704209447
 20
2180.8419839144157777
 30
0.0
 40
0.0198180506645553
 50
41.6840225563321027
 51
76.5856438772572687
  0
ARC
  5
15A5B
  8
0
 10
8645.5919567156088306
 20
2180.8410437991728941
 30
0.0
 40
0.0212317107697192
 50
15.4402326676647004
 51
41.6840225563321027
  0
ARC
  5
15A5C
  8
0
 10
8645.6342842553531227
 20
2180.8527347293661478
 30
0.0
 40
0.0226806846278874
 50
195.4402326676647021
 51
208.4772331517494877
  0
ARC
  5
15A5D
  8
0
 10
8645.6172133491345448
 20
2180.8434747645810603
 30
0.0
 40
0.0032600052645826
 50
208.4772331517266934
 51
229.3095805667169031
  0
ARC
  5
15A5E
  8
0
 10
8645.6154707856312598
 20
2180.841448162253073
 30
0.0
 40
0.0005872455369156
 50
229.3095805671069058
 51
323.6298303969596759
  0
ARC
  5
15A5F
  8
0
 10
8645.6139669890435471
 20
2180.8425556486740788
 30
0.0
 40
0.0024548456943304
 50
323.6298303970215215
 51
348.4405097250245262
  0
ARC
  5
15A60
  8
0
 10
8645.6022516139564686
 20
2180.844951838948873
 30
0.0
 40
0.0144127611191674
 50
348.4405097250245262
 51
355.1029760140411895
  0
ARC
  5
15A61
  8
0
 10
8645.471644352446674
 20
2180.8561419973239026
 30
0.0
 40
0.1454985208459332
 50
355.1029760140411895
 51
357.4768564644560911
  0
ARC
  5
15A62
  8
0
 10
8645.3521680379035388
 20
2180.8614067989001342
 30
0.0
 40
0.2650907775866643
 50
357.4768564644560911
 51
11.6776042689699704
  0
ARC
  5
15A63
  8
0
 10
8645.9073600470364909
 20
2180.9761552351269529
 30
0.0
 40
0.3018354703680939
 50
182.7663515670658967
 51
191.6776042689699011
  0
ARC
  5
15A64
  8
0
 10
8645.6200832340637135
 20
2181.1322494294381613
 30
0.0
 40
0.0503140520841852
 50
171.8482098206719968
 51
182.1482420500699959
  0
ARC
  5
15A65
  8
0
 10
8645.5732571651624312
 20
2181.1389569553512047
 30
0.0
 40
0.0030100180865113
 50
140.4337008336042913
 51
171.8482098206978037
  0
ARC
  5
15A66
  8
0
 10
8645.5711226364983304
 20
2181.1399508578178938
 30
0.0
 40
0.0009419096637375
 50
28.8646908812175589
 51
101.3803239060679999
  0
ARC
  5
15A67
  8
0
 10
8645.5609446117578045
 20
2181.1330457604890398
 30
0.0
 40
0.0132374743017135
 50
19.9409706693499089
 51
33.7783790587226065
  0
ARC
  5
15A68
  8
0
 10
8645.293903514446356
 20
2181.045910726261809
 30
0.0
 40
0.2941283451953546
 50
8.3769149618107352
 51
18.1555382930886893
  0
LINE
  5
15A69
  8
0
 10
8645.8235927036621433
 20
2179.7663693775630236
 30
0.0
 11
8645.8152436588843557
 21
2179.7662549886490524
 31
0.0
  0
LINE
  5
15A6A
  8
0
 10
8645.8152436588843557
 20
2179.7662549886490524
 30
0.0
 11
8645.7998673075435363
 21
2179.765469557266897
 31
0.0
  0
LINE
  5
15A6B
  8
0
 10
8645.8364538699242985
 20
2179.7079485821232083
 30
0.0
 11
8645.8235927036621433
 21
2179.7663693775630236
 31
0.0
  0
LINE
  5
15A6C
  8
0
 10
8645.8235927036621433
 20
2179.7663693775630236
 30
0.0
 11
8645.7806214155407361
 21
2179.9480881025679082
 31
0.0
  0
ARC
  5
15A6D
  8
0
 10
8645.9763176521519199
 20
2180.1260129080610568
 30
0.0
 40
0.2565864703223714
 50
185.1251356861239117
 51
196.160230803557198
  0
ARC
  5
15A6E
  8
0
 10
8644.6902939015581069
 20
2179.7533562520889063
 30
0.0
 40
1.0823422321603999
 50
13.0636991944700291
 51
16.1602308035571802
  0
ARC
  5
15A6F
  8
0
 10
8645.8047254009961762
 20
2180.011948391039823
 30
0.0
 40
0.0616977414709006
 50
193.0636991944699901
 51
221.9249400703988897
  0
ARC
  5
15A70
  8
0
 10
8646.0943036874923564
 20
2180.2719997427338967
 30
0.0
 40
0.4509049992752354
 50
221.9249400703988897
 51
225.9191576879478021
  0
ARC
  5
15A71
  8
0
 10
8645.826154196234711
 20
2180.0200762445037981
 30
0.0
 40
0.0851793795289805
 50
237.6864872266465909
 51
263.8628048743930776
  0
ARC
  5
15A72
  8
0
 10
8645.858223177761829
 20
2180.1883402823409597
 30
0.0
 40
0.2562845475852972
 50
260.7546128138113204
 51
264.1400181703738781
  0
ARC
  5
15A73
  8
0
 10
8645.8290257511671371
 20
2179.9125694990220836
 30
0.0
 40
0.0210449483851342
 50
54.0347577052079515
 51
81.7182167255674017
  0
ARC
  5
15A74
  8
0
 10
8645.9062584435596364
 20
2179.9585654998031714
 30
0.0
 40
0.0710447980532576
 50
204.058504099620194
 51
211.7089818529570096
  0
ARC
  5
15A75
  8
0
 10
8645.8620082439865655
 20
2179.9298724975551522
 30
0.0
 40
0.0183548727001364
 50
208.1111019176665025
 51
233.7209889772528868
  0
ARC
  5
15A76
  8
0
 10
8645.8528664172263234
 20
2179.9174178485432094
 30
0.0
 40
0.0029052358594549
 50
233.7209889772528868
 51
268.756931626156188
  0
ARC
  5
15A77
  8
0
 10
8645.8528724456082273
 20
2179.9176956663231977
 30
0.0
 40
0.0031831190360486
 50
268.756931626156188
 51
314.0392259952282075
  0
ARC
  5
15A78
  8
0
 10
8645.8515169270685874
 20
2179.919097425066866
 30
0.0
 40
0.0051330826479962
 50
314.0392259952282075
 51
339.3753262349870852
  0
ARC
  5
15A79
  8
0
 10
8645.8270704915958049
 20
2179.9282982529439323
 30
0.0
 40
0.031253638558023
 50
339.3753262349870852
 51
8.1773349676684006
  0
ARC
  5
15A7A
  8
0
 10
8646.0462907896453544
 20
2179.9597998657100106
 30
0.0
 40
0.1902184605535219
 50
179.6374269181243051
 51
188.1773349676682869
  0
ARC
  5
15A7B
  8
0
 10
8645.7199333542903332
 20
2179.9618651138248424
 30
0.0
 40
0.1361455093636276
 50
359.6374269181242767
 51
17.3861992351941517
  0
ARC
  5
15A7C
  8
0
 10
8645.8367264854423411
 20
2180.0833024940138785
 30
0.0
 40
0.1139033314691973
 50
173.745746962768095
 51
178.6010223604600071
  0
ARC
  5
15A7D
  8
0
 10
8645.7240134649182437
 20
2180.0956550444211643
 30
0.0
 40
0.0005154551467281
 50
39.0693012261277985
 51
173.7457469626127136
  0
ARC
  5
15A7E
  8
0
 10
8645.7213258404626686
 20
2180.0919556750518495
 30
0.0
 40
0.0050723874087846
 50
30.5470223885404195
 51
52.5008274141826305
  0
ARC
  5
15A7F
  8
0
 10
8645.5231233560352848
 20
2180.0000029751831789
 30
0.0
 40
0.2235419887740116
 50
21.163259299653749
 51
25.016344511126519
  0
ARC
  5
15A80
  8
0
 10
8645.4416379091926501
 20
2179.9684569517771706
 30
0.0
 40
0.3109206454348141
 50
12.3603377086256803
 51
21.163259299653749
  0
ARC
  5
15A81
  8
0
 10
8650.3323551422272431
 20
2181.0402022176208447
 30
0.0
 40
4.6958500671470942
 50
192.3603377086257069
 51
192.6976543734309075
  0
ARC
  5
15A82
  8
0
 10
8645.6771342772663047
 20
2179.9913031432270145
 30
0.0
 40
0.0760751805732403
 50
0.6877016448440494
 51
12.6976543734308898
  0
ARC
  5
15A83
  8
0
 10
8645.7393517885739129
 20
2179.9920499545992243
 30
0.0
 40
0.0138531873507109
 50
352.1005515002287893
 51
0.6877016448440494
  0
ARC
  5
15A84
  8
0
 10
8645.7515157543457462
 20
2179.990147603306923
 30
0.0
 40
0.0015577665058979
 50
304.6137152015999163
 51
359.942560385429374
  0
ARC
  5
15A85
  8
0
 10
8645.752354801785259
 20
2179.9899030506221607
 30
0.0
 40
0.0010385014380142
 50
221.6655826372623892
 51
272.5291942447689166
  0
ARC
  5
15A86
  8
0
 10
8645.2684784464508994
 20
2179.6913349469668901
 30
0.0
 40
0.5675537745865487
 50
31.6578052896761299
 51
33.1201358550244223
  0
LINE
  5
15A87
  8
0
 10
8645.7499960117802402
 20
2179.9834649702688694
 30
0.0
 11
8645.7903976385532587
 21
2179.814373605867786
 31
0.0
  0
LINE
  5
15A88
  8
0
 10
8645.787337438272516
 20
2179.9196871134140565
 30
0.0
 11
8645.7916018594696652
 21
2179.7729316357072094
 31
0.0
  0
ARC
  5
15A89
  8
0
 10
8645.7994656227856467
 20
2179.7733333205428607
 30
0.0
 40
0.0078740157595027
 50
182.9241546679718908
 51
272.9241539752044901
  0
ARC
  5
15A8A
  8
0
 10
8662.5817537998118496
 20
2183.2434755341018899
 30
0.0
 40
17.1579939524132996
 50
182.8129203882874947
 51
183.9128585529709028
  0
ARC
  5
15A8B
  8
0
 10
8645.4561676827561314
 20
2182.4020234756430909
 30
0.0
 40
0.0117482578207707
 50
121.7377854897381013
 51
182.8128930823353926
  0
ARC
  5
15A8C
  8
0
 10
8644.9674781129142502
 20
2176.8989615290001893
 30
0.0
 40
1.716344537302273
 50
11.2092442097790297
 51
26.5186966591029005
  0
ARC
  5
15A8D
  8
0
 10
8645.6746708787304669
 20
2177.0786820436987909
 30
0.0
 40
0.9884685220558822
 50
2.6439553290666939
 51
8.9585489218281005
  0
ARC
  5
15A8E
  8
0
 10
8646.6844633058935869
 20
2177.1253127517370558
 30
0.0
 40
0.0224
 50
182.6439553290666993
 51
194.0642528558622928
  0
ARC
  5
15A8F
  8
0
 10
8640.1579969086669735
 20
2175.4903058288850843
 30
0.0
 40
6.705750657639709
 50
11.2052983559021602
 51
14.0642528558623798
  0
ARC
  5
15A90
  8
0
 10
8646.7475641248238389
 20
2176.7957085406637816
 30
0.0
 40
0.011873352095946
 50
191.2053126227091866
 51
277.4795751391523027
  0
LINE
  5
15A91
  8
0
 10
8649.4232223476828949
 20
2144.8635612030520861
 30
0.0
 11
8649.4232223476828949
 21
2147.1312777385519439
 31
0.0
  0
LINE
  5
15A93
  8
0
 10
8643.4980254972815601
 20
2147.0879706518521743
 30
0.0
 11
8646.4984343648411595
 21
2147.0879706518521743
 31
0.0
  0
LINE
  5
15A94
  8
0
 10
8647.088749191027091
 20
2147.0879706518521743
 30
0.0
 11
8649.3641672295834724
 21
2147.0879706518521743
 31
0.0
  0
LINE
  5
15A95
  8
0
 10
8626.5452995130817726
 20
2187.9659234078521877
 30
0.0
 11
8634.3385299524416041
 21
2187.9659234078521877
 31
0.0
  0
LINE
  5
15A96
  8
0
 10
8629.6949058122845599
 20
2189.6903328566518212
 30
0.0
 11
8634.3385281987011695
 21
2189.6903328566518212
 31
0.0
  0
LINE
  5
15A97
  8
0
 10
8629.6555058122812625
 20
2189.6509328566521617
 30
0.0
 11
8629.6555058122812625
 21
2188.3989942739522121
 31
0.0
  0
ARC
  5
15A98
  8
0
 10
8629.6949058122845599
 20
2189.6509328566521617
 30
0.0
 40
0.0394
 50
90.0
 51
180.0000000000260059
  0
LINE
  5
15A99
  8
0
 10
8626.5058995130821131
 20
2188.3989942739522121
 30
0.0
 11
8634.3385268903239194
 21
2188.3989942739522121
 31
0.0
  0
ARC
  5
15A9A
  8
0
 10
8634.3385268903239194
 20
2187.5721942739519363
 30
0.0
 40
0.8268
 50
77.9999999998259455
 51
90.0
  0
LINE
  5
15A9B
  8
0
 10
8626.5058995130821131
 20
2188.0053234078518472
 30
0.0
 11
8626.5058995130821131
 21
2188.3989942739522121
 31
0.0
  0
ARC
  5
15A9C
  8
0
 10
8626.5452995130817726
 20
2188.0053234078518472
 30
0.0
 40
0.0394
 50
180.0
 51
270.0
  0
LINE
  5
15A9D
  8
0
 10
8637.4425201104113512
 20
2189.0780551163729797
 30
0.0
 11
8634.7805484509572125
 21
2189.6438746563280802
 31
0.0
  0
LINE
  5
15A9E
  8
0
 10
8637.4737046895825188
 20
2189.0395453683518099
 30
0.0
 11
8637.4737046895825188
 21
2187.7510628645518409
 31
0.0
  0
LINE
  5
15A9F
  8
0
 10
8637.6662534298811806
 20
2187.7101353663520058
 30
0.0
 11
8634.5104282762949879
 21
2188.3809267102378726
 31
0.0
  0
LINE
  5
15AA0
  8
0
 10
8637.5379673626594013
 20
2187.294657484822892
 30
0.0
 11
8634.4203848660818039
 21
2187.9573201010512093
 31
0.0
  0
ARC
  5
15AA1
  8
0
 10
8637.5460967097696994
 20
2187.3329030560121282
 30
0.0
 40
0.0391
 50
257.9999999993964934
 51
347.999999997735074
  0
ARC
  5
15AA2
  8
0
 10
8634.3385299524416041
 20
2187.5722234078521069
 30
0.0
 40
0.3937
 50
77.9999999993965218
 51
90.0
  0
LINE
  5
15AA3
  8
0
 10
8637.6662534298811806
 20
2187.7101353663520058
 30
0.0
 11
8637.5843422809593903
 21
2187.3247737088991016
 31
0.0
  0
ARC
  5
15AA4
  8
0
 10
8634.3385281987011695
 20
2187.5643328566520722
 30
0.0
 40
2.125999999999999
 50
78.0000000667388917
 51
90.0
  0
LINE
  5
15AA5
  8
0
 10
8627.2263719539823796
 20
2187.9186682897520768
 30
0.0
 11
8627.2263719539823796
 21
2187.9659234078521877
 31
0.0
  0
ARC
  5
15AA6
  8
0
 10
8627.2381719539807818
 20
2187.9186682897520768
 30
0.0
 40
0.0118
 50
180.0
 51
270.0
  0
LINE
  5
15AA7
  8
0
 10
8627.3602302216822864
 20
2187.9186682897520768
 30
0.0
 11
8627.3602302216822864
 21
2187.9659234078521877
 31
0.0
  0
ARC
  5
15AA8
  8
0
 10
8627.3484302216838842
 20
2187.9186682897520768
 30
0.0
 40
0.0118
 50
270.0
 51
0.0
  0
LINE
  5
15AA9
  8
0
 10
8627.3484302216838842
 20
2187.9068682897518556
 30
0.0
 11
8627.2381719539807818
 21
2187.9068682897518556
 31
0.0
  0
LINE
  5
15AAA
  8
0
 10
8628.0137735287826217
 20
2187.9186682897520768
 30
0.0
 11
8628.0137735287826217
 21
2187.9659234078521877
 31
0.0
  0
ARC
  5
15AAB
  8
0
 10
8628.0255735287828429
 20
2187.9186682897520768
 30
0.0
 40
0.0118
 50
180.0
 51
270.0
  0
LINE
  5
15AAC
  8
0
 10
8628.1476317964825284
 20
2187.9186682897520768
 30
0.0
 11
8628.1476317964825284
 21
2187.9659234078521877
 31
0.0
  0
ARC
  5
15AAD
  8
0
 10
8628.1358317964823073
 20
2187.9186682897520768
 30
0.0
 40
0.0118
 50
270.0
 51
0.0
  0
LINE
  5
15AAE
  8
0
 10
8628.1358317964823073
 20
2187.9068682897518556
 30
0.0
 11
8628.0255735287828429
 21
2187.9068682897518556
 31
0.0
  0
LINE
  5
15AAF
  8
0
 10
8628.8011751035828638
 20
2187.9186682897520768
 30
0.0
 11
8628.8011751035828638
 21
2187.9659234078521877
 31
0.0
  0
ARC
  5
15AB0
  8
0
 10
8628.812975103581266
 20
2187.9186682897520768
 30
0.0
 40
0.0118
 50
180.0
 51
270.0
  0
LINE
  5
15AB1
  8
0
 10
8628.9350333712827705
 20
2187.9186682897520768
 30
0.0
 11
8628.9350333712827705
 21
2187.9659234078521877
 31
0.0
  0
ARC
  5
15AB2
  8
0
 10
8628.9232333712825493
 20
2187.9186682897520768
 30
0.0
 40
0.0118
 50
270.0
 51
0.0
  0
LINE
  5
15AB3
  8
0
 10
8628.9232333712825493
 20
2187.9068682897518556
 30
0.0
 11
8628.812975103581266
 21
2187.9068682897518556
 31
0.0
  0
LINE
  5
15AB4
  8
0
 10
8629.5885766783812869
 20
2187.9186682897520768
 30
0.0
 11
8629.5885766783812869
 21
2187.9659234078521877
 31
0.0
  0
ARC
  5
15AB5
  8
0
 10
8629.6003766783796891
 20
2187.9186682897520768
 30
0.0
 40
0.0118
 50
180.0
 51
270.0
  0
LINE
  5
15AB6
  8
0
 10
8629.7224349460830126
 20
2187.9186682897520768
 30
0.0
 11
8629.7224349460830126
 21
2187.9659234078521877
 31
0.0
  0
ARC
  5
15AB7
  8
0
 10
8629.7106349460846104
 20
2187.9186682897520768
 30
0.0
 40
0.0118
 50
270.0
 51
0.0
  0
LINE
  5
15AB8
  8
0
 10
8629.7106349460846104
 20
2187.9068682897518556
 30
0.0
 11
8629.6003766783796891
 21
2187.9068682897518556
 31
0.0
  0
LINE
  5
15AB9
  8
0
 10
8630.375978253181529
 20
2187.9186682897520768
 30
0.0
 11
8630.375978253181529
 21
2187.9659234078521877
 31
0.0
  0
ARC
  5
15ABA
  8
0
 10
8630.3877782531817502
 20
2187.9186682897520768
 30
0.0
 40
0.0118
 50
180.0
 51
270.0
  0
LINE
  5
15ABB
  8
0
 10
8630.5098365208814357
 20
2187.9186682897520768
 30
0.0
 11
8630.5098365208814357
 21
2187.9659234078521877
 31
0.0
  0
ARC
  5
15ABC
  8
0
 10
8630.4980365208812145
 20
2187.9186682897520768
 30
0.0
 40
0.0118
 50
270.0
 51
0.0
  0
LINE
  5
15ABD
  8
0
 10
8630.4980365208812145
 20
2187.9068682897518556
 30
0.0
 11
8630.3877782531817502
 21
2187.9068682897518556
 31
0.0
  0
LINE
  5
15ABE
  8
0
 10
8631.1633798279817711
 20
2187.9186682897520768
 30
0.0
 11
8631.1633798279817711
 21
2187.9659234078521877
 31
0.0
  0
ARC
  5
15ABF
  8
0
 10
8631.1751798279819923
 20
2187.9186682897520768
 30
0.0
 40
0.0118
 50
180.0
 51
270.0
  0
LINE
  5
15AC0
  8
0
 10
8631.2972380956816778
 20
2187.9186682897520768
 30
0.0
 11
8631.2972380956816778
 21
2187.9659234078521877
 31
0.0
  0
ARC
  5
15AC1
  8
0
 10
8631.2854380956814566
 20
2187.9186682897520768
 30
0.0
 40
0.0118
 50
270.0
 51
0.0
  0
LINE
  5
15AC2
  8
0
 10
8631.2854380956814566
 20
2187.9068682897518556
 30
0.0
 11
8631.1751798279819923
 21
2187.9068682897518556
 31
0.0
  0
LINE
  5
15AC3
  8
0
 10
8631.9507814027820132
 20
2187.9186682897520768
 30
0.0
 11
8631.9507814027820132
 21
2187.9659234078521877
 31
0.0
  0
ARC
  5
15AC4
  8
0
 10
8631.9625814027822344
 20
2187.9186682897520768
 30
0.0
 40
0.0118
 50
180.0
 51
270.0
  0
LINE
  5
15AC5
  8
0
 10
8632.0846396704819199
 20
2187.9186682897520768
 30
0.0
 11
8632.0846396704819199
 21
2187.9659234078521877
 31
0.0
  0
ARC
  5
15AC6
  8
0
 10
8632.0728396704835177
 20
2187.9186682897520768
 30
0.0
 40
0.0118
 50
270.0
 51
0.0
  0
LINE
  5
15AC7
  8
0
 10
8632.0728396704835177
 20
2187.9068682897518556
 30
0.0
 11
8631.9625814027822344
 21
2187.9068682897518556
 31
0.0
  0
LINE
  5
15AC8
  8
0
 10
8632.7381829775822553
 20
2187.9186682897520768
 30
0.0
 11
8632.7381829775822553
 21
2187.9659234078521877
 31
0.0
  0
ARC
  5
15AC9
  8
0
 10
8632.7499829775842954
 20
2187.9186682897520768
 30
0.0
 40
0.0118
 50
180.0
 51
270.0
  0
LINE
  5
15ACA
  8
0
 10
8632.872041245282162
 20
2187.9186682897520768
 30
0.0
 11
8632.872041245282162
 21
2187.9659234078521877
 31
0.0
  0
ARC
  5
15ACB
  8
0
 10
8632.8602412452819408
 20
2187.9186682897520768
 30
0.0
 40
0.0118
 50
270.0
 51
0.0
  0
LINE
  5
15ACC
  8
0
 10
8632.8602412452819408
 20
2187.9068682897518556
 30
0.0
 11
8632.7499829775842954
 21
2187.9068682897518556
 31
0.0
  0
LINE
  5
15ACD
  8
0
 10
8633.5255845524825418
 20
2187.9186682897520768
 30
0.0
 11
8633.5255845524825418
 21
2187.9659234078521877
 31
0.0
  0
ARC
  5
15ACE
  8
0
 10
8633.537384552482763
 20
2187.9186682897520768
 30
0.0
 40
0.0118
 50
180.0
 51
270.0
  0
LINE
  5
15ACF
  8
0
 10
8633.6594428201824485
 20
2187.9186682897520768
 30
0.0
 11
8633.6594428201824485
 21
2187.9659234078521877
 31
0.0
  0
ARC
  5
15AD0
  8
0
 10
8633.6476428201822273
 20
2187.9186682897520768
 30
0.0
 40
0.0118
 50
270.0
 51
0.0
  0
LINE
  5
15AD1
  8
0
 10
8633.6476428201822273
 20
2187.9068682897518556
 30
0.0
 11
8633.537384552482763
 21
2187.9068682897518556
 31
0.0
  0
ARC
  5
15AD2
  8
0
 10
8645.7763850045539584
 20
2180.1169258119562073
 30
0.0
 40
0.0613594233086763
 50
131.0629620139521876
 51
170.6264872802302932
  0
ARC
  5
15AD3
  8
0
 10
8646.0025869337750919
 20
2179.8572870492521361
 30
0.0
 40
0.4057133108736644
 50
125.4463669756344046
 51
131.0629620139521876
  0
ARC
  5
15AD4
  8
0
 10
8645.7445617762641632
 20
2180.2087041635718379
 30
0.0
 40
0.0308817328211854
 50
317.4097886550688941
 51
6.6589695685949719
  0
ARC
  5
15AD5
  8
0
 10
8645.6066933322035766
 20
2180.0895111045470003
 30
0.0
 40
0.2085181792095573
 50
9.7795925631508798
 51
36.071417642113289
  0
ENDSEC
  0
EOF
