  0
SECTION
  2
HEADER
  9
$ACADVER
  1
AC1009
  9
$INSBASE
 10
4311.7053696568400483
 20
163.8485992544329974
 30
0.0
  9
$EXTMIN
 10
4310.3446917521896466
 20
154.9420438003047025
 30
0.0
  9
$EXTMAX
 10
4315.7097431191914438
 20
165.1501441363330116
 30
0.0
  9
$LIMMIN
 10
0.0
 20
0.0
  9
$LIMMAX
 10
11.6929133858000007
 20
8.2677165353999982
  9
$ORTHOMODE
 70
     0
  9
$REGENMODE
 70
     1
  9
$FILLMODE
 70
     1
  9
$QTEXTMODE
 70
     0
  9
$MIRRTEXT
 70
     0
  9
$DRAGMODE
 70
     2
  9
$LTSCALE
 40
0.6431102362
  9
$OSMODE
 70
  4095
  9
$ATTMODE
 70
     1
  9
$TEXTSIZE
 40
0.2
  9
$TRACEWID
 40
0.05
  9
$TEXTSTYLE
  7
STANDARD
  9
$CLAYER
  8
0
  9
$CELTYPE
  6
BYLAYER
  9
$CECOLOR
 62
   256
  9
$DIMSCALE
 40
1.0
  9
$DIMASZ
 40
0.1875
  9
$DIMEXO
 40
0.0625
  9
$DIMDLI
 40
0.4443307087
  9
$DIMRND
 40
0.0
  9
$DIMDLE
 40
0.0
  9
$DIMEXE
 40
0.125
  9
$DIMTP
 40
0.01
  9
$DIMTM
 40
0.01
  9
$DIMTXT
 40
2.0
  9
$DIMCEN
 40
0.1052362205
  9
$DIMTSZ
 40
0.0
  9
$DIMTOL
 70
     1
  9
$DIMLIM
 70
     0
  9
$DIMTIH
 70
     1
  9
$DIMTOH
 70
     1
  9
$DIMSE1
 70
     0
  9
$DIMSE2
 70
     0
  9
$DIMTAD
 70
     0
  9
$DIMZIN
 70
     0
  9
$DIMBLK
  1

  9
$DIMASO
 70
     1
  9
$DIMSHO
 70
     1
  9
$DIMPOST
  1
\X
  9
$DIMAPOST
  1

  9
$DIMALT
 70
     1
  9
$DIMALTD
 70
     2
  9
$DIMALTF
 40
25.3999999999999986
  9
$DIMLFAC
 40
1.0
  9
$DIMTOFL
 70
     0
  9
$DIMTVP
 40
0.0
  9
$DIMTIX
 70
     0
  9
$DIMSOXD
 70
     0
  9
$DIMSAH
 70
     0
  9
$DIMBLK1
  1

  9
$DIMBLK2
  1

  9
$DIMSTYLE
  2
STANDARD
  9
$DIMCLRD
 70
     0
  9
$DIMCLRE
 70
     0
  9
$DIMCLRT
 70
     0
  9
$DIMTFAC
 40
1.0
  9
$DIMGAP
 40
0.09
  9
$LUNITS
 70
     2
  9
$LUPREC
 70
     4
  9
$SKETCHINC
 40
0.1
  9
$FILLETRAD
 40
0.0
  9
$AUNITS
 70
     0
  9
$AUPREC
 70
     0
  9
$MENU
  1
.
  9
$ELEVATION
 40
0.0
  9
$PELEVATION
 40
0.0
  9
$THICKNESS
 40
0.0
  9
$LIMCHECK
 70
     0
  9
$BLIPMODE
 70
     0
  9
$CHAMFERA
 40
0.0
  9
$CHAMFERB
 40
0.0
  9
$SKPOLY
 70
     0
  9
$TDCREATE
 40
2458060.468368056230247
  9
$TDUPDATE
 40
2459852.4609027779661119
  9
$TDINDWG
 40
0.3169167824
  9
$TDUSRTIMER
 40
0.3169167824
  9
$USRTIMER
 70
     1
  9
$ANGBASE
 50
0.0
  9
$ANGDIR
 70
     0
  9
$PDMODE
 70
     0
  9
$PDSIZE
 40
0.3125
  9
$PLINEWID
 40
0.0
  9
$COORDS
 70
     1
  9
$SPLFRAME
 70
     0
  9
$SPLINETYPE
 70
     6
  9
$SPLINESEGS
 70
     8
  9
$ATTDIA
 70
     1
  9
$ATTREQ
 70
     1
  9
$HANDLING
 70
     1
  9
$HANDSEED
  5
82A4
  9
$SURFTAB1
 70
     6
  9
$SURFTAB2
 70
     6
  9
$SURFTYPE
 70
     6
  9
$SURFU
 70
     6
  9
$SURFV
 70
     6
  9
$UCSNAME
  2

  9
$UCSORG
 10
0.0
 20
0.0
 30
0.0
  9
$UCSXDIR
 10
1.0
 20
0.0
 30
0.0
  9
$UCSYDIR
 10
0.0
 20
1.0
 30
0.0
  9
$PUCSNAME
  2

  9
$PUCSORG
 10
0.0
 20
0.0
 30
0.0
  9
$PUCSXDIR
 10
1.0
 20
0.0
 30
0.0
  9
$PUCSYDIR
 10
0.0
 20
1.0
 30
0.0
  9
$USERI1
 70
     0
  9
$USERI2
 70
     0
  9
$USERI3
 70
     0
  9
$USERI4
 70
     0
  9
$USERI5
 70
     0
  9
$USERR1
 40
0.0
  9
$USERR2
 40
0.0
  9
$USERR3
 40
0.0
  9
$USERR4
 40
0.0
  9
$USERR5
 40
0.0
  9
$WORLDVIEW
 70
     1
  9
$SHADEDGE
 70
     3
  9
$SHADEDIF
 70
    70
  9
$TILEMODE
 70
     1
  9
$MAXACTVP
 70
    64
  9
$PLIMCHECK
 70
     0
  9
$PEXTMIN
 10
1.0000000000000000E+20
 20
1.0000000000000000E+20
 30
1.0000000000000000E+20
  9
$PEXTMAX
 10
-1.0000000000000000E+20
 20
-1.0000000000000000E+20
 30
-1.0000000000000000E+20
  9
$PLIMMIN
 10
0.0
 20
0.0
  9
$PLIMMAX
 10
12.0
 20
9.0
  9
$UNITMODE
 70
     0
  9
$VISRETAIN
 70
     1
  9
$PLINEGEN
 70
     0
  9
$PSLTSCALE
 70
     1
  0
ENDSEC
  0
SECTION
  2
TABLES
  0
TABLE
  2
VPORT
 70
     1
  0
VPORT
  2
*ACTIVE
 70
     0
 10
0.0
 20
0.0
 11
1.0
 21
1.0
 12
10.4957232950650905
 22
-1.005465479923302
 13
0.0
 23
0.0
 14
1.0
 24
1.0
 15
0.0
 25
0.0
 16
0.0
 26
0.0
 36
33.0373069086588202
 17
4302.531494140625
 27
161.0515594482421875
 37
0.0
 40
10.2601382306893996
 41
2.0416666666666661
 42
50.0
 43
0.0
 44
0.0
 50
0.0
 51
0.0
 71
     0
 72
   100
 73
     1
 74
     1
 75
     0
 76
     0
 77
     0
 78
     0
  0
ENDTAB
  0
TABLE
  2
LTYPE
 70
     2
  0
LTYPE
  2
CONTINUOUS
 70
     0
  3
Solid line
 72
    65
 73
     0
 40
0.0
  0
LTYPE
  2
PHANTOM2
 70
     0
  3
___ _ _ ___ _ _ ___ _ _ ___ _ _
 72
    65
 73
     6
 40
1.25
 49
0.625
 49
-0.125
 49
0.125
 49
-0.125
 49
0.125
 49
-0.125
  0
ENDTAB
  0
TABLE
  2
LAYER
 70
     2
  0
LAYER
  2
0
 70
     0
 62
   255
  6
CONTINUOUS
  0
LAYER
  2
DEFPOINTS
 70
     0
 62
     7
  6
CONTINUOUS
  0
ENDTAB
  0
TABLE
  2
STYLE
 70
     1
  0
STYLE
  2
STANDARD
 70
     0
 40
0.0
 41
0.8
 50
0.0
 71
     0
 42
0.2
  3
txt
  4

  0
ENDTAB
  0
TABLE
  2
VIEW
 70
     0
  0
ENDTAB
  0
TABLE
  2
UCS
 70
     0
  0
ENDTAB
  0
TABLE
  2
APPID
 70
     9
  0
APPID
  2
ACAD
 70
     0
  0
APPID
  2
ACAD_MLEADERVER
 70
     0
  0
APPID
  2
ACAD_EXEMPT_FROM_CAD_STANDARDS
 70
     0
  0
APPID
  2
ACAD_NAV_VCDISPLAY
 70
     0
  0
APPID
  2
ACAECLAYERSTANDARD
 70
     0
  0
APPID
  2
ACCMTRANSPARENCY
 70
     0
  0
APPID
  2
ACAD_DSTYLE_DIMJAG
 70
     0
  0
APPID
  2
ACAD_DSTYLE_DIMTALN
 70
     0
  0
APPID
  2
ACDBATTR
 70
     0
  0
ENDTAB
  0
TABLE
  2
DIMSTYLE
 70
     1
  0
DIMSTYLE
  2
STANDARD
 70
     0
  3

  4

  5

  6

  7

 40
1.0
 41
0.1875
 42
0.0625
 43
0.38
 44
0.125
 45
0.0
 46
0.0
 47
0.01
 48
0.01
140
0.15625
141
0.09
142
0.0
143
25.3999999999999986
144
1.0
145
0.0
146
1.0
147
0.09
 71
     1
 72
     0
 73
     1
 74
     1
 75
     0
 76
     0
 77
     0
 78
     4
170
     0
171
     2
172
     0
173
     0
174
     0
175
     0
176
     0
177
     0
178
     0
  0
ENDTAB
  0
ENDSEC
  0
SECTION
  2
BLOCKS
  0
BLOCK
  8
0
  2
$MODEL_SPACE
 70
     0
 10
0.0
 20
0.0
 30
0.0
  3
$MODEL_SPACE
  1

  0
ENDBLK
  5
21
  8
0
  0
BLOCK
 67
     1
  8
0
  2
$PAPER_SPACE
 70
     0
 10
0.0
 20
0.0
 30
0.0
  3
$PAPER_SPACE
  1

  0
ENDBLK
  5
1D
 67
     1
  8
0
  0
ENDSEC
  0
SECTION
  2
ENTITIES
  0
ATTDEF
  5
3930
  8
DEFPOINTS
 10
4311.6997661810710269
 20
163.842948043072397
 30
0.0
 40
0.001
  1
K-23764T-4
  3

  2
MODELNUMBER
 70
     0
1001
ACDBATTR
1070
     0
1070
     1
  0
ATTDEF
  5
3931
  8
DEFPOINTS
 10
4311.6997661810710269
 20
163.8412813764057034
 30
0.0
 40
0.001
  1
TONE
  3

  2
TRADENAME
 70
     0
1001
ACDBATTR
1070
     0
1070
     1
  0
ATTDEF
  5
3932
  8
DEFPOINTS
 10
4311.6997661810710269
 20
163.8396147097390099
 30
0.0
 40
0.001
  1
KITCHEN SINK FAUCET
  3

  2
PRODUCT
 70
     0
1001
ACDBATTR
1070
     0
1070
     1
  0
LINE
  5
80E8
  8
0
 10
4311.1428696575885624
 20
156.0128731865329996
 30
0.0
 11
4311.1428703621886598
 21
163.7902865412330016
 31
0.0
  0
LINE
  5
80E9
  8
0
 10
4315.2458227411361804
 20
163.5919662316329948
 30
0.0
 11
4314.7663801263888672
 21
163.5919662316329948
 31
0.0
  0
LINE
  5
80EA
  8
0
 10
4315.2458227411361804
 20
163.986966231633005
 30
0.0
 11
4314.7663801262897323
 21
163.986966231633005
 31
0.0
  0
ARC
  5
80EB
  8
0
 10
4311.7045225507881696
 20
156.0097943777155933
 30
0.0
 40
1.067750577410874
 50
121.7365971639805053
 51
270.0454559404223005
  0
ARC
  5
80EC
  8
0
 10
4311.7053696568900705
 20
156.009466231633013
 30
0.0
 40
0.6509753800000001
 50
149.7787216354601867
 51
269.9999999956227157
  0
ARC
  5
80ED
  8
0
 10
4311.7053696568900705
 20
163.7894662316330141
 30
0.0
 40
1.3606779046999991
 50
90.0000000020844055
 51
245.5816265638260063
  0
ARC
  5
80EE
  8
0
 10
4311.7053696568900705
 20
163.7894662316330141
 30
0.0
 40
0.7329031906
 50
90.0000000039082835
 51
219.8705521384881081
  0
CIRCLE
  5
80EF
  8
0
 10
4315.4357431191901924
 20
163.7894662316330141
 30
0.0
 40
0.274
  0
ARC
  5
80F0
  8
0
 10
4311.7056938961413834
 20
156.0093169976279057
 30
0.0
 40
0.5628354732780168
 50
179.6379830682126908
 51
269.9669929394956966
  0
ARC
  5
80F1
  8
0
 10
4311.7053696568900705
 20
163.7894662316330141
 30
0.0
 40
0.5624998928407301
 50
90.0000000051067843
 51
179.9164439047343933
  0
LINE
  5
80F2
  8
0
 10
4312.2678696560888056
 20
156.0128731865329996
 30
0.0
 11
4312.2678689514887083
 21
163.7902865412330016
 31
0.0
  0
ARC
  5
80F3
  8
0
 10
4311.7062167628910174
 20
156.0097943777155933
 30
0.0
 40
1.0677505774108751
 50
269.9545440595776995
 51
58.2634028360194804
  0
ARC
  5
80F4
  8
0
 10
4311.7053696567900261
 20
156.009466231633013
 30
0.0
 40
0.6509753800000001
 50
270.0000000043772843
 51
30.2212783645397991
  0
ARC
  5
80F5
  8
0
 10
4311.7053696567900261
 20
163.7894662316330141
 30
0.0
 40
1.3606779046999991
 50
294.4183734361740221
 51
317.2946676653618852
  0
ARC
  5
80F6
  8
0
 10
4311.7053696567900261
 20
163.7894662316330141
 30
0.0
 40
1.3606779046999991
 50
42.6283327307337601
 51
89.9999999979155945
  0
ARC
  5
80F7
  8
0
 10
4311.7053696567900261
 20
163.7894662316330141
 30
0.0
 40
0.7329031906
 50
320.1294478615118919
 51
89.9999999960917307
  0
ARC
  5
80F8
  8
0
 10
4311.7050454175378036
 20
156.0093169976279057
 30
0.0
 40
0.5628354732780168
 50
270.0330070605043034
 51
0.3620169317872397
  0
ARC
  5
80F9
  8
0
 10
4311.7053696567900261
 20
163.7894662316330141
 30
0.0
 40
0.5624998928407301
 50
0.0835560952655507
 51
89.9999999948932015
  0
LINE
  5
80FA
  8
0
 10
4314.197496318888625
 20
162.8349819796829934
 30
0.0
 11
4314.2477730765904198
 21
162.8349819796829934
 31
0.0
  0
LINE
  5
80FB
  8
0
 10
4314.4855175756902099
 20
162.8349819796829934
 30
0.0
 11
4314.6306135225895559
 21
162.8349819796829934
 31
0.0
  0
LINE
  5
80FC
  8
0
 10
4313.5553696568904343
 20
162.8744662315829999
 30
0.0
 11
4314.0516846174887178
 21
162.8744662315829999
 31
0.0
  0
LINE
  5
80FD
  8
0
 10
4314.079243672589655
 20
162.8878914284829875
 30
0.0
 11
4314.0713696568900559
 21
162.8878914284829875
 31
0.0
  0
LINE
  5
80FE
  8
0
 10
4314.079243672589655
 20
164.6910410347830123
 30
0.0
 11
4314.0713696568900559
 21
164.6910410347830123
 31
0.0
  0
LINE
  5
80FF
  8
0
 10
4314.0516846174887178
 20
164.7044662315830124
 30
0.0
 11
4313.5553696568904343
 21
164.7044662315830124
 31
0.0
  0
LINE
  5
8100
  8
0
 10
4314.197496318888625
 20
164.7419819796830041
 30
0.0
 11
4314.6306135225895559
 21
164.7419819796830041
 31
0.0
  0
LINE
  5
8101
  8
0
 10
4314.0713696568900559
 20
164.6910410347830123
 30
0.0
 11
4314.0713696568900559
 21
162.8878914284829875
 31
0.0
  0
LINE
  5
8102
  8
0
 10
4314.079243672589655
 20
162.8878914284829875
 30
0.0
 11
4314.079243672589655
 21
164.6910410347830123
 31
0.0
  0
LINE
  5
8103
  8
0
 10
4314.1674963188897891
 20
164.7119819796830029
 30
0.0
 11
4314.1674963188897891
 21
162.8649819796829945
 31
0.0
  0
LINE
  5
8104
  8
0
 10
4314.6604389750891642
 20
162.8617505114829953
 30
0.0
 11
4314.6604389750891642
 21
164.7152134477829861
 31
0.0
  0
LINE
  5
8105
  8
0
 10
4314.7026866672886172
 20
164.1553980919177036
 30
0.0
 11
4314.7026866672886172
 21
163.4215671740793994
 31
0.0
  0
LINE
  5
8106
  8
0
 10
4314.706380119188907
 20
163.4677191792829944
 30
0.0
 11
4314.706380119188907
 21
164.109244779982987
 31
0.0
  0
ARC
  5
8107
  8
0
 10
4306.0902868881503309
 20
163.7900167882930873
 30
0.0
 40
8.6202775520240866
 50
353.8181724784118956
 51
357.5503061435265977
  0
ARC
  5
8108
  8
0
 10
4306.0902345434606104
 20
163.7869423598760079
 30
0.0
 40
8.6203301103675685
 50
2.4497196114023181
 51
6.1818218488063206
  0
ARC
  5
8109
  8
0
 10
4313.6579838300885967
 20
163.7804381181830138
 30
0.0
 40
0.9869647653999477
 50
295.2661452975123098
 51
301.080496277821112
  0
ARC
  5
810A
  8
0
 10
4313.6579838300904157
 20
163.7984943450830997
 30
0.0
 40
0.986964765399891
 50
58.9195037221789306
 51
64.7338547026000839
  0
ARC
  5
810B
  8
0
 10
4314.1986135042652677
 20
162.8660991650581025
 30
0.0
 40
0.0311372338017791
 50
182.0561797164444044
 51
267.943820283576315
  0
ARC
  5
810C
  8
0
 10
4314.1999007419353802
 20
164.7095775566374982
 30
0.0
 40
0.0324935052448178
 50
94.243596506906556
 51
175.756403493073293
  0
ARC
  5
810D
  8
0
 10
4314.6306135225895559
 20
162.8649819796829945
 30
0.0
 40
0.03
 50
270.0
 51
353.8163530722003998
  0
ARC
  5
810E
  8
0
 10
4314.629043928081046
 20
164.7102331401628135
 30
0.0
 40
0.0317876145346116
 50
9.0139230113703892
 51
87.1697239164390112
  0
ARC
  5
810F
  8
0
 10
4314.6869210397453571
 20
163.4676838583868062
 30
0.0
 40
0.0194591115006849
 50
324.1147502331451733
 51
0.1039995784685669
  0
ARC
  5
8110
  8
0
 10
4314.6869210397453571
 20
164.1092801008792037
 30
0.0
 40
0.0194591115006845
 50
359.8960004215297772
 51
35.8852497668547983
  0
ARC
  5
8111
  8
0
 10
4314.0516846174887178
 20
162.8941512709830022
 30
0.0
 40
0.0196850394
 50
270.0
 51
0.0
  0
ARC
  5
8112
  8
0
 10
4314.0516846174887178
 20
164.6847811922829976
 30
0.0
 40
0.0196850394
 50
0.0
 51
90.0
  0
ARC
  5
8113
  8
0
 10
4314.3666453261403149
 20
161.887855489237694
 30
0.0
 40
0.9545570703820265
 50
82.8463092307609941
 51
97.1536907692390344
  0
ARC
  5
8114
  8
0
 10
4314.7754590462245687
 20
164.0564372682050873
 30
0.0
 40
0.0700617706711108
 50
189.6083386317367001
 51
262.5544168308960025
  0
ARC
  5
8115
  8
0
 10
4314.7725614624587251
 20
163.5260364932678954
 30
0.0
 40
0.0662188743221339
 50
95.3561895288880237
 51
178.0708649883492001
  0
ARC
  5
8116
  8
0
 10
4313.412550465577624
 20
201.4546040608861972
 30
0.0
 40
36.750415341791502
 50
268.8991714509588746
 51
270.2226629934908146
  0
ARC
  5
8117
  8
0
 10
4313.3961417026175695
 20
134.0833179648186899
 30
0.0
 40
28.7915885643746208
 50
89.6831318895319356
 51
91.3749874043564461
  0
ENDSEC
  0
EOF
