  0
SECTION
  2
HEADER
  9
$ACADVER
  1
AC1009
  9
$INSBASE
 10
6145.1966765108763866
 20
1401.730096823059057
 30
0.0
  9
$EXTMIN
 10
6114.9627062253057375
 20
1401.7075499391119138
 30
-0.0000000000112498
  9
$EXTMAX
 10
6175.2708389398867439
 20
1443.897793164893983
 30
0.0000000000002956
  9
$LIMMIN
 10
0.0
 20
0.0
  9
$LIMMAX
 10
11.6929133858000007
 20
8.2677165353999982
  9
$ORTHOMODE
 70
     0
  9
$REGENMODE
 70
     1
  9
$FILLMODE
 70
     1
  9
$QTEXTMODE
 70
     0
  9
$MIRRTEXT
 70
     0
  9
$DRAGMODE
 70
     2
  9
$LTSCALE
 40
0.6431102362
  9
$OSMODE
 70
  4095
  9
$ATTMODE
 70
     1
  9
$TEXTSIZE
 40
0.2
  9
$TRACEWID
 40
0.05
  9
$TEXTSTYLE
  7
STANDARD
  9
$CLAYER
  8
0
  9
$CELTYPE
  6
BYLAYER
  9
$CECOLOR
 62
     1
  9
$DIMSCALE
 40
1.0
  9
$DIMASZ
 40
0.1875
  9
$DIMEXO
 40
0.0625
  9
$DIMDLI
 40
0.4443307087
  9
$DIMRND
 40
0.0
  9
$DIMDLE
 40
0.0
  9
$DIMEXE
 40
0.125
  9
$DIMTP
 40
0.01
  9
$DIMTM
 40
0.01
  9
$DIMTXT
 40
2.0
  9
$DIMCEN
 40
0.1052362205
  9
$DIMTSZ
 40
0.0
  9
$DIMTOL
 70
     1
  9
$DIMLIM
 70
     0
  9
$DIMTIH
 70
     1
  9
$DIMTOH
 70
     1
  9
$DIMSE1
 70
     0
  9
$DIMSE2
 70
     0
  9
$DIMTAD
 70
     0
  9
$DIMZIN
 70
     0
  9
$DIMBLK
  1

  9
$DIMASO
 70
     1
  9
$DIMSHO
 70
     1
  9
$DIMPOST
  1
\X
  9
$DIMAPOST
  1

  9
$DIMALT
 70
     1
  9
$DIMALTD
 70
     2
  9
$DIMALTF
 40
25.3999999999999986
  9
$DIMLFAC
 40
1.0
  9
$DIMTOFL
 70
     0
  9
$DIMTVP
 40
0.0
  9
$DIMTIX
 70
     0
  9
$DIMSOXD
 70
     0
  9
$DIMSAH
 70
     0
  9
$DIMBLK1
  1

  9
$DIMBLK2
  1

  9
$DIMSTYLE
  2
STANDARD
  9
$DIMCLRD
 70
     0
  9
$DIMCLRE
 70
     0
  9
$DIMCLRT
 70
     0
  9
$DIMTFAC
 40
1.0
  9
$DIMGAP
 40
0.09
  9
$LUNITS
 70
     2
  9
$LUPREC
 70
     4
  9
$SKETCHINC
 40
0.1
  9
$FILLETRAD
 40
0.0
  9
$AUNITS
 70
     0
  9
$AUPREC
 70
     0
  9
$MENU
  1
.
  9
$ELEVATION
 40
0.0
  9
$PELEVATION
 40
0.0
  9
$THICKNESS
 40
0.0
  9
$LIMCHECK
 70
     0
  9
$BLIPMODE
 70
     0
  9
$CHAMFERA
 40
0.0
  9
$CHAMFERB
 40
0.0
  9
$SKPOLY
 70
     0
  9
$TDCREATE
 40
2458060.468368056230247
  9
$TDUPDATE
 40
2460047.6092013888992369
  9
$TDINDWG
 40
0.3295556713
  9
$TDUSRTIMER
 40
0.3295556713
  9
$USRTIMER
 70
     1
  9
$ANGBASE
 50
0.0
  9
$ANGDIR
 70
     0
  9
$PDMODE
 70
     0
  9
$PDSIZE
 40
0.3125
  9
$PLINEWID
 40
0.0
  9
$COORDS
 70
     1
  9
$SPLFRAME
 70
     0
  9
$SPLINETYPE
 70
     6
  9
$SPLINESEGS
 70
     8
  9
$ATTDIA
 70
     1
  9
$ATTREQ
 70
     1
  9
$HANDLING
 70
     1
  9
$HANDSEED
  5
A8E3
  9
$SURFTAB1
 70
     6
  9
$SURFTAB2
 70
     6
  9
$SURFTYPE
 70
     6
  9
$SURFU
 70
     6
  9
$SURFV
 70
     6
  9
$UCSNAME
  2

  9
$UCSORG
 10
0.0
 20
0.0
 30
0.0
  9
$UCSXDIR
 10
1.0
 20
0.0
 30
0.0
  9
$UCSYDIR
 10
0.0
 20
1.0
 30
0.0
  9
$PUCSNAME
  2

  9
$PUCSORG
 10
0.0
 20
0.0
 30
0.0
  9
$PUCSXDIR
 10
1.0
 20
0.0
 30
0.0
  9
$PUCSYDIR
 10
0.0
 20
1.0
 30
0.0
  9
$USERI1
 70
     0
  9
$USERI2
 70
     0
  9
$USERI3
 70
     0
  9
$USERI4
 70
     0
  9
$USERI5
 70
     0
  9
$USERR1
 40
0.0
  9
$USERR2
 40
0.0
  9
$USERR3
 40
0.0
  9
$USERR4
 40
0.0
  9
$USERR5
 40
0.0
  9
$WORLDVIEW
 70
     1
  9
$SHADEDGE
 70
     3
  9
$SHADEDIF
 70
    70
  9
$TILEMODE
 70
     1
  9
$MAXACTVP
 70
    64
  9
$PLIMCHECK
 70
     0
  9
$PEXTMIN
 10
1.0000000000000000E+20
 20
1.0000000000000000E+20
 30
1.0000000000000000E+20
  9
$PEXTMAX
 10
-1.0000000000000000E+20
 20
-1.0000000000000000E+20
 30
-1.0000000000000000E+20
  9
$PLIMMIN
 10
0.0
 20
0.0
  9
$PLIMMAX
 10
12.0
 20
9.0
  9
$UNITMODE
 70
     0
  9
$VISRETAIN
 70
     1
  9
$PLINEGEN
 70
     0
  9
$PSLTSCALE
 70
     1
  0
ENDSEC
  0
SECTION
  2
TABLES
  0
TABLE
  2
VPORT
 70
     1
  0
VPORT
  2
*ACTIVE
 70
     0
 10
0.0
 20
0.0
 11
1.0
 21
1.0
 12
2653.2001466060341954
 22
1245.8507062199719257
 13
0.0
 23
0.0
 14
1.0
 24
1.0
 15
0.0
 25
0.0
 16
0.0
 26
0.0
 36
199.3126279314143119
 17
3491.9166259765629547
 27
176.9519653320311932
 37
0.0
 40
42.5246440967921373
 41
2.5251322751322749
 42
50.0
 43
0.0
 44
0.0
 50
0.0
 51
0.0
 71
     0
 72
   100
 73
     1
 74
     1
 75
     0
 76
     0
 77
     0
 78
     0
  0
ENDTAB
  0
TABLE
  2
LTYPE
 70
     2
  0
LTYPE
  2
CONTINUOUS
 70
     0
  3
Solid line
 72
    65
 73
     0
 40
0.0
  0
LTYPE
  2
PHANTOM2
 70
     0
  3
___ _ _ ___ _ _ ___ _ _ ___ _ _
 72
    65
 73
     6
 40
1.25
 49
0.625
 49
-0.125
 49
0.125
 49
-0.125
 49
0.125
 49
-0.125
  0
ENDTAB
  0
TABLE
  2
LAYER
 70
     2
  0
LAYER
  2
0
 70
     0
 62
   255
  6
CONTINUOUS
  0
LAYER
  2
DEFPOINTS
 70
     0
 62
     7
  6
CONTINUOUS
  0
ENDTAB
  0
TABLE
  2
STYLE
 70
     1
  0
STYLE
  2
STANDARD
 70
     0
 40
0.0
 41
0.8
 50
0.0
 71
     0
 42
0.2
  3
txt
  4

  0
ENDTAB
  0
TABLE
  2
VIEW
 70
     0
  0
ENDTAB
  0
TABLE
  2
UCS
 70
     0
  0
ENDTAB
  0
TABLE
  2
APPID
 70
     9
  0
APPID
  2
ACAD
 70
     0
  0
APPID
  2
ACAD_MLEADERVER
 70
     0
  0
APPID
  2
ACAD_EXEMPT_FROM_CAD_STANDARDS
 70
     0
  0
APPID
  2
ACAD_NAV_VCDISPLAY
 70
     0
  0
APPID
  2
ACAECLAYERSTANDARD
 70
     0
  0
APPID
  2
ACCMTRANSPARENCY
 70
     0
  0
APPID
  2
ACAD_DSTYLE_DIMJAG
 70
     0
  0
APPID
  2
ACAD_DSTYLE_DIMTALN
 70
     0
  0
APPID
  2
ACDBATTR
 70
     0
  0
ENDTAB
  0
TABLE
  2
DIMSTYLE
 70
     1
  0
DIMSTYLE
  2
STANDARD
 70
     0
  3

  4

  5

  6

  7

 40
1.0
 41
0.1875
 42
0.0625
 43
0.38
 44
0.125
 45
0.0
 46
0.0
 47
0.01
 48
0.01
140
0.15625
141
0.09
142
0.0
143
25.3999999999999986
144
1.0
145
0.0
146
1.0
147
0.09
 71
     1
 72
     0
 73
     1
 74
     1
 75
     0
 76
     0
 77
     0
 78
     4
170
     0
171
     2
172
     0
173
     0
174
     0
175
     0
176
     0
177
     0
178
     0
  0
ENDTAB
  0
ENDSEC
  0
SECTION
  2
BLOCKS
  0
BLOCK
  8
0
  2
$MODEL_SPACE
 70
     0
 10
0.0
 20
0.0
 30
0.0
  3
$MODEL_SPACE
  1

  0
ENDBLK
  5
21
  8
0
  0
BLOCK
 67
     1
  8
0
  2
$PAPER_SPACE
 70
     0
 10
0.0
 20
0.0
 30
0.0
  3
$PAPER_SPACE
  1

  0
ENDBLK
  5
1D
 67
     1
  8
0
  0
BLOCK
  8
0
  2
_FILLED
 70
     0
 10
0.0
 20
0.0
 30
0.0
  3
_FILLED
  1

  0
SOLID
  5
97DA
  8
0
  6
BYBLOCK
 62
     0
 10
0.0
 20
0.0
 30
0.0
 11
-1.0
 21
0.1666666667
 31
0.0
 12
-1.0
 22
-0.1666666667
 32
0.0
 13
-1.0
 23
-0.1666666667
 33
0.0
  0
ENDBLK
  5
97DB
  8
0
  6
BYBLOCK
 62
     0
  0
ENDSEC
  0
SECTION
  2
ENTITIES
  0
ATTDEF
  5
3930
  8
DEFPOINTS
 10
6145.1971599784901628
 20
1401.7284153094119574
 30
0.0
 40
0.001
  1
K-23768T-LCP
  3

  2
MODELNUMBER
 70
     0
1001
ACDBATTR
1070
     0
1070
     1
  0
ATTDEF
  5
3931
  8
DEFPOINTS
 10
6145.1971599784901628
 20
1401.7267486427460881
 30
0.0
 40
0.001
  1
BELAY
  3

  2
TRADENAME
 70
     0
1001
ACDBATTR
1070
     0
1070
     1
  0
ATTDEF
  5
3932
  8
DEFPOINTS
 10
6145.1971599784901628
 20
1401.7250819760790819
 30
0.0
 40
0.001
  1
BATH
  3

  2
PRODUCT
 70
     0
1001
ACDBATTR
1070
     0
1070
     1
  0
LINE
  5
A552
  8
0
 10
6115.2054067032258899
 20
1401.927096823058946
 30
0.0
 11
6175.2054067032258899
 21
1401.927096823058946
 31
0.0
  0
LINE
  5
A554
  8
0
 10
6123.7211547347251326
 20
1401.730096823059057
 30
0.0
 11
6125.6896586717257378
 21
1401.730096823059057
 31
0.0
  0
LINE
  5
A555
  8
0
 10
6156.4711547347251326
 20
1401.730096823059057
 30
0.0
 11
6158.4396586717257378
 21
1401.730096823059057
 31
0.0
  0
LINE
  5
A556
  8
0
 10
6172.4711547347260421
 20
1401.730096823059057
 30
0.0
 11
6174.4396586717257378
 21
1401.730096823059057
 31
0.0
  0
LINE
  5
A559
  8
0
 10
6115.2054067032258899
 20
1442.8936034678320084
 30
0.0
 11
6115.2054067032258899
 21
1442.8010968214050536
 31
0.0
  0
LINE
  5
A55A
  8
0
 10
6115.2054067032258899
 20
1442.7410968230590242
 30
0.0
 11
6115.2054067032258899
 21
1401.927096823058946
 31
0.0
  0
LINE
  5
A55C
  8
0
 10
6175.2054067032258899
 20
1442.7410968230590242
 30
0.0
 11
6175.2054067032258899
 21
1401.927096823058946
 31
0.0
  0
LINE
  5
A55D
  8
0
 10
6134.6136145284053782
 20
1407.6174578362090415
 30
0.0
 11
6146.2971914832451148
 21
1407.6174578362090415
 31
0.0
  0
LINE
  5
A560
  8
0
 10
6123.1104067032256353
 20
1440.9610968230590515
 30
0.0
 11
6123.1104067032256353
 21
1401.927096823058946
 31
0.0
  0
LINE
  5
A561
  8
0
 10
6115.4508476256251015
 20
1443.8010968230589697
 30
0.0
 11
6174.9680828811042375
 21
1443.8010968230589697
 31
0.0
  0
LINE
  5
A612
  8
0
 10
6175.187946296769951
 20
1443.3502399106150733
 30
0.0
 11
6175.1879462966189749
 21
1442.9693928781259729
 31
0.0
  0
ARC
  5
A685
  8
0
 10
6115.4508476256251015
 20
1443.5830968230588951
 30
0.0
 40
0.2180000000000462
 50
90.0
 51
148.5476385265770887
  0
ARC
  5
A686
  8
0
 10
6115.4508476252722176
 20
1443.5830968232749001
 30
0.0
 40
0.2179999995856933
 50
148.5476385265716033
 51
178.0000000538130109
  0
LINE
  5
A687
  8
0
 10
6115.2329804253886323
 20
1443.5907049133370492
 30
0.0
 11
6115.2054067032258899
 21
1442.8936034678320084
 31
0.0
  0
LINE
  5
A689
  8
0
 10
6129.4396266453532007
 20
1442.7410968230590242
 30
0.0
 11
6115.2054067032258899
 21
1442.7410968230590242
 31
0.0
  0
LINE
  5
A68A
  8
0
 10
6115.2054067032831881
 20
1442.8010968230589697
 30
0.0
 11
6175.1959266459953142
 21
1442.8010968230589697
 31
0.0
  0
LINE
  5
A68D
  8
0
 10
6115.5154067032262901
 20
1442.8010968643588967
 30
0.0
 11
6115.5154067032262901
 21
1442.7410968230590242
 31
0.0
  0
LINE
  5
A68E
  8
0
 10
6123.1104067032256353
 20
1440.9610968230590515
 30
0.0
 11
6115.2054067032258899
 21
1440.9610968230590515
 31
0.0
  0
LINE
  5
A68F
  8
0
 10
6175.2054067032258899
 20
1441.5510968230589697
 30
0.0
 11
6149.6079248717132941
 21
1441.5510968230589697
 31
0.0
  0
LINE
  5
A690
  8
0
 10
6149.4055688210510198
 20
1441.5510968230589697
 30
0.0
 11
6149.1346716465959616
 21
1441.5510968230589697
 31
0.0
  0
LINE
  5
A691
  8
0
 10
6148.8671424043186562
 20
1441.5510968230589697
 30
0.0
 11
6132.0436710123631201
 21
1441.5510968230589697
 31
0.0
  0
LINE
  5
A692
  8
0
 10
6131.7761343650536219
 20
1441.5510968230589697
 30
0.0
 11
6131.5052371906012922
 21
1441.5510968230589697
 31
0.0
  0
LINE
  5
A693
  8
0
 10
6131.3028885348358017
 20
1441.5510968230589697
 30
0.0
 11
6115.2054067032258899
 21
1441.5510968230589697
 31
0.0
  0
LINE
  5
A694
  8
0
 10
6123.1248573834018316
 20
1441.0851258809589126
 30
0.0
 11
6115.2054067032258899
 21
1441.0851258809589126
 31
0.0
  0
LINE
  5
A695
  8
0
 10
6175.2054067032258899
 20
1441.1637505792580214
 30
0.0
 11
6149.5821462484163931
 21
1441.1637505792580214
 31
0.0
  0
LINE
  5
A696
  8
0
 10
6149.4072701176837654
 20
1441.1637505792580214
 30
0.0
 11
6149.1165873937361539
 21
1441.1637505792580214
 31
0.0
  0
LINE
  5
A697
  8
0
 10
6148.8656932938338286
 20
1441.1637505792580214
 30
0.0
 11
6132.0451201248351936
 21
1441.1637505792589309
 31
0.0
  0
LINE
  5
A698
  8
0
 10
6131.7888113105309458
 20
1441.1637505792589309
 30
0.0
 11
6131.5035358939658181
 21
1441.1637505792589309
 31
0.0
  0
LINE
  5
A699
  8
0
 10
6131.3286597632377379
 20
1441.1637505792589309
 30
0.0
 11
6123.3591109647259145
 21
1441.1637505792589309
 31
0.0
  0
ARC
  5
A69A
  8
0
 10
6123.4088362005823001
 20
1440.6273210950569137
 30
0.0
 40
0.5387292368180151
 50
95.2959946060205283
 51
121.8116244811899946
  0
LINE
  5
A69B
  8
0
 10
6122.8954067032245803
 20
1442.8010968643588967
 30
0.0
 11
6122.8954067032245803
 21
1442.7410968230590242
 31
0.0
  0
ARC
  5
A69C
  8
0
 10
6122.9599657808248594
 20
1443.5830968230588951
 30
0.0
 40
0.2180000000007618
 50
54.9158204292487468
 51
90.0000364799594621
  0
ARC
  5
A69D
  8
0
 10
6122.9599657808248594
 20
1443.5830968230588951
 30
0.0
 40
0.2179999999995407
 50
16.6137127207537603
 51
54.9158204292487468
  0
ARC
  5
A69E
  8
0
 10
6123.0132193844101494
 20
1443.5919394738170922
 30
0.0
 40
0.164579829032629
 50
359.8904572857896937
 51
18.9651947335389295
  0
LINE
  5
A69F
  8
0
 10
6123.1777989126494504
 20
1443.5916248169548908
 30
0.0
 11
6123.2054063083260189
 21
1442.8010968230589697
 31
0.0
  0
LINE
  5
A6A0
  8
0
 10
6123.1778288127643464
 20
1443.5907686377840946
 30
0.0
 11
6123.2418936535250396
 21
1443.5938480568590876
 31
0.0
  0
LINE
  5
A6A1
  8
0
 10
6123.1879483804259507
 20
1443.3010968230589697
 30
0.0
 11
6123.2315972803653494
 21
1443.3010968230589697
 31
0.0
  0
LINE
  5
A6A2
  8
0
 10
6123.2120416494253732
 20
1442.7410968230590242
 30
0.0
 11
6123.2369802496787088
 21
1443.4552448955560067
 31
0.0
  0
ARC
  5
A6A3
  8
0
 10
6254.4893305449422769
 20
1438.8718118200019944
 30
0.0
 40
131.3323544172893946
 50
177.9394942309095029
 51
177.9999999975399874
  0
ARC
  5
A6A4
  8
0
 10
6123.4459252768519946
 20
1443.5865073823160856
 30
0.0
 40
0.2041636324613291
 50
139.6117657645145869
 51
177.9394942309095029
  0
ARC
  5
A6A5
  8
0
 10
6123.477435429864272
 20
1443.5597012955870468
 30
0.0
 40
0.2455333802074737
 50
112.9098850096597033
 51
139.6117657645145869
  0
ARC
  5
A6A6
  8
0
 10
6123.4573493812240486
 20
1443.6072287555009552
 30
0.0
 40
0.1939358144140113
 50
91.5144879965445739
 51
112.9098850096597033
  0
LINE
  5
A6A7
  8
0
 10
6123.5154067032262901
 20
1442.8010968230589697
 30
0.0
 11
6123.5154067032262901
 21
1442.7410968230590242
 31
0.0
  0
LINE
  5
A6A8
  8
0
 10
6123.7211547347251326
 20
1401.927096823058946
 30
0.0
 11
6123.7211547347251326
 21
1401.730096823059057
 31
0.0
  0
LINE
  5
A6A9
  8
0
 10
6125.6896586717257378
 20
1401.927096823058946
 30
0.0
 11
6125.6896586717257378
 21
1401.730096823059057
 31
0.0
  0
ARC
  5
A6AA
  8
0
 10
6129.3114893007377759
 20
1441.7089950276260879
 30
0.0
 40
0.1619580671197774
 50
282.855927651447189
 51
355.4713962807732059
  0
LINE
  5
A6AB
  8
0
 10
6129.4729417413218471
 20
1441.6962073407910339
 30
0.0
 11
6129.4729417371800082
 21
1442.6564433362968884
 31
0.0
  0
ARC
  5
A6AC
  8
0
 10
6129.3477002142863057
 20
1442.6560301250449356
 30
0.0
 40
0.125247003316888
 50
0.1890356571691487
 51
42.7804949918488973
  0
LINE
  5
A6AD
  8
0
 10
6156.4711547347251326
 20
1401.927096823058946
 30
0.0
 11
6156.4711547347251326
 21
1401.730096823059057
 31
0.0
  0
LINE
  5
A6AE
  8
0
 10
6158.4396586717257378
 20
1401.927096823058946
 30
0.0
 11
6158.4396586717257378
 21
1401.730096823059057
 31
0.0
  0
LINE
  5
A6AF
  8
0
 10
6172.4711547347260421
 20
1401.927096823058946
 30
0.0
 11
6172.4711547347260421
 21
1401.730096823059057
 31
0.0
  0
LINE
  5
A6B0
  8
0
 10
6174.4396586717257378
 20
1401.927096823058946
 30
0.0
 11
6174.4396586717257378
 21
1401.730096823059057
 31
0.0
  0
ARC
  5
A6B1
  8
0
 10
6131.3010394286848168
 20
1441.3507486969049296
 30
0.0
 40
0.2003491059700551
 50
34.4959402688458283
 51
89.8208089560881007
  0
ARC
  5
A6B2
  8
0
 10
6131.2502058439340544
 20
1441.325865738712082
 30
0.0
 40
0.256470594349616
 50
6.1804009174074546
 51
32.6454575622006473
  0
ARC
  5
A6B3
  8
0
 10
6130.2570519323489862
 20
1441.4675086514200757
 30
0.0
 40
1.253332082703865
 50
349.8266684544420855
 51
354.7798593321862768
  0
ARC
  5
A6B4
  8
0
 10
6131.3672617229030948
 20
1441.3275329628941108
 30
0.0
 40
0.1478416804870446
 50
291.0289664657885851
 51
326.594369100448489
  0
ARC
  5
A6B5
  8
0
 10
6131.2669679086866381
 20
1441.5587907656858988
 30
0.0
 40
0.3998282553925945
 50
278.875962191250494
 51
292.5523831316805854
  0
ARC
  5
A6B6
  8
0
 10
6131.2559522041483433
 20
1443.5503556988649052
 30
0.0
 40
0.2507224211099879
 50
69.3361424454221265
 51
89.975261189283529
  0
ARC
  5
A6B7
  8
0
 10
6131.255768774299213
 20
1443.5498693382260171
 30
0.0
 40
0.2512422222070347
 50
37.3582005881004733
 51
69.3361424454221265
  0
ARC
  5
A6B8
  8
0
 10
6131.2487453260600887
 20
1443.5445076210698971
 30
0.0
 40
0.2600783319862106
 50
11.1648848516081394
 51
37.3582005881004733
  0
ARC
  5
A6B9
  8
0
 10
6130.8272416890958993
 20
1443.4613160780490944
 30
0.0
 40
0.6897132337388046
 50
0.6053527923953166
 51
11.1648848516081394
  0
ARC
  5
A6BA
  8
0
 10
6188.0970599469837907
 20
1444.0664170949219169
 30
0.0
 40
56.5833016208340212
 50
180.6053527923953084
 51
181.2813595673765974
  0
ARC
  5
A6BB
  8
0
 10
6544.849768803634106
 20
1441.344781788804994
 30
0.0
 40
413.3445831026356245
 50
179.7981619007065035
 51
179.9987946881097969
  0
ARC
  5
A6BC
  8
0
 10
7338.8608554784186708
 20
1430.7592128065689394
 30
0.0
 40
1207.4021498905899534
 50
179.4972558025833962
 51
180.957638695938698
  0
ARC
  5
A6BD
  8
0
 10
6134.6206592725202427
 20
1410.610922481057969
 30
0.0
 40
2.9934729342955499
 50
180.5977067471604869
 51
212.5723144402738001
  0
ARC
  5
A6BE
  8
0
 10
6134.6206592725266091
 20
1410.6109224810609248
 30
0.0
 40
2.993472934302527
 50
212.5723144402738001
 51
253.3889876514743946
  0
ARC
  5
A6BF
  8
0
 10
6134.6206592725247901
 20
1410.6109224810529668
 30
0.0
 40
2.9934729342934672
 50
253.3889876514743946
 51
269.8651618079694003
  0
ARC
  5
A6C0
  8
0
 10
6132.6951658040115944
 20
1441.6238686292840612
 30
0.0
 40
2.1889403726061412
 50
95.9297085433635033
 51
109.9611522743002041
  0
ARC
  5
A6C1
  8
0
 10
6131.9891309698250552
 20
1443.4342614763590973
 30
0.0
 40
0.2504625992000066
 50
99.4753686696896864
 51
149.61216985648079
  0
ARC
  5
A6C2
  8
0
 10
6132.4716592355662215
 20
1443.3275655281609033
 30
0.0
 40
0.7365390327565677
 50
161.525810507523488
 51
186.8386022130520132
  0
ARC
  5
A6C3
  8
0
 10
6088.303778939915901
 20
1442.7565034621250106
 30
0.0
 40
43.439270683985491
 50
359.6374926892714825
 51
0.6375583780528788
  0
ARC
  5
A6C4
  8
0
 10
5956.2921221226715716
 20
1435.6140309524519125
 30
0.0
 40
175.5844164606766071
 50
1.7296950378916991
 51
2.2415826348934389
  0
ARC
  5
A6C5
  8
0
 10
6006.9024121548100084
 20
1438.6846592191429863
 30
0.0
 40
124.9140151986805023
 50
0.1871322121578733
 51
1.022576250637953
  0
ARC
  5
A6C6
  8
0
 10
6395.9957903758268003
 20
1439.2168425217830645
 30
0.0
 40
264.1800584632832738
 50
180.0269379264931047
 51
181.1827705363037921
  0
ARC
  5
A6C7
  8
0
 10
-389479.3333924086764455
 20
-2745.3497706780581211
 30
0.0
 40
395633.2782148998812772
 50
0.6046907932176311
 51
0.605232344913849
  0
ARC
  5
A6C8
  8
0
 10
1083304.9840552320238203
 20
12798.7651976834604284
 30
0.0
 40
1077233.0650864411145449
 50
180.6046907932175998
 51
180.6050176695777054
  0
ARC
  5
A6C9
  8
0
 10
-846209.5344627170125023
 20
-7576.7978694831908797
 30
0.0
 40
852389.0328233692562208
 50
0.6046907932176311
 51
0.6050176695777371
  0
ARC
  5
A6CA
  8
0
 10
795010.2664196535479277
 20
9745.0251368079170788
 30
0.0
 40
788922.1748275834834203
 50
180.6046907932175998
 51
180.6050176695777054
  0
ARC
  5
A6CB
  8
0
 10
5040.6353135461613419
 20
1402.990969523809099
 30
0.0
 40
1091.5007527620819019
 50
0.3986147531339306
 51
0.6050176695777371
  0
ARC
  5
A6CC
  8
0
 10
6134.2665357735477301
 20
1410.4696518344239848
 30
0.0
 40
2.1599471730845381
 50
176.9485476417596033
 51
229.36187047904059
  0
ARC
  5
A6CD
  8
0
 10
6134.6182952508579547
 20
1410.6051966691738926
 30
0.0
 40
2.4982932169534662
 50
225.2611957388382109
 51
269.6931010301188962
  0
LINE
  5
A6CE
  8
0
 10
6134.6049134633158246
 20
1408.1069392913930187
 30
0.0
 11
6146.3058925483337589
 21
1408.1069392913930187
 31
0.0
  0
ARC
  5
A6CF
  8
0
 10
6132.0460145612214546
 20
1441.3008264077450349
 30
0.0
 40
0.2502715572725308
 50
90.1730840642388785
 51
125.827716856862196
  0
ARC
  5
A6D0
  8
0
 10
6132.0614527625921255
 20
1441.279442624756939
 30
0.0
 40
0.2766458674326335
 50
125.827716856862196
 51
178.5752469439482866
  0
ARC
  5
A6D1
  8
0
 10
6132.119559924166424
 20
1441.7640317181519549
 30
0.0
 40
0.6048791031569508
 50
242.3865247443667954
 51
262.9309406871283841
  0
ARC
  5
A6D2
  8
0
 10
6131.8947567183513456
 20
1441.3342690550880434
 30
0.0
 40
0.1198714455793346
 50
203.5778186856983041
 51
242.3865247443667954
  0
LINE
  5
A6D3
  8
0
 10
6157.8003993084257672
 20
1440.9610968230590515
 30
0.0
 11
6157.8003993084257672
 21
1401.927096823058946
 31
0.0
  0
LINE
  5
A6D4
  8
0
 10
6151.4711793662972923
 20
1442.7410968230590242
 30
0.0
 11
6175.2054067032258899
 21
1442.7410968230590242
 31
0.0
  0
LINE
  5
A6D5
  8
0
 10
6157.8003993084257672
 20
1440.9610968230590515
 30
0.0
 11
6175.2054067032258899
 21
1440.9610968230590515
 31
0.0
  0
LINE
  5
A6D6
  8
0
 10
6149.1346716465968711
 20
1441.5510968230589697
 30
0.0
 11
6149.4055688210510198
 21
1441.5510968230589697
 31
0.0
  0
LINE
  5
A6D7
  8
0
 10
6149.5823797725888653
 20
1441.5510968230589697
 30
0.0
 11
6149.5823871666852938
 21
1441.5510968230589697
 31
0.0
  0
LINE
  5
A6D8
  8
0
 10
6149.6079248717142036
 20
1441.5510968230589697
 30
0.0
 11
6165.7053993084246031
 21
1441.5510968230589697
 31
0.0
  0
LINE
  5
A6D9
  8
0
 10
6157.7859486282495709
 20
1441.0851258809589126
 30
0.0
 11
6175.2054067032258899
 21
1441.0851258809589126
 31
0.0
  0
LINE
  5
A6DA
  8
0
 10
6149.1219947011177283
 20
1441.1637505792589309
 30
0.0
 11
6149.4072701176837654
 21
1441.1637505792589309
 31
0.0
  0
LINE
  5
A6DB
  8
0
 10
6149.5821462484127551
 20
1441.1637505792589309
 30
0.0
 11
6157.5516950469263975
 21
1441.1637505792589309
 31
0.0
  0
ARC
  5
A6DC
  8
0
 10
6157.5019698110681929
 20
1440.6273210950569137
 30
0.0
 40
0.5387292368180151
 50
58.1883755188099769
 51
84.7040053939794859
  0
ARC
  5
A6DD
  8
0
 10
6151.5993167109118076
 20
1441.7089950276260879
 30
0.0
 40
0.1619580671197774
 50
184.5286037192267941
 51
257.1440723485526973
  0
LINE
  5
A6DE
  8
0
 10
6151.4378642703277364
 20
1441.6962073407910339
 30
0.0
 11
6151.4378642744723038
 21
1442.6564433362968884
 31
0.0
  0
ARC
  5
A6DF
  8
0
 10
6151.5631057973641873
 20
1442.6560301250449356
 30
0.0
 40
0.125247003316888
 50
137.2195050081510885
 51
179.8109643428308004
  0
ARC
  5
A6E0
  8
0
 10
6149.6097665829647667
 20
1441.3507486969049296
 30
0.0
 40
0.2003491059700551
 50
90.1791910439640247
 51
145.5040597311540864
  0
ARC
  5
A6E1
  8
0
 10
6149.6606001677173481
 20
1441.325865738712082
 30
0.0
 40
0.256470594349616
 50
147.3545424377992958
 51
173.8195990825925037
  0
ARC
  5
A6E2
  8
0
 10
6150.6537540793033259
 20
1441.4675086514200757
 30
0.0
 40
1.253332082703865
 50
185.2201406678136095
 51
190.1733315455578861
  0
ARC
  5
A6E3
  8
0
 10
6149.5435442887483077
 20
1441.3275329628941108
 30
0.0
 40
0.1478416804870446
 50
213.405630899551511
 51
248.9710335342113865
  0
ARC
  5
A6E4
  8
0
 10
6149.6438381029638549
 20
1441.5587907656858988
 30
0.0
 40
0.3998282553925945
 50
247.4476168683194999
 51
261.124037808749506
  0
ARC
  5
A6E5
  8
0
 10
6149.6548538075021497
 20
1443.5503556988649052
 30
0.0
 40
0.2507224211099879
 50
90.0247388107164852
 51
110.6638575545778025
  0
ARC
  5
A6E6
  8
0
 10
6149.6550372373512801
 20
1443.5498693382260171
 30
0.0
 40
0.2512422222070347
 50
110.6638575545778025
 51
142.6417994118995125
  0
ARC
  5
A6E7
  8
0
 10
6149.6620606855904043
 20
1443.5445076210698971
 30
0.0
 40
0.2600783319862106
 50
142.6417994118995125
 51
168.8351151483917931
  0
ARC
  5
A6E8
  8
0
 10
6150.0835643225545937
 20
1443.4613160780490944
 30
0.0
 40
0.6897132337388046
 50
168.8351151483917931
 51
179.3946472076046916
  0
ARC
  5
A6E9
  8
0
 10
6092.8137460646667023
 20
1444.0664170949219169
 30
0.0
 40
56.5833016208340212
 50
358.7186404326233742
 51
359.3946472076046916
  0
ARC
  5
A6EA
  8
0
 10
5736.0610372080172965
 20
1441.344781788804994
 30
0.0
 40
413.3445831026356245
 50
0.0012053118902233
 51
0.2018380992935363
  0
ARC
  5
A6EB
  8
0
 10
4942.0499505332309127
 20
1430.7592128065689394
 30
0.0
 40
1207.4021498905899534
 50
359.0423613040547934
 51
0.5027441974165969
  0
ARC
  5
A6EC
  8
0
 10
6146.2901467391293409
 20
1410.610922481057969
 30
0.0
 40
2.9934729342955499
 50
327.4276855597262283
 51
359.4022932528395131
  0
ARC
  5
A6ED
  8
0
 10
6146.2901467391238839
 20
1410.6109224810609248
 30
0.0
 40
2.993472934302527
 50
286.6110123485256054
 51
327.4276855597262283
  0
ARC
  5
A6EE
  8
0
 10
6146.2901467391266124
 20
1410.6109224810529668
 30
0.0
 40
2.9934729342934672
 50
270.1348381920307133
 51
286.6110123485256054
  0
ARC
  5
A6EF
  8
0
 10
6148.2156402076398081
 20
1441.6238686292840612
 30
0.0
 40
2.1889403726061412
 50
70.0388477256997533
 51
84.0702914566883237
  0
ARC
  5
A6F0
  8
0
 10
6148.9216750418263473
 20
1443.4342614763590973
 30
0.0
 40
0.2504625992000066
 50
30.3878301435192313
 51
80.5246313303103136
  0
ARC
  5
A6F1
  8
0
 10
6148.439146776085181
 20
1443.3275655281609033
 30
0.0
 40
0.7365390327565677
 50
353.1613977869478731
 51
18.4741894924765404
  0
ARC
  5
A6F2
  8
0
 10
6192.607027071734592
 20
1442.7565034621250106
 30
0.0
 40
43.439270683985491
 50
179.3624416219471129
 51
180.3625073107284891
  0
ARC
  5
A6F3
  8
0
 10
6324.618683888978012
 20
1435.6140309524519125
 30
0.0
 40
175.5844164606766071
 50
177.7584173651065953
 51
178.2703049621082982
  0
ARC
  5
A6F4
  8
0
 10
6274.0083938568395752
 20
1438.6846592191429863
 30
0.0
 40
124.9140151986805023
 50
178.9774237493620035
 51
179.8128677878420945
  0
ARC
  5
A6F5
  8
0
 10
5884.9150156358227832
 20
1439.2168425217830645
 30
0.0
 40
264.1800584632832738
 50
358.817229463689614
 51
359.9730620735068101
  0
ARC
  5
A6F6
  8
0
 10
401760.2441984203760512
 20
-2745.3497706780581211
 30
0.0
 40
395633.2782148998812772
 50
179.394767655086099
 51
179.3953092067822865
  0
ARC
  5
A6F7
  8
0
 10
-1071024.0732492210809141
 20
12798.7651976834604284
 30
0.0
 40
1077233.0650864411145449
 50
359.3949823304222946
 51
359.3953092067823718
  0
ARC
  5
A6F8
  8
0
 10
858490.4452687286539003
 20
-7576.7978694831908797
 30
0.0
 40
852389.0328233692562208
 50
179.3949823304222093
 51
179.3953092067822865
  0
ARC
  5
A6F9
  8
0
 10
-782729.355613641673699
 20
9745.0251368079170788
 30
0.0
 40
788922.1748275834834203
 50
359.3949823304222946
 51
359.3953092067823718
  0
ARC
  5
A6FA
  8
0
 10
7240.2754924654900606
 20
1402.990969523809099
 30
0.0
 40
1091.5007527620819019
 50
179.3949823304222093
 51
179.6013852468661014
  0
ARC
  5
A6FB
  8
0
 10
6146.6442702381036725
 20
1410.4696518344239848
 30
0.0
 40
2.1599471730845381
 50
310.6381295209592963
 51
3.0514523582403821
  0
ARC
  5
A6FC
  8
0
 10
6146.2925107607934478
 20
1410.6051966691738926
 30
0.0
 40
2.4982932169534662
 50
270.3068989699331155
 51
314.7388042611617038
  0
ARC
  5
A6FD
  8
0
 10
6148.8647914504308574
 20
1441.3008264077450349
 30
0.0
 40
0.2502715572725308
 50
54.1722831431377969
 51
89.8269159357090246
  0
ARC
  5
A6FE
  8
0
 10
6148.8493532490601865
 20
1441.279442624756939
 30
0.0
 40
0.2766458674326335
 50
1.4247530560517101
 51
54.1722831431377969
  0
ARC
  5
A6FF
  8
0
 10
6148.7912460874849785
 20
1441.7640317181519549
 30
0.0
 40
0.6048791031569508
 50
277.0690593128716159
 51
297.6134752556330909
  0
ARC
  5
A700
  8
0
 10
6149.0160492932991474
 20
1441.3342690550880434
 30
0.0
 40
0.1198714455793346
 50
297.6134752556330909
 51
336.4221813143016107
  0
LINE
  5
A701
  8
0
 10
6174.8954067032263993
 20
1442.8010968643588967
 30
0.0
 11
6174.8954067032263993
 21
1442.7410968230590242
 31
0.0
  0
ARC
  5
A702
  8
0
 10
6174.9582106427151302
 20
1443.5779448761520598
 30
0.0
 40
0.2233702139930745
 50
61.9396749895887098
 51
92.5331126040694159
  0
ARC
  5
A703
  8
0
 10
6174.9619444981835841
 20
1443.5849494355270508
 30
0.0
 40
0.2154326117927798
 50
24.2900045649585508
 51
61.9396749895887098
  0
ARC
  5
A704
  8
0
 10
6174.9555160759782666
 20
1443.5820482415861079
 30
0.0
 40
0.2224853799263891
 50
2.2298812979990159
 51
24.2900045649585508
  0
LINE
  5
A705
  8
0
 10
6175.1778329811268122
 20
1443.5907049133240889
 30
0.0
 11
6175.187946296769951
 21
1443.3502399106150733
 31
0.0
  0
LINE
  5
A706
  8
0
 10
6175.1879463170253075
 20
1443.3010968643588967
 30
0.0
 11
6175.1792161246776232
 21
1443.3010968643588967
 31
0.0
  0
LINE
  5
A707
  8
0
 10
6175.1987717570264067
 20
1442.7410968230590242
 30
0.0
 11
6175.1879462966189749
 21
1442.9693928781259729
 31
0.0
  0
ENDSEC
  0
EOF
