  0
SECTION
  2
HEADER
  9
$ACADVER
  1
AC1009
  9
$INSBASE
 10
6216.3155578136256736
 20
1401.730096823059057
 30
0.0
  9
$EXTMIN
 10
6184.0522265421095653
 20
1401.7075499391119138
 30
-0.0000000000112498
  9
$EXTMAX
 10
6216.7780949843909184
 20
1443.897793164893983
 30
0.0000000000002956
  9
$LIMMIN
 10
0.0
 20
0.0
  9
$LIMMAX
 10
11.6929133858000007
 20
8.2677165353999982
  9
$ORTHOMODE
 70
     0
  9
$REGENMODE
 70
     1
  9
$FILLMODE
 70
     1
  9
$QTEXTMODE
 70
     0
  9
$MIRRTEXT
 70
     0
  9
$DRAGMODE
 70
     2
  9
$LTSCALE
 40
0.6431102362
  9
$OSMODE
 70
  4095
  9
$ATTMODE
 70
     1
  9
$TEXTSIZE
 40
0.2
  9
$TRACEWID
 40
0.05
  9
$TEXTSTYLE
  7
STANDARD
  9
$CLAYER
  8
0
  9
$CELTYPE
  6
BYLAYER
  9
$CECOLOR
 62
     1
  9
$DIMSCALE
 40
1.0
  9
$DIMASZ
 40
0.1875
  9
$DIMEXO
 40
0.0625
  9
$DIMDLI
 40
0.4443307087
  9
$DIMRND
 40
0.0
  9
$DIMDLE
 40
0.0
  9
$DIMEXE
 40
0.125
  9
$DIMTP
 40
0.01
  9
$DIMTM
 40
0.01
  9
$DIMTXT
 40
2.0
  9
$DIMCEN
 40
0.1052362205
  9
$DIMTSZ
 40
0.0
  9
$DIMTOL
 70
     1
  9
$DIMLIM
 70
     0
  9
$DIMTIH
 70
     1
  9
$DIMTOH
 70
     1
  9
$DIMSE1
 70
     0
  9
$DIMSE2
 70
     0
  9
$DIMTAD
 70
     0
  9
$DIMZIN
 70
     0
  9
$DIMBLK
  1

  9
$DIMASO
 70
     1
  9
$DIMSHO
 70
     1
  9
$DIMPOST
  1
\X
  9
$DIMAPOST
  1

  9
$DIMALT
 70
     1
  9
$DIMALTD
 70
     2
  9
$DIMALTF
 40
25.3999999999999986
  9
$DIMLFAC
 40
1.0
  9
$DIMTOFL
 70
     0
  9
$DIMTVP
 40
0.0
  9
$DIMTIX
 70
     0
  9
$DIMSOXD
 70
     0
  9
$DIMSAH
 70
     0
  9
$DIMBLK1
  1

  9
$DIMBLK2
  1

  9
$DIMSTYLE
  2
STANDARD
  9
$DIMCLRD
 70
     0
  9
$DIMCLRE
 70
     0
  9
$DIMCLRT
 70
     0
  9
$DIMTFAC
 40
1.0
  9
$DIMGAP
 40
0.09
  9
$LUNITS
 70
     2
  9
$LUPREC
 70
     4
  9
$SKETCHINC
 40
0.1
  9
$FILLETRAD
 40
0.0
  9
$AUNITS
 70
     0
  9
$AUPREC
 70
     0
  9
$MENU
  1
.
  9
$ELEVATION
 40
0.0
  9
$PELEVATION
 40
0.0
  9
$THICKNESS
 40
0.0
  9
$LIMCHECK
 70
     0
  9
$BLIPMODE
 70
     0
  9
$CHAMFERA
 40
0.0
  9
$CHAMFERB
 40
0.0
  9
$SKPOLY
 70
     0
  9
$TDCREATE
 40
2458060.468368056230247
  9
$TDUPDATE
 40
2460047.6098495367914438
  9
$TDINDWG
 40
0.3306320602
  9
$TDUSRTIMER
 40
0.3306320602
  9
$USRTIMER
 70
     1
  9
$ANGBASE
 50
0.0
  9
$ANGDIR
 70
     0
  9
$PDMODE
 70
     0
  9
$PDSIZE
 40
0.3125
  9
$PLINEWID
 40
0.0
  9
$COORDS
 70
     1
  9
$SPLFRAME
 70
     0
  9
$SPLINETYPE
 70
     6
  9
$SPLINESEGS
 70
     8
  9
$ATTDIA
 70
     1
  9
$ATTREQ
 70
     1
  9
$HANDLING
 70
     1
  9
$HANDSEED
  5
A8E3
  9
$SURFTAB1
 70
     6
  9
$SURFTAB2
 70
     6
  9
$SURFTYPE
 70
     6
  9
$SURFU
 70
     6
  9
$SURFV
 70
     6
  9
$UCSNAME
  2

  9
$UCSORG
 10
0.0
 20
0.0
 30
0.0
  9
$UCSXDIR
 10
1.0
 20
0.0
 30
0.0
  9
$UCSYDIR
 10
0.0
 20
1.0
 30
0.0
  9
$PUCSNAME
  2

  9
$PUCSORG
 10
0.0
 20
0.0
 30
0.0
  9
$PUCSXDIR
 10
1.0
 20
0.0
 30
0.0
  9
$PUCSYDIR
 10
0.0
 20
1.0
 30
0.0
  9
$USERI1
 70
     0
  9
$USERI2
 70
     0
  9
$USERI3
 70
     0
  9
$USERI4
 70
     0
  9
$USERI5
 70
     0
  9
$USERR1
 40
0.0
  9
$USERR2
 40
0.0
  9
$USERR3
 40
0.0
  9
$USERR4
 40
0.0
  9
$USERR5
 40
0.0
  9
$WORLDVIEW
 70
     1
  9
$SHADEDGE
 70
     3
  9
$SHADEDIF
 70
    70
  9
$TILEMODE
 70
     1
  9
$MAXACTVP
 70
    64
  9
$PLIMCHECK
 70
     0
  9
$PEXTMIN
 10
1.0000000000000000E+20
 20
1.0000000000000000E+20
 30
1.0000000000000000E+20
  9
$PEXTMAX
 10
-1.0000000000000000E+20
 20
-1.0000000000000000E+20
 30
-1.0000000000000000E+20
  9
$PLIMMIN
 10
0.0
 20
0.0
  9
$PLIMMAX
 10
12.0
 20
9.0
  9
$UNITMODE
 70
     0
  9
$VISRETAIN
 70
     1
  9
$PLINEGEN
 70
     0
  9
$PSLTSCALE
 70
     1
  0
ENDSEC
  0
SECTION
  2
TABLES
  0
TABLE
  2
VPORT
 70
     1
  0
VPORT
  2
*ACTIVE
 70
     0
 10
0.0
 20
0.0
 11
1.0
 21
1.0
 12
2708.4985347866881966
 22
1245.8507062199719257
 13
0.0
 23
0.0
 14
1.0
 24
1.0
 15
0.0
 25
0.0
 16
0.0
 26
0.0
 36
199.3126279314143119
 17
3491.9166259765629547
 27
176.9519653320311932
 37
0.0
 40
42.5246440967921373
 41
2.5251322751322749
 42
50.0
 43
0.0
 44
0.0
 50
0.0
 51
0.0
 71
     0
 72
   100
 73
     1
 74
     1
 75
     0
 76
     0
 77
     0
 78
     0
  0
ENDTAB
  0
TABLE
  2
LTYPE
 70
     2
  0
LTYPE
  2
CONTINUOUS
 70
     0
  3
Solid line
 72
    65
 73
     0
 40
0.0
  0
LTYPE
  2
PHANTOM2
 70
     0
  3
___ _ _ ___ _ _ ___ _ _ ___ _ _
 72
    65
 73
     6
 40
1.25
 49
0.625
 49
-0.125
 49
0.125
 49
-0.125
 49
0.125
 49
-0.125
  0
ENDTAB
  0
TABLE
  2
LAYER
 70
     2
  0
LAYER
  2
0
 70
     0
 62
   255
  6
CONTINUOUS
  0
LAYER
  2
DEFPOINTS
 70
     0
 62
     7
  6
CONTINUOUS
  0
ENDTAB
  0
TABLE
  2
STYLE
 70
     1
  0
STYLE
  2
STANDARD
 70
     0
 40
0.0
 41
0.8
 50
0.0
 71
     0
 42
0.2
  3
txt
  4

  0
ENDTAB
  0
TABLE
  2
VIEW
 70
     0
  0
ENDTAB
  0
TABLE
  2
UCS
 70
     0
  0
ENDTAB
  0
TABLE
  2
APPID
 70
     9
  0
APPID
  2
ACAD
 70
     0
  0
APPID
  2
ACAD_MLEADERVER
 70
     0
  0
APPID
  2
ACAD_EXEMPT_FROM_CAD_STANDARDS
 70
     0
  0
APPID
  2
ACAD_NAV_VCDISPLAY
 70
     0
  0
APPID
  2
ACAECLAYERSTANDARD
 70
     0
  0
APPID
  2
ACCMTRANSPARENCY
 70
     0
  0
APPID
  2
ACAD_DSTYLE_DIMJAG
 70
     0
  0
APPID
  2
ACAD_DSTYLE_DIMTALN
 70
     0
  0
APPID
  2
ACDBATTR
 70
     0
  0
ENDTAB
  0
TABLE
  2
DIMSTYLE
 70
     1
  0
DIMSTYLE
  2
STANDARD
 70
     0
  3

  4

  5

  6

  7

 40
1.0
 41
0.1875
 42
0.0625
 43
0.38
 44
0.125
 45
0.0
 46
0.0
 47
0.01
 48
0.01
140
0.15625
141
0.09
142
0.0
143
25.3999999999999986
144
1.0
145
0.0
146
1.0
147
0.09
 71
     1
 72
     0
 73
     1
 74
     1
 75
     0
 76
     0
 77
     0
 78
     4
170
     0
171
     2
172
     0
173
     0
174
     0
175
     0
176
     0
177
     0
178
     0
  0
ENDTAB
  0
ENDSEC
  0
SECTION
  2
BLOCKS
  0
BLOCK
  8
0
  2
$MODEL_SPACE
 70
     0
 10
0.0
 20
0.0
 30
0.0
  3
$MODEL_SPACE
  1

  0
ENDBLK
  5
21
  8
0
  0
BLOCK
 67
     1
  8
0
  2
$PAPER_SPACE
 70
     0
 10
0.0
 20
0.0
 30
0.0
  3
$PAPER_SPACE
  1

  0
ENDBLK
  5
1D
 67
     1
  8
0
  0
BLOCK
  8
0
  2
_FILLED
 70
     0
 10
0.0
 20
0.0
 30
0.0
  3
_FILLED
  1

  0
SOLID
  5
97DA
  8
0
  6
BYBLOCK
 62
     0
 10
0.0
 20
0.0
 30
0.0
 11
-1.0
 21
0.1666666667
 31
0.0
 12
-1.0
 22
-0.1666666667
 32
0.0
 13
-1.0
 23
-0.1666666667
 33
0.0
  0
ENDBLK
  5
97DB
  8
0
  6
BYBLOCK
 62
     0
  0
ENDSEC
  0
SECTION
  2
ENTITIES
  0
LINE
  5
A553
  8
0
 10
6184.3775578136246622
 20
1401.927096823058946
 30
0.0
 11
6184.7275578136259355
 21
1401.927096823058946
 31
0.0
  0
LINE
  5
A557
  8
0
 10
6187.8058058451251782
 20
1401.730096823059057
 30
0.0
 11
6189.7743097821257834
 21
1401.730096823059057
 31
0.0
  0
LINE
  5
A562
  8
0
 10
6184.8037315434503398
 20
1443.8010968230589697
 30
0.0
 11
6216.3155578136256736
 21
1443.8010968230589697
 31
0.0
  0
LINE
  5
A688
  8
0
 10
6185.6976246570366129
 20
1442.7410968230590242
 30
0.0
 11
6186.0177196197346348
 21
1442.7410968230590242
 31
0.0
  0
LINE
  5
A68B
  8
0
 10
6184.3155578136829718
 20
1442.8010968230589697
 30
0.0
 11
6186.3155578136247641
 21
1442.8010968230589697
 31
0.0
  0
LINE
  5
A68C
  8
0
 10
6212.3068276212779892
 20
1442.8010968230589697
 30
0.0
 11
6216.3155578136256736
 21
1442.8010968230589697
 31
0.0
  0
LINE
  5
A708
  8
0
 10
6184.3155578136829718
 20
1442.8010968230589697
 30
0.0
 11
6184.3336275570263751
 21
1443.3185465718590876
 31
0.0
  0
ARC
  5
A709
  8
0
 10
6184.8333229681984449
 20
1443.301096823646958
 30
0.0
 40
0.499999997659387
 50
152.9938803622796968
 51
178.0000000065410006
  0
ARC
  5
A70A
  8
0
 10
6184.8333229722129545
 20
1443.3010968215999128
 30
0.0
 40
0.5000000021668081
 50
125.3303544291132994
 51
152.9938803622796968
  0
ARC
  5
A70B
  8
0
 10
6184.8333229694735564
 20
1443.301096825463901
 30
0.0
 40
0.4999999974304172
 50
101.8728003880473949
 51
125.3303544291132994
  0
ARC
  5
A70C
  8
0
 10
6184.8528691266656097
 20
1443.2081249436439521
 30
0.0
 40
0.595004329280136
 50
94.7370851312086444
 51
101.8728003880473949
  0
ARC
  5
A70D
  8
0
 10
6184.5662911593453828
 20
1442.6373223322050308
 30
0.0
 40
0.1641082950570119
 50
60.0281157421361868
 51
86.3449619243052098
  0
ARC
  5
A70E
  8
0
 10
6184.5989732245816413
 20
1442.6939935342279568
 30
0.0
 40
0.0986885539463491
 50
28.5087079576405991
 51
60.0281157421361868
  0
ARC
  5
A70F
  8
0
 10
6184.5264486035721347
 20
1442.6546016047980174
 30
0.0
 40
0.1812206371439724
 50
13.6405223554438901
 51
28.5087079576405991
  0
ARC
  5
A710
  8
0
 10
6184.5775578136253898
 20
1442.7450140795590414
 30
0.0
 40
0.1250000000002206
 50
5.7034689274433008
 51
26.6586690479766197
  0
ARC
  5
A711
  8
0
 10
6184.5699847080140898
 20
1442.7442577200490632
 30
0.0
 40
0.1326107823715923
 50
1.365825669523421
 51
5.7034689274951544
  0
LINE
  5
A712
  8
0
 10
6184.7025578136262993
 20
1442.7474186170391022
 30
0.0
 11
6184.7025578136262993
 21
1441.664810950456058
 31
0.0
  0
LINE
  5
A713
  8
0
 10
6184.7981104437249087
 20
1442.7886805842590547
 30
0.0
 11
6185.70320088985045
 21
1442.7410968230590242
 31
0.0
  0
ARC
  5
A714
  8
0
 10
6185.6969673556532143
 20
1442.6225288051830375
 30
0.0
 40
0.1187317641229138
 50
357.2043822904009858
 51
86.9905317097389457
  0
LINE
  5
A715
  8
0
 10
6185.8155578136256736
 20
1442.6167378562590784
 30
0.0
 11
6185.8155578136256736
 21
1441.736961116529983
 31
0.0
  0
ARC
  5
A716
  8
0
 10
6185.6905497141069645
 20
1441.735923256524984
 30
0.0
 40
0.1250124077781239
 50
287.7464869797094025
 51
0.4756782319809739
  0
ARC
  5
A717
  8
0
 10
6185.6905641720295534
 20
1441.7358780804490834
 30
0.0
 40
0.1249649745686949
 50
272.9979223536690824
 51
287.7464869797094025
  0
LINE
  5
A718
  8
0
 10
6185.6970998082251754
 20
1441.6110841289589644
 30
0.0
 11
6184.5577809145743231
 21
1441.5510968230589697
 31
0.0
  0
ARC
  5
A719
  8
0
 10
6184.5655578136593249
 20
1441.3014394393248949
 30
0.0
 40
0.2500000000444341
 50
92.9999999932743577
 51
157.4838367878084
  0
ARC
  5
A71A
  8
0
 10
6184.5655578135629185
 20
1441.3014394393649127
 30
0.0
 40
0.2499999999397759
 50
157.4838367878084
 51
192.4572431909016927
  0
ARC
  5
A71B
  8
0
 10
6184.5655578129508285
 20
1441.3014394392300801
 30
0.0
 40
0.2499999993135834
 50
192.4572431909016927
 51
213.4188548594947861
  0
LINE
  5
A71C
  8
0
 10
6184.3775578136246622
 20
1441.1037955449060064
 30
0.0
 11
6184.3775578136246622
 21
1401.927096823058946
 31
0.0
  0
ARC
  5
A71D
  8
0
 10
6184.249655980866919
 20
1441.0932468741750654
 30
0.0
 40
0.1283360949898024
 50
4.7147838703345419
 51
33.3236452112392101
  0
LINE
  5
A71E
  8
0
 10
6184.7275578136259355
 20
1401.927096823058946
 30
0.0
 11
6184.7275578136259355
 21
1440.9837885332219685
 31
0.0
  0
ARC
  5
A71F
  8
0
 10
6184.5563319339444206
 20
1441.7739553388589684
 30
0.0
 40
0.2235017898096026
 50
278.0865508678203923
 51
285.011129859580592
  0
ARC
  5
A720
  8
0
 10
6184.5856993925108327
 20
1441.6644395907439957
 30
0.0
 40
0.1101168405980804
 50
285.011129859580592
 51
318.5406379522761995
  0
ARC
  5
A721
  8
0
 10
6184.5504954974721841
 20
1441.6955408809260462
 30
0.0
 40
0.1570913493966451
 50
318.5406379522761995
 51
334.3247235623715028
  0
ARC
  5
A722
  8
0
 10
6184.5913761108995459
 20
1441.6758880919389867
 30
0.0
 40
0.1117321533145371
 50
334.3247235623715028
 51
354.3103418395227209
  0
ARC
  5
A723
  8
0
 10
6184.3755517359459191
 20
1440.9763679387649518
 30
0.0
 40
0.3520842852859283
 50
1.2076660191959889
 51
22.24759236975326
  0
ARC
  5
A724
  8
0
 10
6184.3784730374636638
 20
1440.9775629314699472
 30
0.0
 40
0.3489280200685121
 50
22.24759236975326
 51
43.7062843080642622
  0
ARC
  5
A725
  8
0
 10
6184.3762646188442886
 20
1440.975452057324901
 30
0.0
 40
0.3519830000116448
 50
43.7062843080642622
 51
55.4022764382116435
  0
ARC
  5
A726
  8
0
 10
6184.3810209525918253
 20
1440.9823473417000059
 30
0.0
 40
0.3436063862963631
 50
55.4022764382116435
 51
59.0413937062749383
  0
ARC
  5
A727
  8
0
 10
6184.5966821263482416
 20
1441.3418558763200963
 30
0.0
 40
0.0756263990752516
 50
228.3654880537353904
 51
239.0413937062749881
  0
ARC
  5
A728
  8
0
 10
6184.5655578136256736
 20
1441.301439439359001
 30
0.0
 40
0.0250000000001145
 50
194.1662931401710921
 51
220.1104718045118034
  0
ARC
  5
A729
  8
0
 10
6184.5655578136256736
 20
1441.301439439359001
 30
0.0
 40
0.0250000000000627
 50
156.464123542312791
 51
194.1662931400319962
  0
ARC
  5
A72A
  8
0
 10
6184.5655578136256736
 20
1441.301439439359001
 30
0.0
 40
0.0249999999999741
 50
99.4313661943056815
 51
156.4641235422919863
  0
LINE
  5
A72B
  8
0
 10
6184.5614611628716375
 20
1441.3261015044110991
 30
0.0
 11
6185.4726610082334446
 21
1441.374013012037949
 31
0.0
  0
LINE
  5
A72C
  8
0
 10
6185.4726610082443585
 20
1441.374013012037949
 30
0.0
 11
6185.7190090422800495
 21
1441.3870711266940816
 31
0.0
  0
ARC
  5
A72D
  8
0
 10
6185.7023425541246979
 20
1441.7014929785059394
 30
0.0
 40
0.3148632603596048
 50
273.0342248107120895
 51
304.766354659263925
  0
ARC
  5
A72E
  8
0
 10
6185.6663553565031179
 20
1441.7533367054070368
 30
0.0
 40
0.3779730885293655
 50
304.766354659263925
 51
343.731747587348309
  0
ARC
  5
A72F
  8
0
 10
6185.7325448862857229
 20
1441.7340213376789961
 30
0.0
 40
0.3090228362944469
 50
343.731747587348309
 51
4.6334214098114037
  0
LINE
  5
A730
  8
0
 10
6186.0405578136251279
 20
1441.75898430912207
 30
0.0
 11
6186.0405578136251279
 21
1442.6167378562590784
 31
0.0
  0
ARC
  5
A731
  8
0
 10
6185.6905578136247641
 20
1442.6167378562590784
 30
0.0
 40
0.3500000000000369
 50
0.0
 51
31.7854468306358804
  0
LINE
  5
A732
  8
0
 10
6187.9239058452258178
 20
1402.360018082958959
 30
0.0
 11
6189.6562097821251882
 21
1402.360018082958959
 31
0.0
  0
LINE
  5
A733
  8
0
 10
6188.238876711325247
 20
1402.4190732010590636
 30
0.0
 11
6189.341238916025759
 21
1402.4190732010590636
 31
0.0
  0
LINE
  5
A734
  8
0
 10
6188.4061995459260288
 20
1402.718285799458954
 30
0.0
 11
6189.1739160814258867
 21
1402.718285799458954
 31
0.0
  0
LINE
  5
A735
  8
0
 10
6188.040057813625026
 20
1403.9661025509590218
 30
0.0
 11
6189.540057813625026
 21
1403.9661025509590218
 31
0.0
  0
LINE
  5
A736
  8
0
 10
6187.290057813625026
 20
1404.3411025509590218
 30
0.0
 11
6190.290057813625026
 21
1404.3411025509590218
 31
0.0
  0
LINE
  5
A737
  8
0
 10
6185.727557813625026
 20
1406.3411025509590218
 30
0.0
 11
6210.852557813625026
 21
1406.3411025509590218
 31
0.0
  0
LINE
  5
A738
  8
0
 10
6187.8058058452261321
 20
1402.2419180829590459
 30
0.0
 11
6187.8058058452261321
 21
1401.730096823059057
 31
0.0
  0
ARC
  5
A739
  8
0
 10
6187.9239058452258178
 20
1402.2419180829590459
 30
0.0
 40
0.1181
 50
90.0
 51
179.9999999999934914
  0
LINE
  5
A73A
  8
0
 10
6189.7743097821257834
 20
1401.730096823059057
 30
0.0
 11
6189.7743097821257834
 21
1402.2419180829590459
 31
0.0
  0
ARC
  5
A73B
  8
0
 10
6189.6562097821251882
 20
1402.2419180829590459
 30
0.0
 40
0.1181
 50
0.0
 51
90.0
  0
LINE
  5
A73C
  8
0
 10
6189.341238916025759
 20
1402.4190732010590636
 30
0.0
 11
6189.341238916025759
 21
1402.360018082958959
 31
0.0
  0
LINE
  5
A73D
  8
0
 10
6188.238876711325247
 20
1402.4190732010590636
 30
0.0
 11
6188.238876711325247
 21
1402.360018082958959
 31
0.0
  0
LINE
  5
A73E
  8
0
 10
6188.4061995459260288
 20
1402.4190732010590636
 30
0.0
 11
6188.4061995459260288
 21
1402.718285799458954
 31
0.0
  0
LINE
  5
A73F
  8
0
 10
6189.1739160814258867
 20
1402.718285799458954
 30
0.0
 11
6189.1739160814258867
 21
1402.4190732010590636
 31
0.0
  0
LINE
  5
A740
  8
0
 10
6188.5932074199254203
 20
1403.9661025509590218
 30
0.0
 11
6188.5932074199254203
 21
1402.718285799458954
 31
0.0
  0
LINE
  5
A741
  8
0
 10
6188.9869082073264508
 20
1402.718285799458954
 30
0.0
 11
6188.9869082073264508
 21
1403.9661025509590218
 31
0.0
  0
LINE
  5
A742
  8
0
 10
6188.040057813625026
 20
1404.3411025509590218
 30
0.0
 11
6188.040057813625026
 21
1403.9661025509590218
 31
0.0
  0
LINE
  5
A743
  8
0
 10
6189.540057813625026
 20
1404.3411025509590218
 30
0.0
 11
6189.540057813625026
 21
1403.9661025509590218
 31
0.0
  0
LINE
  5
A744
  8
0
 10
6187.290057813625026
 20
1404.3411025509590218
 30
0.0
 11
6187.290057813625026
 21
1406.3411025509590218
 31
0.0
  0
LINE
  5
A745
  8
0
 10
6190.290057813625026
 20
1406.3411025509590218
 30
0.0
 11
6190.290057813625026
 21
1404.3411025509590218
 31
0.0
  0
LINE
  5
A746
  8
0
 10
6185.727557813625026
 20
1404.8411025509590218
 30
0.0
 11
6185.727557813625026
 21
1421.3411025509590218
 31
0.0
  0
LINE
  5
A747
  8
0
 10
6184.852557813625026
 20
1404.8411025509590218
 30
0.0
 11
6185.6162728958415755
 21
1404.8411025509590218
 31
0.0
  0
LINE
  5
A748
  8
0
 10
6185.727557813625026
 20
1404.8411025509590218
 30
0.0
 11
6187.290057813625026
 21
1404.8411025509590218
 31
0.0
  0
LINE
  5
A749
  8
0
 10
6190.290057813625026
 20
1404.8411025509590218
 30
0.0
 11
6206.290057813625026
 21
1404.8411025509590218
 31
0.0
  0
LINE
  5
A74A
  8
0
 10
6209.290057813625026
 20
1404.8411025509590218
 30
0.0
 11
6210.852557813625026
 21
1404.8411025509590218
 31
0.0
  0
LINE
  5
A74B
  8
0
 10
6210.963842731409386
 20
1404.8411025509590218
 30
0.0
 11
6211.727557813625026
 21
1404.8411025509590218
 31
0.0
  0
ARC
  5
A74C
  8
0
 10
6184.852557813625026
 20
1404.9661025509590218
 30
0.0
 40
0.1249999999999929
 50
180.0
 51
270.0
  0
ARC
  5
A74D
  8
0
 10
6185.6008883337726729
 20
1404.9669387266048943
 30
0.0
 40
0.1267731353684994
 50
276.9703136702713095
 51
357.6828730963422913
  0
LINE
  5
A74E
  8
0
 10
6185.9320183369509323
 20
1405.0455630742590074
 30
0.0
 11
6187.290057813625026
 21
1405.0455630742590074
 31
0.0
  0
LINE
  5
A74F
  8
0
 10
6190.290057813625026
 20
1405.0455630742590074
 30
0.0
 11
6206.290057813625026
 21
1405.0455630742590074
 31
0.0
  0
LINE
  5
A750
  8
0
 10
6209.290057813625026
 20
1405.0455630742590074
 30
0.0
 11
6210.6480972903245856
 21
1405.0455630742590074
 31
0.0
  0
LINE
  5
A751
  8
0
 10
6186.9626516491143775
 20
1406.0761963863590154
 30
0.0
 11
6187.290057813625026
 21
1406.0761963863590154
 31
0.0
  0
LINE
  5
A752
  8
0
 10
6190.290057813625026
 20
1406.0761963863590154
 30
0.0
 11
6206.290057813625026
 21
1406.0761963863590154
 31
0.0
  0
ARC
  5
A753
  8
0
 10
6185.7822457719676095
 20
1406.0677895054759574
 30
0.0
 40
0.0553303572546581
 50
145.0611241316971132
 51
171.260645077911704
  0
ARC
  5
A754
  8
0
 10
6185.7794594102369956
 20
1406.0697361103239018
 30
0.0
 40
0.0519313747393672
 50
131.0549977617475008
 51
145.0611241316971132
  0
LINE
  5
A755
  8
0
 10
6185.7453517575022488
 20
1406.1088964947359727
 30
0.0
 11
6185.957655857599093
 21
1406.3212005948319074
 31
0.0
  0
ARC
  5
A756
  8
0
 10
6186.0599717665281787
 20
1406.2188846859030491
 30
0.0
 40
0.1446965460541854
 50
127.8760649300627961
 51
135.0000000000046043
  0
ARC
  5
A757
  8
0
 10
6185.994889645463445
 20
1406.3025584402319055
 30
0.0
 40
0.0386919251848117
 50
95.0098448363232677
 51
127.8760649300627961
  0
ARC
  5
A758
  8
0
 10
6185.7797052729019924
 20
1404.9635546629199325
 30
0.0
 40
0.0526794540791573
 50
188.1496105482497114
 51
232.9379720057046939
  0
ARC
  5
A759
  8
0
 10
6185.7773727480625894
 20
1404.9612487055210295
 30
0.0
 40
0.0494358228646225
 50
233.484519352094992
 51
270.2144902176760866
  0
ARC
  5
A75A
  8
0
 10
6185.7773680776217589
 20
1404.962496293122058
 30
0.0
 40
0.0506834192069709
 50
270.2144902176760866
 51
300.8331066586408724
  0
ARC
  5
A75B
  8
0
 10
6185.7784789390989317
 20
1404.9606352514470018
 30
0.0
 40
0.0485160499866641
 50
300.8331066586408724
 51
315.2144896790678104
  0
LINE
  5
A75C
  8
0
 10
6185.8129131526866331
 20
1404.9264578900028937
 30
0.0
 11
6187.1422024746252646
 21
1406.2557472118589885
 31
0.0
  0
ARC
  5
A75D
  8
0
 10
6187.1068471360304102
 20
1406.2911025504558893
 30
0.0
 40
0.0499999993445742
 50
314.9999999982450731
 51
338.2952246747677236
  0
ARC
  5
A75E
  8
0
 10
6187.1068471342723569
 20
1406.2911025511559728
 30
0.0
 40
0.0500000012374322
 50
338.2952246747677236
 51
3.8428534177524938
  0
ARC
  5
A75F
  8
0
 10
6187.1068471366816084
 20
1406.2911025513180903
 30
0.0
 40
0.0499999988223244
 50
3.8428534177524938
 51
30.6411477975736091
  0
ARC
  5
A760
  8
0
 10
6187.1068471349408355
 20
1406.2911025502869506
 30
0.0
 40
0.0500000008454936
 50
30.64114779756801
 51
67.3540872557377952
  0
ARC
  5
A761
  8
0
 10
6187.1359785044332966
 20
1406.3609284072419996
 30
0.0
 40
0.0256590170437928
 50
230.5939225558846033
 51
247.3540872557402963
  0
LINE
  5
A762
  8
0
 10
6184.7275578136259355
 20
1406.8411025509590218
 30
0.0
 11
6185.727557813625026
 21
1406.8411025509590218
 31
0.0
  0
ARC
  5
A763
  8
0
 10
6184.852557813625026
 20
1406.7161025509590218
 30
0.0
 40
0.125
 50
90.0
 51
180.0
  0
ARC
  5
A764
  8
0
 10
6185.602557813625026
 20
1406.7161025509590218
 30
0.0
 40
0.1250000000000018
 50
0.0
 51
90.0
  0
ARC
  5
A765
  8
0
 10
6184.9075578136262266
 20
1405.0211025509590854
 30
0.0
 40
0.0599999999999952
 50
180.0000000000065086
 51
270.0
  0
LINE
  5
A766
  8
0
 10
6184.9075578136262266
 20
1404.9611025509589126
 30
0.0
 11
6185.5475578136256445
 21
1404.9611025509589126
 31
0.0
  0
ARC
  5
A767
  8
0
 10
6185.5475578136256445
 20
1405.0211025509590854
 30
0.0
 40
0.0600000000000112
 50
270.0
 51
359.9999999999153033
  0
LINE
  5
A768
  8
0
 10
6185.6075578136260447
 20
1405.0211025509590854
 30
0.0
 11
6185.6075578136278637
 21
1406.6611025509589581
 31
0.0
  0
ARC
  5
A769
  8
0
 10
6185.547557813628373
 20
1406.6611025509589581
 30
0.0
 40
0.0599999999999099
 50
359.9999999999153033
 51
90.0000000023970586
  0
LINE
  5
A76A
  8
0
 10
6185.5475578136256445
 20
1406.7211025509589035
 30
0.0
 11
6184.9075578136262266
 21
1406.7211025509320734
 31
0.0
  0
ARC
  5
A76B
  8
0
 10
6184.9075578136280456
 20
1406.6611025509300816
 30
0.0
 40
0.0600000000025247
 50
90.0000000023970586
 51
179.9999999718930042
  0
LINE
  5
A76C
  8
0
 10
6184.8475578136249169
 20
1406.6611025509589581
 30
0.0
 11
6184.8475578128209236
 21
1405.0211025509590854
 31
0.0
  0
ARC
  5
A76D
  8
0
 10
6189.856563058525353
 20
1408.5853490604590661
 30
0.0
 40
2.1851424907999641
 50
201.1565968013975976
 51
214.709237794720309
  0
ARC
  5
A76E
  8
0
 10
6189.856563058525353
 20
1408.5853490604590661
 30
0.0
 40
2.1851424908000912
 50
187.2293922748472141
 51
201.1565968013975976
  0
ARC
  5
A76F
  8
0
 10
6190.1980595289305711
 20
1408.6286680896009784
 30
0.0
 40
2.52937551882831
 50
183.7369757848721861
 51
187.2293922748472141
  0
ARC
  5
A770
  8
0
 10
6195.7710641552403104
 20
1408.9926698578169635
 30
0.0
 40
8.1142549134194812
 50
180.2006348363742916
 51
183.7369757848721861
  0
LINE
  5
A771
  8
0
 10
6187.6568589909657021
 20
1408.9642559171470566
 30
0.0
 11
6187.2246495173249059
 21
1421.3411025509590218
 31
0.0
  0
LINE
  5
A772
  8
0
 10
6185.727557813625026
 20
1421.1822883915299371
 30
0.0
 11
6186.2546503265248248
 21
1407.3411025509590218
 31
0.0
  0
LINE
  5
A773
  8
0
 10
6184.7275578136259355
 20
1421.3411025509590218
 30
0.0
 11
6211.8525578136241165
 21
1421.3411025509590218
 31
0.0
  0
LINE
  5
A774
  8
0
 10
6184.7275578136259355
 20
1422.3411025509590218
 30
0.0
 11
6211.8525578136241165
 21
1422.3411025509590218
 31
0.0
  0
LINE
  5
A775
  8
0
 10
6189.1730708893210249
 20
1442.5510968230601065
 30
0.0
 11
6212.3155578136538679
 21
1442.5510968230589697
 31
0.0
  0
LINE
  5
A776
  8
0
 10
6212.3155578122250517
 20
1442.5510968639589464
 30
0.0
 11
6212.2803323648240621
 21
1443.5598216974090064
 31
0.0
  0
ARC
  5
A777
  8
0
 10
6212.0304846583621838
 20
1443.5510968232399591
 30
0.0
 40
0.2499999997062634
 50
2.0000000006874821
 51
27.2598500844383089
  0
ARC
  5
A778
  8
0
 10
6212.03048465824304
 20
1443.5510968231781135
 30
0.0
 40
0.2499999998410284
 50
27.2598500844383089
 51
63.6390734882537288
  0
ARC
  5
A779
  8
0
 10
6211.8958136780929635
 20
1443.2793387107080889
 30
0.0
 40
0.5532964630391058
 50
63.6390734882537288
 51
70.561488599428003
  0
ARC
  5
A77A
  8
0
 10
6212.5637693324615611
 20
1443.5779060726029002
 30
0.0
 40
0.2236643392469022
 50
93.7292081576566147
 51
133.5870972761277073
  0
ARC
  5
A77B
  8
0
 10
6212.5565620167044472
 20
1443.5842460308599584
 30
0.0
 40
0.2141046896959658
 50
133.3598107371184085
 51
178.1286270419990103
  0
LINE
  5
A77C
  8
0
 10
6212.3425715183057036
 20
1443.591237793531036
 30
0.0
 11
6212.3330967290821718
 21
1443.3012515677969532
 31
0.0
  0
LINE
  5
A77D
  8
0
 10
6216.3155578136256736
 20
1443.8010968230589697
 30
0.0
 11
6216.3155578136256736
 21
1442.8010968230589697
 31
0.0
  0
ARC
  5
A77E
  8
0
 10
6184.8111944941010734
 20
1443.0383379654169858
 30
0.0
 40
0.2500000006797215
 50
251.6333179064376964
 51
266.9999830115567079
  0
LINE
  5
A77F
  8
0
 10
6186.3155578136247641
 20
1442.8010968230589697
 30
0.0
 11
6189.1730708893210249
 21
1442.5510968230601065
 31
0.0
  0
LINE
  5
A780
  8
0
 10
6210.824384447925695
 20
1442.5510968616590617
 30
0.0
 11
6210.0714914692680395
 21
1441.3878169698289184
 31
0.0
  0
LINE
  5
A781
  8
0
 10
6210.0714914692680395
 20
1441.3878169698289184
 30
0.0
 11
6209.406365545425615
 21
1422.3411025509590218
 31
0.0
  0
LINE
  5
A782
  8
0
 10
6187.1897287478259386
 20
1422.3411025509590218
 30
0.0
 11
6187.1519924587246351
 21
1423.4217284827589083
 31
0.0
  0
LINE
  5
A783
  8
0
 10
6187.1519924587246351
 20
1423.4217284827589083
 30
0.0
 11
6186.4746452754061465
 21
1442.7871828880720386
 31
0.0
  0
LINE
  5
A784
  8
0
 10
6188.6603060059023846
 20
1422.6711207823138921
 30
0.0
 11
6192.6086250506032229
 21
1422.8613125348940684
 31
0.0
  0
LINE
  5
A785
  8
0
 10
6192.6086250506032229
 20
1422.8613125348940684
 30
0.0
 11
6198.436268910225408
 21
1423.0648381827359117
 31
0.0
  0
ARC
  5
A786
  8
0
 10
6188.0148351787347565
 20
1423.4797669531369593
 30
0.0
 40
0.8729141904154575
 50
190.0359689829178933
 51
233.4246075276911938
  0
ARC
  5
A787
  8
0
 10
6187.9772909766334124
 20
1423.4291682563919039
 30
0.0
 40
0.8099078794319813
 50
233.4246075276911938
 51
267.0333480198216876
  0
ARC
  5
A788
  8
0
 10
6188.0093736590233675
 20
1424.0482362524130622
 30
0.0
 40
1.4298066471401181
 50
267.0333480198216876
 51
281.1766651622227187
  0
ARC
  5
A789
  8
0
 10
6189.3633690570650288
 20
1409.6507179209879723
 30
0.0
 40
13.0393707028041508
 50
93.0908001861304939
 51
94.7371347977975091
  0
LINE
  5
A78A
  8
0
 10
6208.7743097821257834
 20
1401.730096823059057
 30
0.0
 11
6206.8058058451242687
 21
1401.730096823059057
 31
0.0
  0
LINE
  5
A78B
  8
0
 10
6208.6562097820260533
 20
1402.360018082958959
 30
0.0
 11
6206.9239058451257733
 21
1402.360018082958959
 31
0.0
  0
LINE
  5
A78C
  8
0
 10
6208.3412389159257145
 20
1402.4190732010590636
 30
0.0
 11
6207.2388767112252026
 21
1402.4190732010590636
 31
0.0
  0
LINE
  5
A78D
  8
0
 10
6208.1739160813240233
 20
1402.718285799458954
 30
0.0
 11
6207.4061995458250749
 21
1402.718285799458954
 31
0.0
  0
LINE
  5
A78E
  8
0
 10
6208.540057813625026
 20
1403.9661025509590218
 30
0.0
 11
6207.040057813625026
 21
1403.9661025509590218
 31
0.0
  0
LINE
  5
A78F
  8
0
 10
6209.290057813625026
 20
1404.3411025509590218
 30
0.0
 11
6206.290057813625026
 21
1404.3411025509590218
 31
0.0
  0
LINE
  5
A790
  8
0
 10
6208.7743097820248295
 20
1402.2419180829590459
 30
0.0
 11
6208.7743097820248295
 21
1401.730096823059057
 31
0.0
  0
ARC
  5
A791
  8
0
 10
6208.6562097820260533
 20
1402.2419180829590459
 30
0.0
 40
0.1181
 50
0.0
 51
90.0
  0
LINE
  5
A792
  8
0
 10
6206.8058058451242687
 20
1401.730096823059057
 30
0.0
 11
6206.8058058451242687
 21
1402.2419180829590459
 31
0.0
  0
ARC
  5
A793
  8
0
 10
6206.9239058451257733
 20
1402.2419180829590459
 30
0.0
 40
0.1181
 50
90.0
 51
180.0
  0
LINE
  5
A794
  8
0
 10
6207.2388767112252026
 20
1402.4190732010590636
 30
0.0
 11
6207.2388767112252026
 21
1402.360018082958959
 31
0.0
  0
LINE
  5
A795
  8
0
 10
6208.3412389159257145
 20
1402.4190732010590636
 30
0.0
 11
6208.3412389159257145
 21
1402.360018082958959
 31
0.0
  0
LINE
  5
A796
  8
0
 10
6208.1739160813240233
 20
1402.4190732010590636
 30
0.0
 11
6208.1739160813240233
 21
1402.718285799458954
 31
0.0
  0
LINE
  5
A797
  8
0
 10
6207.4061995458250749
 20
1402.718285799458954
 30
0.0
 11
6207.4061995458250749
 21
1402.4190732010590636
 31
0.0
  0
LINE
  5
A798
  8
0
 10
6207.9869082073264508
 20
1403.9661025509590218
 30
0.0
 11
6207.9869082073264508
 21
1402.718285799458954
 31
0.0
  0
LINE
  5
A799
  8
0
 10
6207.5932074199254203
 20
1402.718285799458954
 30
0.0
 11
6207.5932074199254203
 21
1403.9661025509590218
 31
0.0
  0
LINE
  5
A79A
  8
0
 10
6208.540057813625026
 20
1404.3411025509590218
 30
0.0
 11
6208.540057813625026
 21
1403.9661025509590218
 31
0.0
  0
LINE
  5
A79B
  8
0
 10
6207.040057813625026
 20
1404.3411025509590218
 30
0.0
 11
6207.040057813625026
 21
1403.9661025509590218
 31
0.0
  0
LINE
  5
A79C
  8
0
 10
6209.290057813625026
 20
1404.3411025509590218
 30
0.0
 11
6209.290057813625026
 21
1406.3411025509590218
 31
0.0
  0
LINE
  5
A79D
  8
0
 10
6206.290057813625026
 20
1406.3411025509590218
 30
0.0
 11
6206.290057813625026
 21
1404.3411025509590218
 31
0.0
  0
LINE
  5
A79E
  8
0
 10
6210.852557813625026
 20
1404.8411025509590218
 30
0.0
 11
6210.852557813625026
 21
1421.3411025509590218
 31
0.0
  0
ARC
  5
A79F
  8
0
 10
6211.727557813625026
 20
1404.9661025509590218
 30
0.0
 40
0.1249999999999929
 50
270.0
 51
359.9999999999935199
  0
ARC
  5
A7A0
  8
0
 10
6210.9792272934782886
 20
1404.9669387266048943
 30
0.0
 40
0.1267731353684994
 50
182.317126903657595
 51
263.0296863296769061
  0
LINE
  5
A7A1
  8
0
 10
6209.617463978136584
 20
1406.0761963863590154
 30
0.0
 11
6209.290057813625026
 21
1406.0761963863590154
 31
0.0
  0
ARC
  5
A7A2
  8
0
 10
6210.7978698552833521
 20
1406.0677895054759574
 30
0.0
 40
0.0553303572546581
 50
8.7393549220883262
 51
34.9388758683028868
  0
ARC
  5
A7A3
  8
0
 10
6210.8006562170157849
 20
1406.0697361103239018
 30
0.0
 40
0.0519313747393672
 50
34.9388758683028868
 51
48.9450022382524708
  0
LINE
  5
A7A4
  8
0
 10
6210.8347638697478033
 20
1406.1088964947359727
 30
0.0
 11
6210.6224597696518686
 21
1406.3212005948319074
 31
0.0
  0
ARC
  5
A7A5
  8
0
 10
6210.5201438607227828
 20
1406.2188846859030491
 30
0.0
 40
0.1446965460541854
 50
44.9999999999953886
 51
52.1239350699371968
  0
ARC
  5
A7A6
  8
0
 10
6210.585225981786607
 20
1406.3025584402319055
 30
0.0
 40
0.0386919251848117
 50
52.1239350699371968
 51
84.9901551636767465
  0
ARC
  5
A7A7
  8
0
 10
6210.8004103543489691
 20
1404.9635546629199325
 30
0.0
 40
0.0526794540791573
 50
307.0620279942953061
 51
351.8503894517501749
  0
ARC
  5
A7A8
  8
0
 10
6210.8027428791883722
 20
1404.9612487055210295
 30
0.0
 40
0.0494358228646225
 50
269.785509782271788
 51
306.5154806479048943
  0
ARC
  5
A7A9
  8
0
 10
6210.8027475496292027
 20
1404.962496293122058
 30
0.0
 40
0.0506834192069709
 50
239.1668933413590139
 51
269.785509782271788
  0
ARC
  5
A7AA
  8
0
 10
6210.8016366881511203
 20
1404.9606352514470018
 30
0.0
 40
0.0485160499866641
 50
224.7855103209321896
 51
239.1668933413590139
  0
LINE
  5
A7AB
  8
0
 10
6210.7672024745634189
 20
1404.9264578900028937
 30
0.0
 11
6209.437913152625697
 21
1406.2557472118589885
 31
0.0
  0
ARC
  5
A7AC
  8
0
 10
6209.4732684912205514
 20
1406.2911025504558893
 30
0.0
 40
0.0499999993445742
 50
201.7047753252323048
 51
225.0000000017548984
  0
ARC
  5
A7AD
  8
0
 10
6209.4732684929776951
 20
1406.2911025511559728
 30
0.0
 40
0.0500000012374322
 50
176.157146582247492
 51
201.7047753252323048
  0
ARC
  5
A7AE
  8
0
 10
6209.4732684905693532
 20
1406.2911025513180903
 30
0.0
 40
0.0499999988223244
 50
149.3588522024263909
 51
176.157146582247492
  0
ARC
  5
A7AF
  8
0
 10
6209.473268492310126
 20
1406.2911025502869506
 30
0.0
 40
0.0500000008454936
 50
112.6459127442622048
 51
149.35885220243199
  0
ARC
  5
A7B0
  8
0
 10
6209.4441371228176649
 20
1406.3609284072419996
 30
0.0
 40
0.0256590170437928
 50
292.6459127442597037
 51
309.4060774441153967
  0
LINE
  5
A7B1
  8
0
 10
6211.8525578136241165
 20
1406.8411025509590218
 30
0.0
 11
6210.852557813625026
 21
1406.8411025509590218
 31
0.0
  0
ARC
  5
A7B2
  8
0
 10
6211.727557813625026
 20
1406.7161025509590218
 30
0.0
 40
0.125
 50
359.9999999999935199
 51
90.0
  0
ARC
  5
A7B3
  8
0
 10
6210.977557813625026
 20
1406.7161025509590218
 30
0.0
 40
0.1250000000000018
 50
90.0
 51
180.0
  0
ARC
  5
A7B4
  8
0
 10
6211.6725578136256445
 20
1405.0211025509590854
 30
0.0
 40
0.0599999999999952
 50
270.0
 51
359.9999999999935199
  0
LINE
  5
A7B5
  8
0
 10
6211.6725578136256445
 20
1404.9611025509589126
 30
0.0
 11
6211.0325578136253171
 21
1404.9611025509589126
 31
0.0
  0
ARC
  5
A7B6
  8
0
 10
6211.0325578136253171
 20
1405.0211025509590854
 30
0.0
 40
0.0600000000000112
 50
180.0000000000846114
 51
270.0
  0
LINE
  5
A7B7
  8
0
 10
6210.9725578136258264
 20
1405.0211025509590854
 30
0.0
 11
6210.9725578136230979
 21
1406.6611025509589581
 31
0.0
  0
ARC
  5
A7B8
  8
0
 10
6211.0325578136244076
 20
1406.6611025509589581
 30
0.0
 40
0.0599999999999099
 50
89.9999999976029272
 51
180.0000000000846114
  0
LINE
  5
A7B9
  8
0
 10
6211.0325578136253171
 20
1406.7211025509589035
 30
0.0
 11
6211.6725578136256445
 21
1406.7211025509320734
 31
0.0
  0
ARC
  5
A7BA
  8
0
 10
6211.672557813622916
 20
1406.6611025509300816
 30
0.0
 40
0.0600000000025247
 50
0.0000000281004296
 51
89.9999999976029272
  0
LINE
  5
A7BB
  8
0
 10
6211.7325578136251352
 20
1406.6611025509589581
 30
0.0
 11
6211.732557814430038
 21
1405.0211025509590854
 31
0.0
  0
ARC
  5
A7BC
  8
0
 10
6206.7235525687256086
 20
1408.5853490604590661
 30
0.0
 40
2.1851424907999641
 50
325.2907622052795773
 51
338.8434031986024024
  0
ARC
  5
A7BD
  8
0
 10
6206.7235525687256086
 20
1408.5853490604590661
 30
0.0
 40
2.1851424908000912
 50
338.8434031986024024
 51
352.7706077251527859
  0
ARC
  5
A7BE
  8
0
 10
6206.3820560983203904
 20
1408.6286680896009784
 30
0.0
 40
2.52937551882831
 50
352.7706077251527859
 51
356.2630242151278139
  0
ARC
  5
A7BF
  8
0
 10
6200.8090514720097417
 20
1408.9926698578169635
 30
0.0
 40
8.1142549134194812
 50
356.2630242151278139
 51
359.79936516362568
  0
LINE
  5
A7C0
  8
0
 10
6208.9232566362852594
 20
1408.9642559171470566
 30
0.0
 11
6209.3554661099260557
 21
1421.3411025509590218
 31
0.0
  0
LINE
  5
A7C1
  8
0
 10
6210.852557813625026
 20
1421.1822883915299371
 30
0.0
 11
6210.3254653007261368
 21
1407.3411025509590218
 31
0.0
  0
LINE
  5
A7C2
  8
0
 10
6211.8525578136241165
 20
1404.9661025509590218
 30
0.0
 11
6211.8525578136241165
 21
1406.7161025509590218
 31
0.0
  0
LINE
  5
A7C3
  8
0
 10
6211.8525578136241165
 20
1406.8411025509590218
 30
0.0
 11
6211.8525578136241165
 21
1422.3411025509590218
 31
0.0
  0
LINE
  5
A7C4
  8
0
 10
6185.727557813625026
 20
1407.3411025509590218
 30
0.0
 11
6210.852557813625026
 21
1407.3411025509590218
 31
0.0
  0
LINE
  5
A7C5
  8
0
 10
6198.436268910225408
 20
1423.0648381827359117
 30
0.0
 11
6207.9288151960263349
 21
1422.6781566388590363
 31
0.0
  0
ARC
  5
A7C6
  8
0
 10
6207.8018168715807406
 20
1417.9549047486289055
 30
0.0
 40
4.7249589408771113
 50
81.4932272177200758
 51
88.4598079044891534
  0
ARC
  5
A7C7
  8
0
 10
6208.6210499220251222
 20
1423.4320920977158949
 30
0.0
 40
0.8131566274310392
 50
261.4932272177201185
 51
281.5588040391862137
  0
ARC
  5
A7C8
  8
0
 10
6208.6131782498432585
 20
1423.4705803678530174
 30
0.0
 40
0.852441613890339
 50
281.5588040391862137
 51
318.1274453427012077
  0
ARC
  5
A7C9
  8
0
 10
6208.6288646827870252
 20
1423.4565192938639484
 30
0.0
 40
0.8313755753393964
 50
318.1274453427012077
 51
346.9473372154677122
  0
LINE
  5
A7CA
  8
0
 10
6216.3155578136256736
 20
1443.3010968230589697
 30
0.0
 11
6212.2893672365262319
 21
1443.3010968230589697
 31
0.0
  0
ATTDEF
  5
A7D1
  8
DEFPOINTS
 10
6216.3159535274153313
 20
1401.7337948375579799
 30
0.0
 40
0.001
  1
K-23768T-LCP
  3

  2
MODELNUMBER
 70
     0
1001
ACDBATTR
1070
     0
1070
     1
  0
ATTDEF
  5
A7D2
  8
DEFPOINTS
 10
6216.3159535274153313
 20
1401.7321281708909737
 30
0.0
 40
0.001
  1
BELAY
  3

  2
TRADENAME
 70
     0
1001
ACDBATTR
1070
     0
1070
     1
  0
ATTDEF
  5
A7D3
  8
DEFPOINTS
 10
6216.3159535274153313
 20
1401.7304615042239675
 30
0.0
 40
0.001
  1
BATH
  3

  2
PRODUCT
 70
     0
1001
ACDBATTR
1070
     0
1070
     1
  0
ENDSEC
  0
EOF
